Oops, an error
Loading. Please wait.

An Ocean Between Us Tab

ver1
ver1

Album

Whole song

More versions @911Tabs.com
32,697 views 6 this week
1 commentread comment
1 2 3 4 5
excellent!
x 6
Autoscroll
+/-
esc
set tempo
stop
Difficulty
Tuning
advanced
C G C F A D
Hey! There's an official Ultimate Guitar app which is ideal
for learning songs when you're away from computer. Get the app
WARNING: You are trying to view
                                    content from Ultimate-Guitar.com
                                    in an unauthorized application,
                                    which is prohibited.

                                    Please use an official Ultimate
                                    Guitar Tabs application for iPhone,
                                    iPad or Android to access legitimate
                                    chords, guitar, bass, and drum tabs
                                    from Ultimate-Guitar.com database.

                                    Type "ultimate guitar tabs" in Apple
                                    App Store's or Android Market's
                                    search to find the application.
i didn't tab any of this. i just took the best tabs for the songs. (a few of the
songs are powertabs so just go the powertab website and download the free version and 
can look at them)

1. Separation (N@TE)
2. Nothing Left (cheez1492)
3. An Ocean Between Us (cheez1492)
4. Within Destruction (Unregistered)
5. Forsaken (Unregistered)
6. Comfort Betrays (IbanezAngel)
7. I Never Wanted (cheez1492)
8. Bury Us All (noodlehair)
9. The Sound of Truth (rockxtilxixdie)
10. Departed (shlanky)
11. Wrath Upon Ourselves (emad)
12. This is Who We Are (

---------------------------------------------------------------------------
                          Separation
---------------------------------------------------------------------------- Guitar 1: (0:06--|
D|--------------------------------------------------------------------------------------------|
A|--------------------------------------------------------------------------------------------|
F|-----9-9h10~--------9-9h10~--9--------------------------------------------------------------|
C|---7--------------7------------10-7---------------------------------------------------------|
G|--------------------------------------------------------------------------------------------|
C|-0--------------0---------------------------------------------------------------------------|

Guitar 2:
D|------------------------------------|
A|------------------------------------|
F|------------------------------------|
C|------------------------------------|
G|------------------------------------|
C|------------------------------------|


Guitar 1: (0:12)
D|------------------------------------|
A|------------------------------------|
F|-----9-9h10~--------9-9h10~--9------|
C|---7--------------7------------10-7-|
G|------------------------------------|
C|-5--------------5-------------------|

Guitar 2:
D|------------------------------------|
A|------------------------------------|
F|------------------------------------|
C|------------------------------------|
G|------------------------------------|
C|------------------------------------|


Guitar 1: (0:18)
D|------------------------------------|
A|------------------------------------|
F|-----9-9h10~--------9-9h10~--9------|
C|---7--------------7------------10-7-|
G|------------------------------------|
C|-0--------------0-------------------|

Guitar 2:
D|------------------------------------|
A|------------------------------------|
F|------------------------------------|
C|------------------------------------|
G|------------------------------------|
C|------------------------------------|


Guitar 1: (0:23)
D|-----------------------------------|
A|-----------------------10----------|
F|-----9-9h10~------7-10----7-10-7-9-|
C|---7-------------------------------|
G|-----------------------------------|
C|-5--------------8------------------|

Guitar 2:
D|-----------------------------------|
A|-----------------------------------|
F|--------------------------7-10-7-9-|
C|-----------------------------------|
G|-----------------------------------|
C|-----------------------------------|


Guitar 1: (0:29)
D|------------------------------------|
A|------------------------------------|
F|-----9-9h10~--------9-9h10~--9------|
C|---7--------------7------------10-7-|
G|------------------------------------|
C|-0--------------0-------------------|

Guitar 2:
D|------------------------------------|
A|------------------------------------|
F|------------------------------------|
C|-0~---------------------------------|
G|-0~---------------------------------|
C|-0~---------------------------------|


Guitar 1: (3:34)
D|-----------------------------------|
A|-------------------------10-8------|
F|-----9-9h10~------9h10----------10-|
C|---7-------------------------------|
G|-----------------------------------|
C|-5--------------8------5------7----|

D|-----------------------------------|
A|-----------------------------------|
F|-----------------------------------|
C|-5~------------/8~----\5~----/7~---|
G|-5~------------/8~----\5~----/7~---|
C|-5~------------/8~----\5~----/7~---|


Guitar 1: (0:40)
D|----------------------------------|
A|----------------------------------|
F|-----5-5/7~---------5-5/7~--5-----|
C|---7--------------7-----------7---|
G|--------------------------------8-|
C|-0-------------0------------------|

Guitar 2:
D|------------------------------------|
A|------------------------------------|
F|-----9-9/10~--------9-9/10~--9------|
C|---7--------------7------------10-7-|
G|------------------------------------|
C|-0--------------0-------------------|


Guitar 1: (0:45)
D|------------------------------------|
A|------------------------------------|
F|-----5-5h7~---------7-7/10~--9------|
C|---7--------------7------------10-7-|
G|------------------------------------|
C|-5-------------8--------------------|

Guitar 2:
D|--------------------------------------|
A|--------------------------------------|
F|-----9-9h10~---------10-10/14-12------|
C|---7--------------10-------------14-8-|
G|--------------------------------------|
C|-5--------------8---------------------|


Guitar 1: (0:51)
D|------------------------------------|
A|------------------------------------|
F|-----9-9/10---------9-9h10~--9------|
C|---7--------------7------------10-7-|
G|------------------------------------|
C|-0--------------0-------------------|

Guitar 2:
D|-------------------------------------------|
A|-------------------------------------------|
F|------12-12/14~--------12-12/14~--12-------|
C|---10---------------10---------------14-10-|
G|-------------------------------------------|
C|-0----------------0------------------------|


Guitar 1: (0:56)
D|--------------------------------|
A|------------------------6p5-----|
F|-----9-9h10~------5/7---------7-|
C|---7----------------------------|
G|--------------------------------|
C|-5--------------8-----5-----7---|

Guitar 2:
D|-------------------------------------|
A|---------------------------10p8------|
F|------12-12/14~-----9/10----------10-|
C|---10--------------------------------|
G|-------------------------------------|
C|-5----------------8------5------7----|


Guitar 1: (1:02)
D|----|
A|----|
F|----|
C|-0~-|
G|-0~-|
C|-0~-|

Guitar 2:
D|----|
A|----|
F|----|
C|-0~-|
G|-0~-|
C|-0~-|

-------------------------------------------------------------------------
                             Nothing Left
------------------------------------------------------------------------
Intro
Drop C Tuning
Gtr 1 E E E E E E E E   E E E E E E E E   E E E E E E E E   E E E E E E E E
|-----------------|-----------------|-----------------|-----------------|
|-----------------|-----------------|-----------------|-----------------|
|-----------------|-----------------|-----------------|-----------------|
|---0---0---0---0-|-8-0---0---0---0-|-7-0---0---0---0-|-----------------|
|-----------------|-----------------|-----------------|-------5---------|
|-0---0---0---0---|-----0---0---0---|-----0---0---0---|-0-3-7---8-5-1-3-|
|
| Gtr II
| E E Q   Q   Q     Q   Q   Q   E E   E E Q   Q   Q     E E E E E E E E
|-----------------|-----------------|-----------------|-----------------|
|-----------------|-----------------|-----------------|-----------------|
|-----------------|-----------------|-----------------|-----------------|
|-----------------|-----------------|-----------------|-----------------|
|-0-0-------------|---------------0-|-0-0-------------|-------5---------|
|-0-0-------------|---------------0-|-0-0-------------|-0-3-7---8-5-1-3-|


  E E E E E E E E    E E E E E E E E   E E E E E E E E   E E E E E E E E
|-----------------|------------------|-----------------|-----------------|
|-----------------|------------------|-----------------|-----------------|
|-----------------|------------------|-----------------|-----------------|
|-7-0---0---0---0-|-10-0---0---0---0-|-8-0---0---0---0-|-----------------|
|-----------------|------------------|-----------------|-------5---------|
|-----0---0---0---|------0---0---0---|-----0---0---0---|-0-3-7---8-5-1-3-|
|
| E E Q   Q   E E    E E Q   Q   E E   E E Q   Q   Q     E E E E E E E E
|-----------------|------------------|-----------------|-----------------|
|-----------------|------------------|-----------------|-----------------|
|-----------------|------------------|-----------------|-----------------|
|-----------------|------------------|-----------------|-------------7---|
|-0-0-----------0-|--0-0-----------0-|-0-0-------------|-------5-------8-|
|-0-0-----------0-|--0-0-----------0-|-0-0-------------|-0-3-7---8-5-----|


   E E E E E E E E    E E E E E E E E    E E E E E E E E   E E E E E E E E
|------------------|------------------|------------------|-----------------|
|------------------|------------------|------------------|-----------------|
|------------------|------------------|------------------|-----------------|
|--7-0---0---0---0-|--8-0---0---0---0-|--7-0---0---0---0-|-----------------|
|------------------|------------------|------------------|-------5---------|
|------0---0---0---|------0---0---0---|------0---0---0---|-0-3-7---8-5-1-3-|
|
|  W                  W                  W                 E E E E E E E E
|------------------|------------------|------------------|-----------------|
|-10---------------|-11---------------|-10---------------|-----------------|
|------------------|------------------|------------------|-----------------|
|--7---------------|--8---------------|--7---------------|-----------------|
|------------------|------------------|------------------|-------5---------|
|------------------|------------------|------------------|-0-3-7---8-5-1-3-|


   E E E E E E E E    E E E E E E E E    E E E E E E E E   E E E E E E E E
|------------------|------------------|------------------|-----------------|
|------------------|------------------|------------------|-----------------|
|------------------|------------------|------------------|-----------------|
|--7-0---0---0---0-|-10-0---0---0---0-|--8-0---0---0---0-|-----------------|
|------------------|------------------|------------------|-------5---------|
|------0---0---0---|------0---0---0---|------0---0---0---|-0-3-7---8-5-1-3-|
|
|  W                  W                  W                 E E E E E E E E
|------------------|------------------|------------------|-----------------|
|-10---------------|-13---------------|-11---------------|-----------------|
|------------------|------------------|------------------|-----------------|
|--7---------------|-10---------------|--8---------------|-------------7---|
|------------------|------------------|------------------|-------5-------8-|
|------------------|------------------|------------------|-0-3-7---8-5-----|


  E E E E E E E E   E E E E E E E E   E E E E E E E E   E E E E E E E E
|-----------------|-----------------|-----------------|-----------------|
|-----------------|-----------------|-----------------|-----------------|
|-----------------|-----------------|-----------------|-----------------|
|-7-0---0---0---0-|-8-0---0---0---0-|-7-0---0---0---0-|-----------------|
|-----------------|-----------------|-----------------|-------5---------|
|-----0---0---0---|-----0---0---0---|-----0---0---0---|-0-3-7---8-5-1-3-|
|
| E E E E E E E E   E E E E E E E E   E E E E E E E E   E E E E E E E E
|-----------------|-----------------|-----------------|-----------------|
|-----------------|-----------------|-----------------|-----------------|
|-----------------|-----------------|-----------------|-----------------|
|-7-0---0---0---0-|-8-0---0---0---0-|-7-0---0---0---0-|-----------------|
|-----------------|-----------------|-----------------|-------5---------|
|-----0---0---0---|-----0---0---0---|-----0---0---0---|-0-3-7---8-5-1-3-|


  E E E E E E E E    E E E E E E E E   E E E E E E E E   E E E E E E  Q
|-----------------|------------------|-----------------|------------------|
|-----------------|------------------|-----------------|------------------|
|-----------------|------------------|-----------------|------------------|
|-7-0---0---0---0-|-10-0---0---0---0-|-8-0---0---0---0-|------------------|
|-----------------|------------------|-----------------|-------5-----[5]--|
|-----0---0---0---|------0---0---0---|-----0---0---0---|-0-3-7---8-5------|
|
| E E E E E E E E    E E E E E E E E   E E E E E E E E   E E E E E E  Q
|-----------------|------------------|-----------------|------------------|
|-----------------|------------------|-----------------|------------------|
|-----------------|------------------|-----------------|------------------|
|-7-0---0---0---0-|-10-0---0---0---0-|-8-0---0---0---0-|------------------|
|-----------------|------------------|-----------------|-------5-----[5]--|
|-----0---0---0---|------0---0---0---|-----0---0---0---|-0-3-7---8-5------|


  E E E E E E E E   E E E E E E E E   E E E E E E E E   E E E E E E E E
|-----------------|-----------------|-----------------|-----------------|
|-----------------|-----------------|-----------------|-----------------|
|-----------------|-----------------|-----------------|-----------------|
|-7-0---0---0---0-|-8-0---0---0---0-|-7-0---0---0---0-|-----------------|
|-----------------|-----------------|-----------------|-------5---------|
|-----0---0---0---|-----0---0---0---|-----0---0---0---|-0-3-7---8-5-1-3-|
|
| E E E E E E E E   E E E E E E E E   E E E E E E E E   E E E E E E E E
|-----------------|-----------------|-----------------|-----------------|
|-----------------|-----------------|-----------------|-----------------|
|-----------------|-----------------|-----------------|-----------------|
|-7-0---0---0---0-|-8-0---0---0---0-|-7-0---0---0---0-|-----------------|
|-----------------|-----------------|-----------------|-------5---------|
|-----0---0---0---|-----0---0---0---|-----0---0---0---|-0-3-7---8-5-1-3-|


  E E E E E E E E    E E E E E E E E   E E E E E E E E   E E E E E E E E
|-----------------|------------------|-----------------|-----------------|
|-----------------|------------------|-----------------|-----------------|
|-----------------|------------------|-----------------|-----------------|
|-7-0---0---0---0-|-10-0---0---0---0-|-8-0---0---0---0-|-----------------|
|-----------------|------------------|-----------------|-------5---------|
|-----0---0---0---|------0---0---0---|-----0---0---0---|-0-3-7---8-5-1-3-|
|
| E E E E E E E E    E E E E E E E E   E E E E E E E E   E E E E E E E E
|-----------------|------------------|-----------------|-----------------|
|-----------------|------------------|-----------------|-----------------|
|-----------------|------------------|-----------------|-----------------|
|-7-0---0---0---0-|-10-0---0---0---0-|-8-0---0---0---0-|-----------------|
|-----------------|------------------|-----------------|-------5---------|
|-----0---0---0---|------0---0---0---|-----0---0---0---|-0-3-7---8-5-1-3-|


  W
|------|
|------|
|------|
|------|
|-8----|
|-8----|
|
| W
|------|
|------|
|------|
|------|
|-8----|
|-8----|


  S S S S Q  E E E E   S S S S Q  E E E E
|--------------------|--------------------|
|--------------------|--------------------|
|--------------------|--------------------|
|--------------------|--------------------|
|--------------------|--------------------|
|-0-0-0-0-0----0---0-|-0-0-0-0-0----0---0-|
|
| S S S S Q  E E E E   S S S S Q  E E E E
|--------------------|--------------------|
|--------------------|--------------------|
|--------------------|--------------------|
|--------------------|--------------------|
|--------------------|--------------------|
|-0-0-0-0-0----0---0-|-0-0-0-0-0----0---0-|


  S S S S Q  E E E E   S S S S S S S S S S S S S S S S
|--------------------|----------------------------------|
|--------------------|----------------------------------|
|--------------------|----------------------------------|
|--------------------|----------------------------------|
|--------------------|----------------------------------|
|-0-0-0-0-0----0---0-|-7-0-0-0-5-0-0-0-7-0-0-0-3-0-0-0--|
|
| S S S S Q  E E E E   S S S S S S S S S S S S S S S S
|--------------------|----------------------------------|
|--------------------|----------------------------------|
|--------------------|----------------------------------|
|--------------------|----------------------------------|
|--------------------|----------------------------------|
|-0-0-0-0-0----0---0-|-7-0-0-0-5-0-0-0-7-0-0-0-3-0-0-0--|


  S S S S Q  E E E E   S S S S Q  E E E E
|--------------------|--------------------|
|--------------------|--------------------|
|--------------------|--------------------|
|--------------------|--------------------|
|--------------------|--------------------|
|-0-0-0-0-0----0---0-|-0-0-0-0-0----0---0-|
|
| S S S S Q  E E E E   S S S S Q  E E E E
|--------------------|--------------------|
|--------------------|--------------------|
|--------------------|--------------------|
|--------------------|--------------------|
|--------------------|--------------------|
|-0-0-0-0-0----0---0-|-0-0-0-0-0----0---0-|


  S S S S Q  E E E E   S S S S S S S S S S S S  Q
|--------------------|------------------------------------|
|--------------------|------------------------------------|
|--------------------|------------------------------------|
|--------------------|------------------------------------|
|--------------------|-------------------------12\--------|
|-0-0-0-0-0----0---0-|-7-0-0-0-5-0-0-0-7-0-0-0-12---------|
|
| S S S S Q  E E E E   S S S S S S S S S S S S  S  S S S
|--------------------|------------------------------------|
|--------------------|------------------------------------|
|--------------------|------------------------------------|
|--------------------|------------------------------------|
|--------------------|------------------------------------|
|-0-0-0-0-0----0---0-|-7-0-0-0-5-0-0-0-7-0-0-0--3--0-0-0--|


     S S S S  Q        E   E    E   E      S S S S  Q        E   E    E   E
||--------------------------------------|-------------------------------------|
||o-------------------------------------|-------------------------------------|
||--------------------------------------|-------------------------------------|
||--------------------------------------|-------------------------------------|
||o-------------------------------------|-------------------------------------|
||---0-0-0-0--0------------0--------0---|--0-0-0-0--0------------0--------0---|
|
|    S S S S  S S S S  S S S S  S S S S    S S S S  S S S S  S S S S  S S S S
||--------------------------------------|-------------------------------------|
||o-------------------------------------|-------------------------------------|
||--------------------------------------|-------------------------------------|
||--12-0-0-0-12-0-0-0-12-0-0-0-12-0-0-0-|-12-0-0-0-12-0-0-0-12-0-0-0-12-0-0-0-|
||o-------------------------------------|-------------------------------------|
||--------------------------------------|-------------------------------------|


   S S S S  Q        E   E    E   E      S S S S  S S S S S S S S S S S  S
|-------------------------------------|----------------------------------------||
|-------------------------------------|---------------------------------------o||
|-------------------------------------|----------------------------------------||
|-------------------------------------|----------------------------------------||
|-------------------------------------|---------------------------------------o||
|--0-0-0-0--0------------0--------0---|--7-0-0-0--5-0-0-0-7-0-0-0-3-0-0--0-----||
|
|  S S S S  S S S S  S S S S  S S S S    S S S S  S S S S S S S S S S S  S
|-------------------------------------|----------------------------------------||
|-------------------------------------|---------------------------------------o||
|-------------------------------------|----------------------------------------||
|-12-0-0-0-12-0-0-0-12-0-0-0-12-0-0-0-|-10-0-0-0-10-0-0-0-8-0-0-0-0-7-8-10-----||
|-------------------------------------|---------------------------------------o||
|-------------------------------------|----------------------------------------||


  E E E E E E E E   E E E E E E E E   E E E E E E E E   E E E E E E E E
|-----------------|-----------------|-----------------|-----------------|
|-----------------|-----------------|-----------------|-----------------|
|-----------------|-----------------|-----------------|-----------------|
|-7-0---0---0---0-|-8-0---0---0---0-|-7-0---0---0---0-|-----------------|
|-----------------|-----------------|-----------------|-------5---------|
|-----0---0---0---|-----0---0---0---|-----0---0---0---|-0-3-7---8-5-1-3-|
|
| E E E E E E E E   E E E E E E E E   E E E E E E E E   E E E E E E E E
|-----------------|-----------------|-----------------|-----------------|
|-----------------|-----------------|-----------------|-----------------|
|-----------------|-----------------|-----------------|-----------------|
|-7-0---0---0---0-|-8-0---0---0---0-|-7-0---0---0---0-|-----------------|
|-----------------|-----------------|-----------------|-------5---------|
|-----0---0---0---|-----0---0---0---|-----0---0---0---|-0-3-7---8-5-1-3-|


  E E E E E E E E    E E E E E E E E   E E E E E E E E   E E E E E E E E
|-----------------|------------------|-----------------|-----------------|
|-----------------|------------------|-----------------|-----------------|
|-----------------|------------------|-----------------|-----------------|
|-7-0---0---0---0-|-10-0---0---0---0-|-8-0---0---0---0-|-----------------|
|-----------------|------------------|-----------------|-------5---------|
|-----0---0---0---|------0---0---0---|-----0---0---0---|-0-3-7---8-5-1-3-|
|
| E E E E E E E E    E E E E E E E E   E E E E E E E E   E E E E E E E E
|-----------------|------------------|-----------------|-----------------|
|-----------------|------------------|-----------------|-----------------|
|-----------------|------------------|-----------------|-----------------|
|-7-0---0---0---0-|-10-0---0---0---0-|-8-0---0---0---0-|-------------7---|
|-----------------|------------------|-----------------|-------5-------8-|
|-----0---0---0---|------0---0---0---|-----0---0---0---|-0-3-7---8-5-----|


   H          +E  E  E E    H           +E  E  E  E
|------------------------|-----------------------11-|
|------------------------|-10----------(10)---------|
|-/7----------(7)-7-10-7-|------------------7-10----|
|------------------------|--------------------------|
|------------------------|--------------------------|
|------------------------|--------------------------|
|
|  S S S S Q   E  E  E E    S S S S Q    E  E  E  E
|------------------------|--------------------------|
|------------------------|--------------------------|
|------------------------|--------------------------|
|------------------------|--------------------------|
|------------------------|--------------------------|
|--0-0-0-0-0------0----0-|--0-0-0-0-0-------0-----0-|


   W                     +E     S S  E   E    H
|-10------------------|-(10)---10-8------8---------------------|
|---------------------|-------------11-------10----------------|
|---------------------|----------------------------------------|
|---------------------|----------------------------------------|
|---------------------|----------------------------------------|
|---------------------|----------------------------------------|
|
|  S S S S Q  E E E E     S  S  S S  S S S S  S S S S S S S S
|---------------------|----------------------------------------|
|---------------------|----------------------------------------|
|---------------------|----------------------------------------|
|---------------------|----------------------------------------|
|---------------------|----------------------------------------|
|--0-0-0-0-0----0---0-|---7--0--0-0--5-0-0-0--7-0-0-0-3-0-0-0--|


   H          +E  E  E E    H           +E  E  E  E
|------------------------|-----------------------10-|
|------------------------|-10----------(10)---------|
|-/7----------(7)-7-10-7-|------------------7-10----|
|------------------------|--------------------------|
|------------------------|--------------------------|
|------------------------|--------------------------|
|
|  S S S S Q   E  E  E E    S S S S Q    E  E  E  E
|------------------------|--------------------------|
|------------------------|--------------------------|
|------------------------|--------------------------|
|------------------------|--------------------------|
|------------------------|--------------------------|
|--0-0-0-0-0------0----0-|--0-0-0-0-0-------0-----0-|
|
| Gtr III
|  H          +E  E  E E    H           +E  E  E  E
|------------------------|-10----------(10)------17-|
|--6----------(6)-6-10-6-|------------------6-10----|
|------------------------|--------------------------|
|------------------------|--------------------------|
|------------------------|--------------------------|
|------------------------|--------------------------|


   H               +E    E  E  E    W
|-10b11===========(10)r--8-----8-|-10------------|
|--------------------------10----|---------------|
|--------------------------------|---------------|
|--------------------------------|---------------|
|--------------------------------|---------------|
|--------------------------------|---------------|
|
|  S     S S S Q    E    E  E  E    Q.   Q.   Q
|--------------------------------|---------------|
|--------------------------------|---------------|
|--------------------------------|---------------|
|--------------------------------|---------------|
|--------------------------------|--7----5----3--|
|--0-----0-0-0-0---------0-----0-|--7----5----3--|
|
|  H               +E    E  E  E    W
|-17b18===========(17)r-15----15-|-17------------|
|--------------------------18----|---------------|
|--------------------------------|---------------|
|--------------------------------|---------------|
|--------------------------------|---------------|
|--------------------------------|---------------|


     S S S S  Q        E   E    E   E      S S S S  Q        E   E    E   E
||--------------------------------------|-------------------------------------|
||o-------------------------------------|-------------------------------------|
||--------------------------------------|-------------------------------------|
||--------------------------------------|-------------------------------------|
||o-------------------------------------|-------------------------------------|
||---0-0-0-0--0------------0--------0---|--0-0-0-0--0------------0--------0---|
|
|    S S S S  S S S S  S S S S  S S S S    S S S S  S S S S  S S S S  S S S S
||--------------------------------------|-------------------------------------|
||o-------------------------------------|-------------------------------------|
||--------------------------------------|-------------------------------------|
||--12-0-0-0-12-0-0-0-12-0-0-0-12-0-0-0-|-12-0-0-0-12-0-0-0-12-0-0-0-12-0-0-0-|
||o-------------------------------------|-------------------------------------|
||--------------------------------------|-------------------------------------|


   S S S S  Q        E   E    E   E      S S S S  S S S S S S S S S S S  S
|-------------------------------------|----------------------------------------||
|-------------------------------------|---------------------------------------o||
|-------------------------------------|----------------------------------------||
|-------------------------------------|----------------------------------------||
|-------------------------------------|---------------------------------------o||
|--0-0-0-0--0------------0--------0---|--7-0-0-0--5-0-0-0-7-0-0-0-3-0-0--0-----||
|
|  S S S S  S S S S  S S S S  S S S S    S S S S  S S S S S S S S S S S  S
|-------------------------------------|----------------------------------------||
|-------------------------------------|---------------------------------------o||
|-------------------------------------|----------------------------------------||
|-12-0-0-0-12-0-0-0-12-0-0-0-12-0-0-0-|-10-0-0-0-10-0-0-0-8-0-0-0-0-7-8-10-----||
|-------------------------------------|---------------------------------------o||
|-------------------------------------|----------------------------------------||


  S S S S S S S S S S S S S S S S
|------------------------------------|
|------------------------------------|
|------------------------------------|
|-1-0-0-0-3-0-0-0-1-0-0-0-3-0-0-0----|
|------------------------------------|
|------------------------------------|
|
| S S S S S S S S S S S S S S S S
|------------------------------------|
|------------------------------------|
|------------------------------------|
|------------------------------------|
|------------------------------------|
|-1-0-0-0-3-0-0-0-1-0-0-0-3-0-0-0----|


   S S  S S  E  E  Q     Q       Q     S S  S S  E  E  Q
|-----------------------------|-----------------------------|
|-----------------------------|-----------------------------|
|-----------------------------|-----------------------------|
|-----------------------------|-----------------------------|
|-----------------------------|-----------------------------|
|--0-0--0-0--0--0-------------|--------0-0--0-0--0--0-------|
|
|  E    E    E  E  E  E  E  E    E  E  E    E    E  E  E  E
|-----------------------------|-----------------------------|
|-10---10---10-10-10-10-10-10-|-10-10-10---10---10-10-10-10-|
|--7----7----7--7--7--7--7--7-|--7--7--7----7----7--7--7--7-|
|--0----0----0--0--0--0--0--0-|--0--0--0----0----0--0--0--0-|
|-----------------------------|-----------------------------|
|-----------------------------|-----------------------------|


   W                         W
|-------------------------|-------------------------|
|-------------------------|-------------------------|
|-------------------------|-------------------------|
|-------------------------|-------------------------|
|-------------------------|-------------------------|
|-------------------------|-------------------------|
|
|  E  E  E  E  E  E  E  E    E  E  E  E  E  E  E  E
|-------------------------|-------------------------|
|-11-11-11-11-11-11-11-11-|-11-11-11-11-11-11-11-11-|
|--8--8--8--8--8--8--8--8-|--8--8--8--8--8--8--8--8-|
|--0--0--0--0--0--0--0--0-|--0--0--0--0--0--0--0--0-|
|-------------------------|-------------------------|
|-------------------------|-------------------------|


   S S  S S  E  E  Q     Q       Q     S S  S S  E  E  Q
|-----------------------------|-----------------------------|
|-----------------------------|-----------------------------|
|-----------------------------|-----------------------------|
|-----------------------------|-----------------------------|
|-----------------------------|-----------------------------|
|--0-0--0-0--0--0-------------|--------0-0--0-0--0--0-------|
|
|  E    E    E  E  E  E  E  E    E  E  E    E    E  E  E  E
|-----------------------------|-----------------------------|
|-10---10---10-10-10-10-10-10-|-10-10-10---10---10-10-10-10-|
|--7----7----7--7--7--7--7--7-|--7--7--7----7----7--7--7--7-|
|--0----0----0--0--0--0--0--0-|--0--0--0----0----0--0--0--0-|
|-----------------------------|-----------------------------|
|-----------------------------|-----------------------------|


   W                         H           E  E  Q
|-------------------------|--------------------------|
|-------------------------|--------------------------|
|-------------------------|--------------------------|
|-------------------------|--------------------------|
|-------------------------|-------------------[5]----|
|-------------------------|--------------5--8--------|
|
|  E  E  E  E  E  E  E  E    E  E  E  E  E  E  E   E
|-------------------------|--------------------------|
|-11-11-11-11-11-11-11-11-|-13-13-13-13-13-13-13--13-|
|--8--8--8--8--8--8--8--8-|-10-10-10-10-10-10-10--10-|
|--0--0--0--0--0--0--0--0-|--0--0--0--0--0--0--0---0-|
|-------------------------|--------------------------|
|-------------------------|--------------------------|


   S S  S S  E  E  Q     Q       Q     S S  S S  E  E  Q
|-----------------------------|-----------------------------|
|-----------------------------|-----------------------------|
|-----------------------------|-----------------------------|
|-----------------------------|-----------------------------|
|-----------------------------|-----------------------------|
|--0-0--0-0--0--0-------------|--------0-0--0-0--0--0-------|
|
|  E    E    E  E  E  E  E  E    E  E  E    E    E  E  E  E
|-----------------------------|-----------------------------|
|-10---10---10-10-10-10-10-10-|-10-10-10---10---10-10-10-10-|
|--7----7----7--7--7--7--7--7-|--7--7--7----7----7--7--7--7-|
|--0----0----0--0--0--0--0--0-|--0--0--0----0----0--0--0--0-|
|-----------------------------|-----------------------------|
|-----------------------------|-----------------------------|


   W                         W
|-------------------------|-------------------------|
|-------------------------|-------------------------|
|-------------------------|-------------------------|
|-------------------------|-------------------------|
|-------------------------|-------------------------|
|-------------------------|-------------------------|
|
|  E  E  E  E  E  E  E  E    E  E  E  E  E  E  E  E
|-------------------------|-------------------------|
|-11-11-11-11-11-11-11-11-|-11-11-11-11-11-11-11-11-|
|--8--8--8--8--8--8--8--8-|--8--8--8--8--8--8--8--8-|
|--0--0--0--0--0--0--0--0-|--0--0--0--0--0--0--0--0-|
|-------------------------|-------------------------|
|-------------------------|-------------------------|


   S S  S S  E  E  Q     Q       Q     S S  S S  E  E  Q
|-----------------------------|-----------------------------|
|-----------------------------|-----------------------------|
|-----------------------------|-----------------------------|
|-----------------------------|-----------------------------|
|-----------------------------|-----------------------------|
|--0-0--0-0--0--0-------------|--------0-0--0-0--0--0-------|
|
|  E    E    E  E  E  E  E  E    E  E  E    E    E  E  E  E
|-----------------------------|-----------------------------|
|-10---10---10-10-10-10-10-10-|-10-10-10---10---10-10-10-10-|
|--7----7----7--7--7--7--7--7-|--7--7--7----7----7--7--7--7-|
|--0----0----0--0--0--0--0--0-|--0--0--0----0----0--0--0--0-|
|-----------------------------|-----------------------------|
|-----------------------------|-----------------------------|


   W                         H           E  E  E  E
|-------------------------|-------------------------|
|-------------------------|-------------------------|
|-------------------------|-------------------------|
|-------------------------|-------------------------|
|-------------------------|-------------------------|
|-------------------------|--------------5--8--7--3-|
|
|  E  E  E  E  E  E  E  E    E  E  E  E  E  E  E  E
|-------------------------|-------------------------|
|-11-11-11-11-11-11-11-11-|-13-13-13-13-13-13-13-13-|
|--8--8--8--8--8--8--8--8-|-10-10-10-10-10-10-10-10-|
|--0--0--0--0--0--0--0--0-|--0--0--0--0--0--0--0--0-|
|-------------------------|-------------------------|
|-------------------------|-------------------------|


  H           Q.    Q.   Q    +W           +W
|----------|----------------|------------|-------------|
|----------|-11----10-------|------------|-------------|
|----------|-------------7--|-(7)--------|-(7)---------|
|----------|----------------|------------|-------------|
|----------|----------------|------------|-------------|
|----------|----------------|------------|-------------|
|
| W          +W               +W            H     H
|----------|----------------|------------|-------------|
|----------|----------------|------------|-------------|
|-7--------|-(7)------------|-(7)--------|-------------|
|----------|----------------|------------|-------------|
|-5--------|-(5)------------|-(5)--------|--5-----8----|
|-0--------|-(0)------------|-(0)--------|--5-----8----|


  +W            Q.    Q.   Q    +W           +W
|------------|----------------|------------|-------------|
|------------|-11----10-------|------------|-------------|
|-(7)--------|-------------7--|-(7)--------|-(7)---------|
|------------|----------------|------------|-------------|
|------------|----------------|------------|-------------|
|------------|----------------|------------|-------------|
|
|  W           +W               +W            H     H
|------------|----------------|------------|-------------|
|------------|----------------|------------|-------------|
|--7---------|-(7)------------|-(7)--------|-------------|
|------------|----------------|------------|-------------|
|--5---------|-(5)------------|-(5)--------|--5-----8----|
|--0---------|-(0)------------|-(0)--------|--5-----8----|


  +W            Q.       Q.      Q    +W           +W
|------------|----------------------|------------|-------------|
|------------|-11-------10----------|------------|-------------|
|-(7)--------|-------------------7--|-(7)--------|-(7)---------|
|------------|----------------------|------------|-------------|
|------------|----------------------|------------|-------------|
|------------|----------------------|------------|-------------|
|
|  W           +W                     +W            H     H
|------------|----------------------|------------|-------------|
|------------|----------------------|------------|-------------|
|--7---------|-(7)------------------|-(7)--------|-------------|
|------------|----------------------|------------|-------------|
|--5---------|-(5)------------------|-(5)--------|--5-----8----|
|--0---------|-(0)------------------|-(0)--------|--5-----8----|
|
|  <            <            <         <            <
|  TP           TP           TP        TP           TP    TP
|  W           +H           +H        +W           +H     H
|------------|----------------------|------------|-------------|
|------------|----------------------|------------|-------------|
|--2---------|-(2)b3========(2)r====|=(2)--------|-(2)----5----|
|------------|----------------------|------------|-------------|
|------------|----------------------|------------|-------------|
|------------|----------------------|------------|-------------|


  +W               Q.    Q.    Q     +W                  +W
|--------------|------------------|-------------------|--------------|
|--------------|--11----10--------|-------------------|--------------|
|-(7)----------|---------------7--|--(7)--------------|--(7)---------|
|--------------|------------------|-------------------|--------------|
|--------------|------------------|-------------------|--------------|
|--------------|------------------|-------------------|--------------|
|
|  W              +W                 +W                   H     H
|--------------|------------------|-------------------|--------------|
|--------------|------------------|-------------------|--------------|
|--7-----------|--(7)-------------|--(7)--------------|--------------|
|--------------|------------------|-------------------|--------------|
|--5-----------|--(5)-------------|--(5)--------------|---5-----8----|
|--0-----------|--(0)-------------|--(0)--------------|---5-----8----|
|
|  TP     TP       TP          TP     TP     TP           TP
| +H      H       +H.          Q     +H      H           +H
|--------------|------------------|-------------------|--------------|
|--------10----|-(10)---------13--|-(13)----13b15=====|=(13)---------|
|-(5)----------|------------------|-------------------|--------------|
|--------------|------------------|-------------------|--------------|
|--------------|------------------|-------------------|--------------|
|--------------|------------------|-------------------|--------------|


  E E S S S S E E S S S S   E  E S S S S E E S S S S
|-------------------------|--------------------------|
|-------------------------|--------------------------|
|-------------------------|--------------------------|
|-------------------------|--------------------------|
|-------------------------|--------------------------|
|-0-0-0-0-0-0-0-0-0-0-0-0-|-0--0-0-0-0-0-0-0-0-0-0-0-|
|
| W                         H.               Q
|-------------------------|--------------------------|
|-------------------------|--------------------------|
|-------------------------|------------------5-------|
|-7-----------------------|-8------------------------|
|-5-----------------------|-5----------------5-------|
|-------------------------|--------------------------|


  E E S S S S E E S S S S   S S S S S S S S S S S S S S S S
|-------------------------|------------------------------------|
|-------------------------|------------------------------------|
|-------------------------|------------------------------------|
|-------------------------|------------------------------------|
|-------------------------|------------------------------------|
|-0-0-0-0-0-0-0-0-0-0-0-0-|-7-0-0-0-8-0-0-0-7-0-0-0-8-0-0-0----|
|
| W                         S S S S S S S S S S S S S S S S
|-------------------------|------------------------------------|
|-------------------------|------------------------------------|
|-------------------------|------------------------------------|
|-7-----------------------|------------------------------------|
|-5-----------------------|------------------------------------|
|-------------------------|-7-0-0-0-8-0-0-0-7-0-0-0-8-0-0-0----|


  E E S S S S E E S S S S   E  E S S S S E E S S S S
|-------------------------|--------------------------|
|-------------------------|--------------------------|
|-------------------------|--------------------------|
|-------------------------|--------------------------|
|-------------------------|--------------------------|
|-0-0-0-0-0-0-0-0-0-0-0-0-|-0--0-0-0-0-0-0-0-0-0-0-0-|
|
| W                         H.               Q
|-------------------------|--------------------------|
|-------------------------|--------------------------|
|-------------------------|------------------5-------|
|-7-----------------------|-8------------------------|
|-5-----------------------|-5----------------5-------|
|-------------------------|--------------------------|


  E E S S S S E E S S S S   S S S S S S S S S S S S S S S S
|-------------------------|------------------------------------|
|-------------------------|------------------------------------|
|-------------------------|------------------------------------|
|-------------------------|-7-0-0-0-8-0-0-0-7-0-0-0-8-0-0-0----|
|-------------------------|------------------------------------|
|-0-0-0-0-0-0-0-0-0-0-0-0-|------------------------------------|
|
| W                         S S S S S S S S S S S S S S S S
|-------------------------|------------------------------------|
|-------------------------|------------------------------------|
|-------------------------|------------------------------------|
|-7-----------------------|-7-0-0-0-8-0-0-0-7-0-0-0-8-0-0-0----|
|-5-----------------------|------------------------------------|
|-------------------------|------------------------------------|


  E E S S S S E E S S S S   E  E S S S S E E S S S S
|-------------------------|--------------------------|
|-------------------------|--------------------------|
|-------------------------|--------------------------|
|-------------------------|--------------------------|
|-------------------------|--------------------------|
|-0-0-0-0-0-0-0-0-0-0-0-0-|-0--0-0-0-0-0-0-0-0-0-0-0-|
|
| W                         H.               Q
|-------------------------|--------------------------|
|-------------------------|--------------------------|
|-------------------------|------------------5-------|
|-7-----------------------|-8------------------------|
|-5-----------------------|-5----------------5-------|
|-------------------------|--------------------------|


  E E S S S S E E S S S S   S S S S S S S S S S S S S S S S
|-------------------------|------------------------------------|
|-------------------------|------------------------------------|
|-------------------------|------------------------------------|
|-------------------------|------------------------------------|
|-------------------------|------------------------------------|
|-0-0-0-0-0-0-0-0-0-0-0-0-|-7-0-0-0-8-0-0-0-7-0-0-0-8-0-0-0----|
|
| W                         S S S S S S S S S S S S S S S S
|-------------------------|------------------------------------|
|-------------------------|------------------------------------|
|-------------------------|------------------------------------|
|-7-----------------------|------------------------------------|
|-5-----------------------|------------------------------------|
|-------------------------|-7-0-0-0-8-0-0-0-7-0-0-0-8-0-0-0----|


  E E S S S S E E S S S S   E  E S S S S E E S S S S
|-------------------------|--------------------------|
|-------------------------|--------------------------|
|-------------------------|--------------------------|
|-------------------------|--------------------------|
|-------------------------|--------------------------|
|-0-0-0-0-0-0-0-0-0-0-0-0-|-0--0-0-0-0-0-0-0-0-0-0-0-|
|
| W                         H.               Q
|-------------------------|--------------------------|
|-------------------------|--------------------------|
|-------------------------|------------------5-------|
|-7-----------------------|-8------------------------|
|-5-----------------------|-5----------------5-------|
|-------------------------|--------------------------|


  E E S S S S E E S S S S    S S S S  S S S S  S S S S  S S S S
|-------------------------|----------------------------------------|
|-------------------------|----------------------------------------|
|-------------------------|----------------------------------------|
|-------------------------|-10-0-0-0-12-0-0-0-10-0-0-0-12-0-0-0----|
|-------------------------|----------------------------------------|
|-0-0-0-0-0-0-0-0-0-0-0-0-|----------------------------------------|
|
| W                          S S S S  S S S S  S S S S  S S S S
|-------------------------|----------------------------------------|
|-------------------------|----------------------------------------|
|-------------------------|----------------------------------------|
|-7-----------------------|--7-0-0-0--8-0-0-0--7-0-0-0--8-0-0-0----|
|-5-----------------------|----------------------------------------|
|-------------------------|----------------------------------------|


   S S S S  S S S S  S S S S  S S S S
|-------------------------------------|
|-------------------------------------|
|-------------------------------------|
|-12-0-0-0-10-0-0-0-12-0-0-0-13-0-0-0-|
|-------------------------------------|
|-------------------------------------|
|
|  S S S S  S S S S  S S S S  S S S S
|-------------------------------------|
|-------------------------------------|
|-------------------------------------|
|--8-0-0-0--7-0-0-0--8-0-0-0-10-0-0-0-|
|-------------------------------------|
|-------------------------------------|


   S S S S  S S S S  S S S S  S S S S    S S S S  S S S S  H
|-------------------------------------|-------------------------|
|-------------------------------------|-------------------------|
|-------------------------------------|-------------------14----|
|-15-0-0-0-14-0-0-0-15-0-0-0-17-0-0-0-|-20-0-0-0-19-0-0-0-------|
|-------------------------------------|-------------------------|
|-------------------------------------|-------------------------|
|
|  S S S S  S S S S  S S S S  S S S S    S S S S  S S S S  H
|-------------------------------------|-------------------------|
|-------------------------------------|-------------------------|
|-------------------------------------|-------------------------|
|-12-0-0-0-10-0-0-0-12-0-0-0-13-0-0-0-|-17-0-0-0-15-0-0-0-15----|
|-------------------------------------|-------------------------|
|-------------------------------------|-------------------------|


   W                      E   E  E  E  E  E  Q
|----------------------|-----------------------------|
|----------------------|-----------------------------|
|-17b19================|=17r-19-17----17-------------|
|----------------------|-----------19----17-17b19====|
|----------------------|-----------------------------|
|----------------------|-----------------------------|
|
|  E     E E E E E E E    E   E  E  E  E  E  E     E
|----------------------|-----------------------------|
|----------------------|-----------------------------|
|----------------------|-----------------------------|
|--7-----0---0---0---0-|--8---0-----0-----0--------0-|
|----------------------|-----------------------------|
|----------0---0---0---|---------0-----0-----0-------|


   +W                   E  E  E  E  E  E  E  E
|--------------------|-------------------------|
|--------------------|-------------------------|
|--------------------|----------------------15-|
|-(17)---------------|-------------17----------|
|--------------------|-17-18-17-15----15-15----|
|--------------------|-------------------------|
|
|   E  E E E E E E E    E  E  E  E  E  E  E  E
|--------------------|-------------------------|
|--------------------|-------------------------|
|--------------------|-------------------------|
|---7--0---0---0---0-|-------------------------|
|--------------------|-----------5-------------|
|--------0---0---0---|--0--3--7-----8--5--1--3-|


                          |--3--|
   +H.            E  E    E  E  E  E  E  E  E  E  E
|----------------15-17-|-17-18-17----17-18-17----17-|
|----------------------|----------15----------15----|
|-(15)-----------------|----------------------------|
|----------------------|----------------------------|
|----------------------|----------------------------|
|----------------------|----------------------------|
|
|   E  E E E E E  E  E    E  E  E  E  E  E  E     E
|----------------------|----------------------------|
|----------------------|----------------------------|
|----------------------|----------------------------|
|---7--0---0---0-----0-|-10--0-----0-----0--------0-|
|----------------------|----------------------------|
|--------0---0----0----|--------0-----0-----0-------|


           |--3--|
   +E   E  E  E  E  E  E  E  E    E  E  E  Q.       Q
|-(17)-17----------------------|-------------------------|
|---------15-16-15----15-------|-------------------------|
|------------------17----------|-------------------------|
|---------------------------17-|----17-------------------|
|------------------------18----|-18----18-17------[17]---|
|------------------------------|-------------------------|
|
|   E   E  E  E  E  E  E     E    E  E  E  E  E E   E  E
|------------------------------|-------------------------|
|------------------------------|-------------------------|
|------------------------------|-------------------------|
|---8---0-----0-----0--------0-|-------------------------|
|------------------------------|-----------5-------------|
|----------0-----0-----0-------|--0--3--7-----8-5---1--3-|


   |--3--|                                  |--3--|
   E  E  E  E  E  E  E  E  E    E  E  E  E  E  E  E  E  E
|----------------------------|-------17-18-18-17-15----15-|
|----------------------------|----------------------18----|
|-14-15-14----14-15-14-15-17-|-15-14----------------------|
|----------17----------------|----------------------------|
|----------------------------|----------------------------|
|----------------------------|----------------------------|
|
|  E  E  E  E  E  E  E  E       E  E  E  E  E  E  E  E
|----------------------------|----------------------------|
|----------------------------|----------------------------|
|----------------------------|----------------------------|
|--7--0-----0-----0-----0----|--8--0-----0-----0-----0----|
|----------------------------|----------------------------|
|--------0-----0-----0-------|--------0-----0-----0-------|


   |--3--|
   E  E  E  E  E  E  E  E  E    E  E  E  E  +H
|----------------------------|-------------------------|
|-18-16-15-16----15-16-15----|-------------------------|
|-------------17----------17-|-15-14-12-15-(15)--------|
|----------------------------|-------------------------|
|----------------------------|-------------------------|
|----------------------------|-------------------------|
|
|  E  E  E  E  E  E  E  E       E  E  E  E   E  E E E
|----------------------------|-------------------------|
|----------------------------|-------------------------|
|----------------------------|-------------------------|
|--7--0-----0-----0-----0----|-------------------------|
|----------------------------|-----------5-------------|
|--------0-----0-----0-------|--0--3--7------8--5-1-3--|


   S  S  S  S  S  S  S  S  S  S  S  S  S  S  S  S
|-------------------------------------------------|
|-------------------------------------------------|
|-12----------------------14----------------15----|
|----12-12-12-12-12-12-12----12-12-12-12-12----12-|
|-------------------------------------------------|
|-------------------------------------------------|
|
|  E     E     E     E     E     E     E     E
|-------------------------------------------------|
|-------------------------------------------------|
|-------------------------------------------------|
|--7-----0-----------0-----------0-----------0----|
|-------------------------------------------------|
|--------------0-----------0-----------0----------|


   S  S  S  S  S  S  S  S  S  S  S  S  S  S  S  S
|---------------------------------------------------|
|-------13----------13----16-15-13----15-13---------|
|----------------------------------15-------15-14---|
|-12-12----12-12-12----12---------------------------|
|---------------------------------------------------|
|---------------------------------------------------|
|
|  E     E     E     E        E     E     E     E
|---------------------------------------------------|
|---------------------------------------------------|
|---------------------------------------------------|
|-10-----0-----------0--------------0-----------0---|
|---------------------------------------------------|
|--------------0--------------0-----------0---------|


   S  S  S  S  S  S  S  S  S  S  S  S  S  S  S  S
|-------------------------------------------------|
|-------------------------------------------------|
|-12----------------------14----------------15----|
|----12-12-12-12-12-12-12----12-12-12-12-12----12-|
|-------------------------------------------------|
|-------------------------------------------------|
|
|  E     E     E     E     E     E     E     E
|-------------------------------------------------|
|-------------------------------------------------|
|-------------------------------------------------|
|--8-----0-----------0-----------0-----------0----|
|-------------------------------------------------|
|--------------0-----------0-----------0----------|


   S  S  S  S  S  S  S  S  S  S  S  S  S  S  S  S
|---------------------------------------------------|
|----------13----16-15-13----15-13-------13---------|
|-------------------------15-------15-14----15-14---|
|-12-12-12----12------------------------------------|
|---------------------------------------------------|
|---------------------------------------------------|
|
|  E     E     E     E     E     E     E     E
|---------------------------------------------------|
|---------------------------------------------------|
|---------------------------------------------------|
|---------------------------------------------------|
|--------------------5------------------------------|
|--0-----3-----7-----------8-----5-----1-----3------|


                                      >
   W                                 +W
|-20b22===========================|=(20)--------------------------|
|---------------------------------|-------------------------------|
|---------------------------------|-------------------------------|
|---------------------------------|-------------------------------|
|---------------------------------|-------------------------------|
|---------------------------------|-------------------------------|
|
|  S     S  S S  E  E  Q     Q        Q      S S  S S  E  E  Q
|---------------------------------|-------------------------------|
|---------------------------------|-------------------------------|
|---------------------------------|-------------------------------|
|---------------------------------|-------------------------------|
|---------------------------------|-------------------------------|
|--0-----0--0-0--0--0-------------|----------0-0--0-0--0--0-------|
|
|  E        E    E  E  E  E  E  E     E   E  E    E    E  E  E  E
|---------------------------------|-------------------------------|
|-10-------10---10-10-10-10-10-10-|--10--10-10---10---10-10-10-10-|
|--7--------7----7--7--7--7--7--7-|---7---7--7----7----7--7--7--7-|
|--0--------0----0--0--0--0--0--0-|---0---0--0----0----0--0--0--0-|
|---------------------------------|-------------------------------|
|---------------------------------|-------------------------------|


   W                         W
|-------------------------|-------------------------|
|-------------------------|-------------------------|
|-------------------------|-------------------------|
|-------------------------|-------------------------|
|-------------------------|-------------------------|
|-------------------------|-------------------------|
|
|  W                         W
|-------------------------|-------------------------|
|-------------------------|-------------------------|
|-------------------------|-------------------------|
|-------------------------|-------------------------|
|-------------------------|-------------------------|
|-------------------------|-------------------------|
|
|  E  E  E  E  E  E  E  E    E  E  E  E  E  E  E  E
|-------------------------|-------------------------|
|-11-11-11-11-11-11-11-11-|-11-11-11-11-11-11-11-11-|
|--8--8--8--8--8--8--8--8-|--8--8--8--8--8--8--8--8-|
|--0--0--0--0--0--0--0--0-|--0--0--0--0--0--0--0--0-|
|-------------------------|-------------------------|
|-------------------------|-------------------------|


   S S  S S  E  E  Q     Q       Q     S S  S S  E  E  Q
|-----------------------------|-----------------------------|
|-----------------------------|-----------------------------|
|-----------------------------|-----------------------------|
|-----------------------------|-----------------------------|
|-----------------------------|-----------------------------|
|--0-0--0-0--0--0-------------|--------0-0--0-0--0--0-------|
|
|  E    E    E  E  E  E  E  E    E  E  E    E    E  E  E  E
|-----------------------------|-----------------------------|
|-10---10---10-10-10-10-10-10-|-10-10-10---10---10-10-10-10-|
|--7----7----7--7--7--7--7--7-|--7--7--7----7----7--7--7--7-|
|--0----0----0--0--0--0--0--0-|--0--0--0----0----0--0--0--0-|
|-----------------------------|-----------------------------|
|-----------------------------|-----------------------------|


   W                         H           E  E  Q
|-------------------------|--------------------------|
|-------------------------|--------------------------|
|-------------------------|--------------------------|
|-------------------------|--------------------------|
|-------------------------|-------------------[5]----|
|-------------------------|--------------5--8--------|
|
|  E  E  E  E  E  E  E  E    E  E  E  E  E  E  E   E
|-------------------------|--------------------------|
|-11-11-11-11-11-11-11-11-|-13-13-13-13-13-13-13--13-|
|--8--8--8--8--8--8--8--8-|-10-10-10-10-10-10-10--10-|
|--0--0--0--0--0--0--0--0-|--0--0--0--0--0--0--0---0-|
|-------------------------|--------------------------|
|-------------------------|--------------------------|


   S S  S S  E  E  Q     Q       Q     S S  S S  E  E  Q
|-----------------------------|-----------------------------|
|-----------------------------|-----------------------------|
|-----------------------------|-----------------------------|
|-----------------------------|-----------------------------|
|-----------------------------|-----------------------------|
|--0-0--0-0--0--0-------------|--------0-0--0-0--0--0-------|
|
|  E    E    E  E  E  E  E  E    E  E  E    E    E  E  E  E
|-----------------------------|-----------------------------|
|-10---10---10-10-10-10-10-10-|-10-10-10---10---10-10-10-10-|
|--7----7----7--7--7--7--7--7-|--7--7--7----7----7--7--7--7-|
|--0----0----0--0--0--0--0--0-|--0--0--0----0----0--0--0--0-|
|-----------------------------|-----------------------------|
|-----------------------------|-----------------------------|


   W                         W
|-------------------------|-------------------------|
|-------------------------|-------------------------|
|-------------------------|-------------------------|
|-------------------------|-------------------------|
|-------------------------|-------------------------|
|-------------------------|-------------------------|
|
|  E  E  E  E  E  E  E  E    E  E  E  E  E  E  E  E
|-------------------------|-------------------------|
|-11-11-11-11-11-11-11-11-|-11-11-11-11-11-11-11-11-|
|--8--8--8--8--8--8--8--8-|--8--8--8--8--8--8--8--8-|
|--0--0--0--0--0--0--0--0-|--0--0--0--0--0--0--0--0-|
|-------------------------|-------------------------|
|-------------------------|-------------------------|


   S S  S S  E  E  Q     Q       Q     S S  S S  E  E  Q
|-----------------------------|-----------------------------|
|-----------------------------|-----------------------------|
|-----------------------------|-----------------------------|
|-----------------------------|-----------------------------|
|-----------------------------|-----------------------------|
|--0-0--0-0--0--0-------------|--------0-0--0-0--0--0-------|
|
|  E    E    E  E  E  E  E  E    E  E  E    E    E  E  E  E
|-----------------------------|-----------------------------|
|-10---10---10-10-10-10-10-10-|-10-10-10---10---10-10-10-10-|
|--7----7----7--7--7--7--7--7-|--7--7--7----7----7--7--7--7-|
|--0----0----0--0--0--0--0--0-|--0--0--0----0----0--0--0--0-|
|-----------------------------|-----------------------------|
|-----------------------------|-----------------------------|


   W                         H           E  E  E  E
|-------------------------|-------------------------|
|-------------------------|-------------------------|
|-------------------------|-------------------------|
|-------------------------|-------------------------|
|-------------------------|-------------------------|
|-------------------------|--------------5--8--7--3-|
|
|  E  E  E  E  E  E  E  E    E  E  E  E  E  E  E  E
|-------------------------|-------------------------|
|-11-11-11-11-11-11-11-11-|-13-13-13-13-13-13-13-13-|
|--8--8--8--8--8--8--8--8-|-10-10-10-10-10-10-10-10-|
|--0--0--0--0--0--0--0--0-|--0--0--0--0--0--0--0--0-|
|-------------------------|-------------------------|
|-------------------------|-------------------------|


  W
|------|
|------|
|------|
|-0----|
|-0----|
|-0----|
|
| W
|------|
|------|
|------|
|-0----|
|-0----|
|-0----|

----------------------------------------------------------------------------
                      An Ocean Between Us
----------------------------------------------------------------------------
Gtr I
Drop C Tuning
  E E E E E E E E   E E E E E E E E   E E E E E E E E   E E E E E E E E
|-----------------|-----------------|-----------------|-------------------|
|-----------------|-----------------|-----------------|-------------------|
|-----------------|-----------------|-----------------|-------------------|
|-----0-----0---0-|-----0-----------|-----0-----0---0-|-----0-------------|
|-------------0---|---------5p0-----|-------------0---|---------5p0-------|
|-0h7---0h7-------|-0h7---0-----8p5-|-0h7---0h7-------|-0h7---0-----8p5---|
|
| Gtr II
| E E E E E E E E   E E E E E E E E   E E E E E E E E   E E E E E E E E
|-----------------|-----------------|-----------------|-------------------|
|-----------------|-----------------|-----------------|-------------------|
|-----------------|-----------------|-----------------|-------------------|
|-----0-----0---0-|-----0-----------|-----0-----0---0-|-----0-------------|
|-------------0---|---------5p0-----|-------------0---|---------5p0-------|
|-0h7---0h7-------|-0h7---0-----8p5-|-0h7---0h7-------|-0h7---0-----8p5---|


  E E E E E E E E   E E E E E E E E   E E E E E E E E   E E E E Q Q
|-----------------|-----------------|-----------------|---------------|
|-----------------|-----------------|-----------------|---------------|
|-----------------|-----------------|-----------------|---------------|
|-----0-----0---0-|-----0-----------|-----0-----0---0-|-----0---------|
|-------------0---|---------5p0-----|-------------0---|---------0-----|
|-0h7---0h7-------|-0h7---0-----8p5-|-0h7---0h7-------|-0h7---0-0-----|
|
| E E E E E E E E   E E E E E E E E   E E E E E E E E   E E E E Q Q
|-----------------|-----------------|-----------------|---------------|
|-----------------|-----------------|-----------------|---------------|
|-----------------|-----------------|-----------------|---------------|
|-----0-----0---0-|-----0-----------|-----0-----0---0-|-----0---------|
|-------------0---|---------5p0-----|-------------0---|---------0-----|
|-0h7---0h7-------|-0h7---0-----8p5-|-0h7---0h7-------|-0h7---0-0-----|


    E E E E E E E E   E E E E E E E E   E E E E E E E E   E E E E E E E E
||------------------|-----------------|-----------------|-------------------||
||o-----------------|-----------------|-----------------|------------------o||
||------------------|-----------------|-----------------|-------------------||
||------0-----0---0-|-----0-----------|-----0-----0---0-|-----0-------------||
||o-------------0---|---------5p0-----|-------------0---|---------5p0------o||
||--0h7---0h7-------|-0h7---0-----8p5-|-0h7---0h7-------|-0h7---0-----8p5---||
|
|   E E E E E E E E   E E E E E E E E   E E E E E E E E   E E E E E E E E
||------------------|-----------------|-----------------|-------------------||
||o-----------------|-----------------|-----------------|------------------o||
||------------------|-----------------|-----------------|-------------------||
||------0-----0---0-|-----0-----------|-----0-----0---0-|-----0-------------||
||o-------------0---|---------5p0-----|-------------0---|---------5p0------o||
||--0h7---0h7-------|-0h7---0-----8p5-|-0h7---0h7-------|-0h7---0-----8p5---||


  E E E E E E E E   E E E E E E E E   E E E E E E E E   E E E E E E E E
|-----------------|-----------------|-----------------|-------------------|
|-----------------|-----------------|-----------------|-------------------|
|-----------------|-----------------|-----------------|-------------------|
|-----0-----0---0-|-----0-----------|-----0-----0---0-|-----0-------------|
|-------------0---|---------5p0-----|-------------0---|---------5p0-------|
|-0h7---0h7-------|-0h7---0-----8p5-|-0h7---0h7-------|-0h7---0-----8p5---|
|
| E E E E E E E E   E E E E E E E E   E E E E E E E E   E E E E E E E E
|-----------------|-----------------|-----------------|-------------------|
|-----------------|-----------------|-----------------|-------------------|
|-----------------|-----------------|-----------------|-------------------|
|-----------------|-----------------|-----------------|-------------------|
|-----8-----8---8-|-----8---8p0-----|-----8-----8---8-|-----8---8p0-------|
|-0h7---0h7---7---|-0h7---0-----8p5-|-0h7---0h7---7---|-0h7---0-----8p5---|


                                          PM  PM  PM    PM  PM|
  E E E E E E E E   E E E E E E E E   E E E E E E E E   E E E E E E E E
|-----------------|-----------------|-----------------|-----------------|
|-----------------|-----------------|-----------------|-----------------|
|-----------------|-----------------|-----------------|-----------------|
|-----0-----0---0-|-----0-----------|-----------------|---------2h3p2---|
|-------------0---|---------5p0-----|-0h1---1---3---5-|---8-----------3-|
|-0h7---0h7-------|-0h7---0-----8p5-|-----5---5---5---|-7---7-7---------|
|
|                                         PM  PM  PM    PM  PM|
| E E E E E E E E   E E E E E E E E   E E E E E E E E   E E E E E E E E
|-----------------|-----------------|-----------------|-----------------|
|-----------------|-----------------|-----------------|-----------------|
|-----------------|-----------------|-----------------|-----------------|
|-----------------|-----------------|-----------------|---------2h3p2---|
|-----8-----8---8-|-----8---8p0-----|-0h1---1---3---5-|---8-----------3-|
|-0h7---0h7---7---|-0h7---0-----8p5-|-----5---5---5---|-7---7-7---------|


        PM------------------|               PM------------------|
    E E E E E E E E   E E E E E E E E   E E E E E E E E   E E E E E E E E
||------------------|-----------------|-----------------|------------------|
||o-----------------|-----------------|-----------------|------------------|
||------------------|-----------------|-----------------|------------------|
||--2p0-------------|---------2h3p2---|-2h3-------------|---------2h3p2----|
||o-----------------|---------------3-|-----------------|---------------3--|
||------0-0-0-0-0-0-|-0-0-0-0---------|-----0-0-0-0-0-0-|-0-0-0-0----------|
|
|       PM------------------|               PM------------------|
|   E E E E E E E E   E E E E E E E E   E E E E E E E E   E E E E E E E E
||------------------|-----------------|-----------------|------------------|
||o-----------------|-----------------|-----------------|------------------|
||------------------|-----------------|-----------------|------------------|
||--2p0-------------|---------2h3p2---|-2h3-------------|---------2h3p2----|
||o-----------------|---------------3-|-----------------|---------------3--|
||------0-0-0-0-0-0-|-0-0-0-0---------|-----0-0-0-0-0-0-|-0-0-0-0----------|


      PM------------------|               PM  PM  PM    PM  PM|
  E E E E E E E E   E E E E E E E E   E E E E E E E E   E E E E E E E E
|-----------------|-----------------|-----------------|------------------||
|-----------------|-----------------|-----------------|-----------------o||
|-----------------|-----------------|-----------------|------------------||
|-2p0-------------|---------2h3p2---|-----------------|---------2h3p2----||
|-----------------|---------------3-|-0h1---1---3---5-|---8-----------3-o||
|-----0-0-0-0-0-0-|-0-0-0-0---------|-----5---5---5---|-7---7-7----------||
|
|     PM------------------|               PM  PM  PM    PM  PM|
| E E E E E E E E   E E E E E E E E   E E E E E E E E   E E E E E E E E
|-----------------|-----------------|-----------------|------------------||
|-----------------|-----------------|-----------------|-----------------o||
|-----------------|-----------------|-----------------|------------------||
|-2p0-------------|---------2h3p2---|-----------------|---------2h3p2----||
|-----------------|---------------3-|-0h1---1---3---5-|---8-----------3-o||
|-----0-0-0-0-0-0-|-0-0-0-0---------|-----5---5---5---|-7---7-7----------||


        PM------------------|               PM------------------|
    E E E E E E E E   E E E E E E E E   E E E E E E E E   E E E E E E E E
||------------------|-----------------|-----------------|----------------|
||o-----------------|-----------------|-----------------|----------------|
||------------------|-----------------|-----------------|----------------|
||--2p0-------------|---------2h3p2---|-2h3-------------|---------2h3p2--|
||o-----------------|---------------3-|-----------------|---------------3|
||------0-0-0-0-0-0-|-0-0-0-0---------|-----0-0-0-0-0-0-|-0-0-0-0--------|
|
|       PM------------------|               PM------------------|
|   E E E E E E E E   E E E E E E E E   E E E E E E E E   E E E E E E E E
||------------------|-----------------|-----------------|----------------|
||o-----------------|-----------------|-----------------|----------------|
||------------------|-----------------|-----------------|----------------|
||--7p3-------------|---------5h7p5-3-|-5h7-------------|---------5h7p5-3|
||o-----------------|-----------------|-----------------|----------------|
||------0-0-0-0-0-0-|-0-0-0-0---------|-----0-0-0-0-0-0-|-0-0-0-0--------|


      PM------------------|               PM  PM  PM    PM  PM|
  E E E E E E E E   E E E E E E E E   E E E E E E E E   E E E E E E E E
|-----------------|-----------------|-----------------|------------------||
|-----------------|-----------------|-----------------|-----------------o||
|-----------------|-----------------|-----------------|------------------||
|-2p0-------------|---------2h3p2---|-----------------|---------2h3p2----||
|-----------------|---------------3-|-0h1---1---3---5-|---8-----------3-o||
|-----0-0-0-0-0-0-|-0-0-0-0---------|-----5---5---5---|-7---7-7----------||
|
|     PM------------------|               PM  PM  PM    PM  PM|
| E E E E E E E E   E E E E E E E E   E E E E E E E E   E E E E E E E E
|-----------------|-----------------|-----------------|------------------||
|-----------------|-----------------|-----------------|-----------------o||
|-----------------|-----------------|-----------------|------------------||
|-7p3-------------|---------5h7p5-3-|-----------------|---------5h7p5-3--||
|-----------------|-----------------|-0h1---1---3---5-|---8-------------o||
|-----0-0-0-0-0-0-|-0-0-0-0---------|-----5---5---5---|-7---7-7----------||


    PM----------------------------------------------------------------|
    E E E E E E E E   E E E E E E E E   E E E E E E E E   E E E E E E E E
||------------------|-----------------|-----------------|-----------------||
||o-----------------|-----------------|-----------------|----------------o||
||------------------|-----------------|-----------------|-----------------||
||------------------|-----------------|-----------------|-----------------||
||o-----------------|-----------------|-----------------|----------------o||
||--0-0-0-0-0-0-0-0-|-0-0-0-0-0-0-0-0-|-0-0-0-0-0-0-0-0-|-0-0-0-0-0-0-0-0-||
|
|   E E E E E E E E   E E E E E E E E   E E E E E E E E   E E E E E E E E
||------------------|-----------------|-----------------|-----------------||
||o-----------------|-----------------|-----------------|----------------o||
||--7-7-7-7-7-7-7-7-|-7-7-7-7-7-7-7-7-|-7-7-7-7-7-7-7-7-|-7-7-7-7-7-7-7-7-||
||------------------|-----------------|-----------------|-----------------||
||o-5-5-5-5-5-5-5-5-|-5-5-5-5-5-5-5-5-|-5-5-5-5-5-5-5-5-|-5-5-5-5-5-5-5-5o||
||------------------|-----------------|-----------------|-----------------||


  PM----|            PM   PM|            PM   PM|            PM   PM  PM  PM
  E E E E E E E E    E  E E E E E E E    E  E E E E E E E    E  E E E E E E E
|-----------------|-----------------5-|-------------------|-------------------|
|---------6p5---5-|-----6-----6p5-----|-----6-----6p5---5-|-----6---8---6---5-|
|-7-7-7-7-----7---|--7----7-7-----7---|--7----7-7-----7---|--7----7---7---7---|
|-----------------|-------------------|-------------------|-------------------|
|-----------------|-------------------|-------------------|-------------------|
|-----------------|-------------------|-------------------|-------------------|
|
| W                 +W                  +W                  +W
|-----------------|-------------------|-------------------|-------------------|
|-----------------|-------------------|-------------------|-------------------|
|-----------------|-------------------|-------------------|-------------------|
|-----------------|-------------------|-------------------|-------------------|
|-0---------------|-(0)---------------|-(0)---------------|-(0)---------------|
|-0---------------|-(0)---------------|-(0)---------------|-(0)---------------|


  PM----|            PM   PM|            PM   PM|            PM   PM  PM  PM
  E E E E E E E E    E  E E E E E E E    E  E E E E E E E    E  E E E E E E E
|-----------------|-----------------5-|-------------------|-------------------|
|---------6p5---5-|-----6-----6p5-----|-----6-----6p5---5-|-----6---8---6---5-|
|-7-7-7-7-----7---|--7----7-7-----7---|--7----7-7-----7---|--7----7---7---7---|
|-----------------|-------------------|-------------------|-------------------|
|-----------------|-------------------|-------------------|-------------------|
|-----------------|-------------------|-------------------|-------------------|
|
| W                 +W                  +W                  +W
|-----------------|-------------------|-------------------|-------------------|
|-----------------|-------------------|-------------------|-------------------|
|-----------------|-------------------|-------------------|-------------------|
|-----------------|-------------------|-------------------|-------------------|
|-3---------------|-(3)---------------|-(3)---------------|-(3)---------------|
|-3---------------|-(3)---------------|-(3)---------------|-(3)---------------|


  PM----|            PM   PM|            PM   PM|            PM   PM  PM  PM
  E E E E E E E E    E  E E E E E E E    E  E E E E E E E    E  E E E E E E E
|-----------------|-----------------5-|-------------------|-------------------|
|---------6p5---5-|-----6-----6p5-----|-----6-----6p5---5-|-----6---8---6---5-|
|-7-7-7-7-----7---|--7----7-7-----7---|--7----7-7-----7---|--7----7---7---7---|
|-----------------|-------------------|-------------------|-------------------|
|-----------------|-------------------|-------------------|-------------------|
|-----------------|-------------------|-------------------|-------------------|
|
| W                 +W                  +W                  +W
|-----------------|-------------------|-------------------|-------------------|
|-----------------|-------------------|-------------------|-------------------|
|-----------------|-------------------|-------------------|-------------------|
|-----------------|-------------------|-------------------|-------------------|
|-8---------------|-(8)---------------|-(8)---------------|-(8)---------------|
|-8---------------|-(8)---------------|-(8)---------------|-(8)---------------|


  PM----|            PM   PM|            PM   PM|            PM   PM  PM  PM
  E E E E E E E E    E  E E E E E E E    E  E E E E E E E    E  E E E E E E E
|-----------------|-----------------5-|-------------------|-------------------|
|---------6p5---5-|-----6-----6p5-----|-----6-----6p5---5-|-----6---8---6---5-|
|-7-7-7-7-----7---|--7----7-7-----7---|--7----7-7-----7---|--7----7---7---7---|
|-----------------|-------------------|-------------------|-------------------|
|-----------------|-------------------|-------------------|-------------------|
|-----------------|-------------------|-------------------|-------------------|
|
| W                 +W                  +W                  +W
|-----------------|-------------------|-------------------|-------------------|
|-----------------|-------------------|-------------------|-------------------|
|-----------------|-------------------|-------------------|-------------------|
|-----------------|-------------------|-------------------|-------------------|
|-5---------------|-(5)---------------|-(5)---------------|-(5)---------------|
|-5---------------|-(5)---------------|-(5)---------------|-(5)---------------|


    E E E E E E E E   E E E E E E E E   E E E E E E E E   E E E E E E E E
||------------------|-----------------|-----------------|-------------------||
||o-----------------|-----------------|-----------------|------------------o||
||------------------|-----------------|-----------------|-------------------||
||------0-----0---0-|-----0-----------|-----0-----0---0-|-----0-------------||
||o-------------0---|---------5p0-----|-------------0---|---------5p0------o||
||--0h7---0h7-------|-0h7---0-----8p5-|-0h7---0h7-------|-0h7---0-----8p5---||
|
|   E E E E E E E E   E E E E E E E E   E E E E E E E E   E E E E E E E E
||------------------|-----------------|-----------------|-------------------||
||o-----------------|-----------------|-----------------|------------------o||
||------------------|-----------------|-----------------|-------------------||
||------0-----0---0-|-----0-----------|-----0-----0---0-|-----0-------------||
||o-------------0---|---------5p0-----|-------------0---|---------5p0------o||
||--0h7---0h7-------|-0h7---0-----8p5-|-0h7---0h7-------|-0h7---0-----8p5---||


  E E E E E E E E   E E E E E E E E   E E E E E E E E   E E E E E E E E
|-----------------|-----------------|-----------------|-------------------|
|-----------------|-----------------|-----------------|-------------------|
|-----------------|-----------------|-----------------|-------------------|
|-----0-----0---0-|-----0-----------|-----0-----0---0-|-----0-------------|
|-------------0---|---------5p0-----|-------------0---|---------5p0-------|
|-0h7---0h7-------|-0h7---0-----8p5-|-0h7---0h7-------|-0h7---0-----8p5---|
|
| E E E E E E E E   E E E E E E E E   E E E E E E E E   E E E E E E E E
|-----------------|-----------------|-----------------|-------------------|
|-----------------|-----------------|-----------------|-------------------|
|-----------------|-----------------|-----------------|-------------------|
|-----------------|-----------------|-----------------|-------------------|
|-----8-----8---8-|-----8---8p0-----|-----8-----8---8-|-----8---8p0-------|
|-0h7---0h7---7---|-0h7---0-----8p5-|-0h7---0h7---7---|-0h7---0-----8p5---|


                                          PM  PM  PM    PM  PM|
  E E E E E E E E   E E E E E E E E   E E E E E E E E   E E E E E E E E
|-----------------|-----------------|-----------------|-----------------|
|-----------------|-----------------|-----------------|-----------------|
|-----------------|-----------------|-----------------|-----------------|
|-----0-----0---0-|-----0-----------|-----------------|---------2h3p2---|
|-------------0---|---------5p0-----|-0h1---1---3---5-|---8-----------3-|
|-0h7---0h7-------|-0h7---0-----8p5-|-----5---5---5---|-7---7-7---------|
|
|                                         PM  PM  PM    PM  PM|
| E E E E E E E E   E E E E E E E E   E E E E E E E E   E E E E E E E E
|-----------------|-----------------|-----------------|-----------------|
|-----------------|-----------------|-----------------|-----------------|
|-----------------|-----------------|-----------------|-----------------|
|-----------------|-----------------|-----------------|---------2h3p2---|
|-----8-----8---8-|-----8---8p0-----|-0h1---1---3---5-|---8-----------3-|
|-0h7---0h7---7---|-0h7---0-----8p5-|-----5---5---5---|-7---7-7---------|


        PM------------------|               PM------------------|
    E E E E E E E E   E E E E E E E E   E E E E E E E E   E E E E E E E E
||------------------|-----------------|-----------------|------------------|
||o-----------------|-----------------|-----------------|------------------|
||------------------|-----------------|-----------------|------------------|
||--2p0-------------|---------2h3p2---|-2h3-------------|---------2h3p2----|
||o-----------------|---------------3-|-----------------|---------------3--|
||------0-0-0-0-0-0-|-0-0-0-0---------|-----0-0-0-0-0-0-|-0-0-0-0----------|
|
|       PM------------------|               PM------------------|
|   E E E E E E E E   E E E E E E E E   E E E E E E E E   E E E E E E E E
||------------------|-----------------|-----------------|------------------|
||o-----------------|-----------------|-----------------|------------------|
||------------------|-----------------|-----------------|------------------|
||--7p3-------------|---------5h7p5-3-|-5h7-------------|---------5h7p5-3--|
||o-----------------|-----------------|-----------------|------------------|
||------0-0-0-0-0-0-|-0-0-0-0---------|-----0-0-0-0-0-0-|-0-0-0-0----------|


      PM------------------|               PM  PM  PM    PM  PM|
  E E E E E E E E   E E E E E E E E   E E E E E E E E   E E E E E E E E
|-----------------|-----------------|-----------------|------------------||
|-----------------|-----------------|-----------------|-----------------o||
|-----------------|-----------------|-----------------|------------------||
|-2p0-------------|---------2h3p2---|-----------------|---------2h3p2----||
|-----------------|---------------3-|-0h1---1---3---5-|---8-----------3-o||
|-----0-0-0-0-0-0-|-0-0-0-0---------|-----5---5---5---|-7---7-7----------||
|
|     PM------------------|               PM  PM  PM    PM  PM|
| E E E E E E E E   E E E E E E E E   E E E E E E E E   E E E E E E E E
|-----------------|-----------------|-----------------|------------------||
|-----------------|-----------------|-----------------|-----------------o||
|-----------------|-----------------|-----------------|------------------||
|-7p3-------------|---------5h7p5-3-|-----------------|---------5h7p5-3--||
|-----------------|-----------------|-0h1---1---3---5-|---8-------------o||
|-----0-0-0-0-0-0-|-0-0-0-0---------|-----5---5---5---|-7---7-7----------||


    PM----------------------------------------------------------------|
    E E E E E E E E   E E E E E E E E   E E E E E E E E   E E E E E E E E
||------------------|-----------------|-----------------|-----------------||
||o-----------------|-----------------|-----------------|----------------o||
||------------------|-----------------|-----------------|-----------------||
||------------------|-----------------|-----------------|-----------------||
||o-----------------|-----------------|-----------------|----------------o||
||--0-0-0-0-0-0-0-0-|-0-0-0-0-0-0-0-0-|-0-0-0-0-0-0-0-0-|-0-0-0-0-0-0-0-0-||
|
|   E E E E E E E E   E E E E E E E E   E E E E E E E E   E E E E E E E E
||------------------|-----------------|-----------------|-----------------||
||o-----------------|-----------------|-----------------|----------------o||
||--7-7-7-7-7-7-7-7-|-7-7-7-7-7-7-7-7-|-7-7-7-7-7-7-7-7-|-7-7-7-7-7-7-7-7-||
||------------------|-----------------|-----------------|-----------------||
||o-5-5-5-5-5-5-5-5-|-5-5-5-5-5-5-5-5-|-5-5-5-5-5-5-5-5-|-5-5-5-5-5-5-5-5o||
||------------------|-----------------|-----------------|-----------------||


    PM----|            PM   PM|
    E E E E E E E E    E  E E E E E E E
||------------------|-----------------5-|
||o---------6p5---5-|-----6-----6p5-----|
||--7-7-7-7-----7---|--7----7-7-----7---|
||------------------|-------------------|
||o-----------------|-------------------|
||------------------|-------------------|
|
|   W                 +W
||------------------|-------------------|
||o-----------------|-------------------|
||------------------|-------------------|
||------------------|-------------------|
||o-0---------------|-(0)---------------|
||--0---------------|-(0)---------------|


   PM   PM|            PM   PM  PM  PM
   E  E E E E E E E    E  E E E E E E E
|-------------------|--------------------|
|-----6-----6p5---5-|-----6---8---6---5--|
|--7----7-7-----7---|--7----7---7---7----|
|-------------------|--------------------|
|-------------------|--------------------|
|-------------------|--------------------|
|
| +W                  +W
|-------------------|--------------------|
|-------------------|--------------------|
|-------------------|--------------------|
|-------------------|--------------------|
|-(0)---------------|-(0)----------------|
|-(0)---------------|-(0)----------------|


  PM----|            PM   PM|            PM   PM|            PM   PM  PM  PM
  E E E E E E E E    E  E E E E E E E    E  E E E E E E E    E  E E E E E E E
|-----------------|-----------------5-|-------------------|-------------------|
|---------6p5---5-|-----6-----6p5-----|-----6-----6p5---5-|-----6---8---6---5-|
|-7-7-7-7-----7---|--7----7-7-----7---|--7----7-7-----7---|--7----7---7---7---|
|-----------------|-------------------|-------------------|-------------------|
|-----------------|-------------------|-------------------|-------------------|
|-----------------|-------------------|-------------------|-------------------|
|
| W                 +W                  +W                  +W
|-----------------|-------------------|-------------------|-------------------|
|-----------------|-------------------|-------------------|-------------------|
|-----------------|-------------------|-------------------|-------------------|
|-----------------|-------------------|-------------------|-------------------|
|-3---------------|-(3)---------------|-(3)---------------|-(3)---------------|
|-3---------------|-(3)---------------|-(3)---------------|-(3)---------------|


  PM----|            PM   PM|            PM   PM|            PM   PM  PM  PM
  E E E E E E E E    E  E E E E E E E    E  E E E E E E E    E  E E E E E E E
|-----------------|-----------------5-|-------------------|-------------------|
|---------6p5---5-|-----6-----6p5-----|-----6-----6p5---5-|-----6---8---6---5-|
|-7-7-7-7-----7---|--7----7-7-----7---|--7----7-7-----7---|--7----7---7---7---|
|-----------------|-------------------|-------------------|-------------------|
|-----------------|-------------------|-------------------|-------------------|
|-----------------|-------------------|-------------------|-------------------|
|
| W                 +W                  +W                  +W
|-----------------|-------------------|-------------------|-------------------|
|-----------------|-------------------|-------------------|-------------------|
|-----------------|-------------------|-------------------|-------------------|
|-----------------|-------------------|-------------------|-------------------|
|-8---------------|-(8)---------------|-(8)---------------|-(8)---------------|
|-8---------------|-(8)---------------|-(8)---------------|-(8)---------------|


  PM----|            PM   PM|
  E E E E E E E E    E  E E E E E E E
|-----------------|-----------------5-|
|---------6p5---5-|-----6-----6p5-----|
|-7-7-7-7-----7---|--7----7-7-----7---|
|-----------------|-------------------|
|-----------------|-------------------|
|-----------------|-------------------|
|
| W                 +W
|-----------------|-------------------|
|-----------------|-------------------|
|-----------------|-------------------|
|-----------------|-------------------|
|-5---------------|-(5)---------------|
|-5---------------|-(5)---------------|


   PM   PM|            PM   PM  PM  PM
   E  E E E E E E E    E  E E E E E E E
|-------------------|--------------------||
|-----6-----6p5---5-|-----6---8---6---5-o||
|--7----7-7-----7---|--7----7---7---7----||
|-------------------|--------------------||
|-------------------|-------------------o||
|-------------------|--------------------||
|
| +W                  +W
|-------------------|--------------------||
|-------------------|-------------------o||
|-------------------|--------------------||
|-------------------|--------------------||
|-(5)---------------|-(5)---------------o||
|-(5)---------------|-(5)----------------||


  PM------------|       PM--------|       PM--------------------------|
  E E E E E E E E   E E E E E E E E   E E E E E E E E   E E E E E E E E
|-----------------|-----------------|-----------------|-----------------|
|-----------------|-----------------|-----------------|-----------------|
|-----------------|-----------------|-----------------|-----------------|
|-----------------|-----------------|-----------------|-----------------|
|-0-0-0-0-0-0-0-0-|-3-5-0-0-0-0-0-0-|-3-5-0-0-0-0-0-0-|-0-0-0-0-0-0-0-0-|
|-0-0-0-0-0-0-0-0-|-----0-0-0-0-0-0-|-----0-0-0-0-0-0-|-0-0-0-0-0-0-0-0-|
|
| W                 W                 W                 W
|-----------------|-----------------|-----------------|-----------------|
|-----------------|-----------------|-----------------|-----------------|
|-----------------|-----------------|-----------------|-----------------|
|-----------------|-----------------|-----------------|-----------------|
|-----------------|-----------------|-----------------|-----------------|
|-----------------|-----------------|-----------------|-----------------|


  PM------------|       PM--------|       PM------------------|
  E E E E E E E E   E E E E E E E E   E E E E E E E E   E E E E  H
|-----------------|-----------------|-----------------|----------------|
|-----------------|-----------------|-----------------|----------------|
|-----------------|-----------------|-----------------|----------------|
|-----------------|-----------------|-----------------|----------------|
|-0-0-0-0-0-0-0-0-|-3-5-0-0-0-0-0-0-|-3-5-0-0-0-0-0-0-|-0-0-0-0-[5]----|
|-0-0-0-0-0-0-0-0-|-----0-0-0-0-0-0-|-----0-0-0-0-0-0-|-0-0-0-0--------|
|
| W                 W                 W                 W
|-----------------|-----------------|-----------------|----------------|
|-----------------|-----------------|-----------------|----------------|
|-----------------|-----------------|-----------------|----------------|
|-----------------|-----------------|-----------------|----------------|
|-----------------|-----------------|-----------------|----------------|
|-----------------|-----------------|-----------------|----------------|


    PM----------------------------------------------------------------|
    E E E E E E E E   E E E E E E E E   E E E E E E E E   E E E E E E E E
||------------------|-----------------|-----------------|----------------|
||o-----------------|-----------------|-----------------|----------------|
||------------------|-----------------|-----------------|----------------|
||------------------|-----------------|-----------------|----------------|
||o-0-0-0-0-0-0-0-0-|-0-0-0-0-0-0-0-0-|-0-0-0-0-0-0-0-0-|-0-0-0-0-0-0-0-0|
||--0-0-0-0-0-0-0-0-|-0-0-0-0-0-0-0-0-|-0-0-0-0-0-0-0-0-|-0-0-0-0-0-0-0-0|
|
|   PM----------------------------------------------------------------|
|   E E E E E E E E   E E E E E E E E   E E E E E E E E   E E E E E E E E
||------------------|-----------------|-----------------|----------------|
||o-----------------|-----------------|-----------------|----------------|
||------------------|-----------------|-----------------|----------------|
||------------------|-----------------|-----------------|----------------|
||o-0-0-0-0-0-0-0-0-|-0-0-0-0-0-0-0-0-|-0-0-0-0-0-0-0-0-|-0-0-0-0-0-0-0-0|
||--0-0-0-0-0-0-0-0-|-0-0-0-0-0-0-0-0-|-0-0-0-0-0-0-0-0-|-0-0-0-0-0-0-0-0|


  PM----------------------------|
  E E E E E E E E   E E E E E E E E   +E  E E E E E E E   +E  E E E E E E E
|-----------------|-----------------|-------------------|--------------------||
|-----------------|-----------------|-------------------|-------------------o||
|-----------------|-----------------|-------------------|--------------------||
|-----------------|-----------------|-------------------|--------------------||
|-0-0-0-0-0-0-0-0-|-0-0-0-0-0-0-0-3-|-(3)-3-3-3-3-3-3-5-|-(5)-5-5-5-5-5-5-5-o||
|-0-0-0-0-0-0-0-0-|-0-0-0-0-0-0-0-3-|-(3)-3-3-3-3-3-3-5-|-(5)-5-5-5-5-5-5-5--||
|
| PM----------------------------|
| E E E E E E E E   E E E E E E E E   +E  E E E E E E E   +E  E E E E E E E
|-----------------|-----------------|-------------------|--------------------||
|-----------------|-----------------|-------------------|-------------------o||
|-----------------|-----------------|-------------------|--------------------||
|-----------------|-----------------|-------------------|--------------------||
|-0-0-0-0-0-0-0-0-|-0-0-0-0-0-0-0-3-|-(3)-3-3-3-3-3-3-5-|-(5)-5-5-5-5-5-5-5-o||
|-0-0-0-0-0-0-0-0-|-0-0-0-0-0-0-0-3-|-(3)-3-3-3-3-3-3-5-|-(5)-5-5-5-5-5-5-5--||


     PM----------------------------------------
     E E  E E  E E  E E    E E  E E  E E  E E
||----------------------|---------------------|
||o---------------------|---------------------|
||----------------------|---------------------|
||----------------------|---------------------|
||o--0-0--0-0--0-0--0-0-|--0-0--0-0--0-0--0-0-|
||---0-0--0-0--0-0--0-0-|--0-0--0-0--0-0--0-0-|
|
|    Q    Q    Q    Q      Q    Q    Q    Q
||----------------------|---------------------|
||o-10------------------|-----------10--------|
||-------10--------10---|------10--------10---|
||------------12--------|-12------------------|
||o---------------------|---------------------|
||----------------------|---------------------|


 --------------------------------------|
   E E  E E  E E  E E    E E  E E  E E  E E
|---------------------|--------------------|
|---------------------|--------------------|
|---------------------|--------------------|
|---------------------|--------------------|
|--0-0--0-0--0-0--0-0-|--0-0--0-0--0-0--0-0|
|--0-0--0-0--0-0--0-0-|--0-0--0-0--0-0--0-0|
|
|  Q    Q    Q    Q      Q    Q    Q    Q
|---------------------|--------------------|
|---------------------|-10-----------------|
|------10--------10---|------10--------10--|
|-12--------12--------|-----------12-------|
|---------------------|--------------------|
|---------------------|--------------------|


   E E  E E  E E  E E    E E  E E  E E  E E
|---------------------|---------------------|
|---------------------|---------------------|
|---------------------|---------------------|
|---------------------|---------------------|
|--3-3--3-3--3-3--3-3-|--3-3--3-3--3-3--3-3-|
|--3-3--3-3--3-3--3-3-|--3-3--3-3--3-3--3-3-|
|
|  Q    Q    Q    Q      Q    Q    Q    Q
|---------------------|---------------------|
|-10------------------|-----------10--------|
|------10--------10---|------10--------10---|
|-----------12--------|-12------------------|
|---------------------|---------------------|
|---------------------|---------------------|


   E E  E E  E E  E E    E E  E E  E E  E E
|---------------------|----------------------||
|---------------------|---------------------o||
|---------------------|----------------------||
|---------------------|----------------------||
|--5-5--5-5--5-5--5-5-|--5-5--5-5--5-5--5-5-o||
|--5-5--5-5--5-5--5-5-|--5-5--5-5--5-5--5-5--||
|
|  Q    Q    Q    Q      Q    Q    Q    Q
|---------------------|----------------------||
|---------------------|-10------------------o||
|------10--------10---|------10--------10----||
|-12--------12--------|-----------12---------||
|---------------------|---------------------o||
|---------------------|----------------------||


  PM----|            PM   PM|            PM   PM|            PM   PM  PM  PM
  E E E E E E E E    E  E E E E E E E    E  E E E E E E E    E  E E E E E E E
|-----------------|-----------------5-|-------------------|-------------------|
|---------6p5---5-|-----6-----6p5-----|-----6-----6p5---5-|-----6---8---6---5-|
|-7-7-7-7-----7---|--7----7-7-----7---|--7----7-7-----7---|--7----7---7---7---|
|-----------------|-------------------|-------------------|-------------------|
|-----------------|-------------------|-------------------|-------------------|
|-----------------|-------------------|-------------------|-------------------|
|
| W                 +W                  +W                  +W
|-----------------|-------------------|-------------------|-------------------|
|-----------------|-------------------|-------------------|-------------------|
|-----------------|-------------------|-------------------|-------------------|
|-----------------|-------------------|-------------------|-------------------|
|-0---------------|-(0)---------------|-(0)---------------|-(0)---------------|
|-0---------------|-(0)---------------|-(0)---------------|-(0)---------------|


  PM----|            PM   PM|            PM   PM|            PM   PM  PM  PM
  E E E E E E E E    E  E E E E E E E    E  E E E E E E E    E  E E E E E E E
|-----------------|-----------------5-|-------------------|-------------------|
|---------6p5---5-|-----6-----6p5-----|-----6-----6p5---5-|-----6---8---6---5-|
|-7-7-7-7-----7---|--7----7-7-----7---|--7----7-7-----7---|--7----7---7---7---|
|-----------------|-------------------|-------------------|-------------------|
|-----------------|-------------------|-------------------|-------------------|
|-----------------|-------------------|-------------------|-------------------|
|
| W                 +W                  +W                  +W
|-----------------|-------------------|-------------------|-------------------|
|-----------------|-------------------|-------------------|-------------------|
|-----------------|-------------------|-------------------|-------------------|
|-----------------|-------------------|-------------------|-------------------|
|-3---------------|-(3)---------------|-(3)---------------|-(3)---------------|
|-3---------------|-(3)---------------|-(3)---------------|-(3)---------------|


  PM----|            PM   PM|            PM   PM|            PM   PM  PM  PM
  E E E E E E E E    E  E E E E E E E    E  E E E E E E E    E  E E E E E E E
|-----------------|-----------------5-|-------------------|-------------------|
|---------6p5---5-|-----6-----6p5-----|-----6-----6p5---5-|-----6---8---6---5-|
|-7-7-7-7-----7---|--7----7-7-----7---|--7----7-7-----7---|--7----7---7---7---|
|-----------------|-------------------|-------------------|-------------------|
|-----------------|-------------------|-------------------|-------------------|
|-----------------|-------------------|-------------------|-------------------|
|
| W                 +W                  +W                  +W
|-----------------|-------------------|-------------------|-------------------|
|-----------------|-------------------|-------------------|-------------------|
|-----------------|-------------------|-------------------|-------------------|
|-----------------|-------------------|-------------------|-------------------|
|-8---------------|-(8)---------------|-(8)---------------|-(8)---------------|
|-8---------------|-(8)---------------|-(8)---------------|-(8)---------------|


  PM----|            PM   PM|            PM   PM|            PM   PM  PM  PM
  E E E E E E E E    E  E E E E E E E    E  E E E E E E E    E  E E E E E E E
|-----------------|-----------------5-|-------------------|-------------------|
|---------6p5---5-|-----6-----6p5-----|-----6-----6p5---5-|-----6---8---6---5-|
|-7-7-7-7-----7---|--7----7-7-----7---|--7----7-7-----7---|--7----7---7---7---|
|-----------------|-------------------|-------------------|-------------------|
|-----------------|-------------------|-------------------|-------------------|
|-----------------|-------------------|-------------------|-------------------|
|
| W                 +W                  +W                  +W
|-----------------|-------------------|-------------------|-------------------|
|-----------------|-------------------|-------------------|-------------------|
|-----------------|-------------------|-------------------|-------------------|
|-----------------|-------------------|-------------------|-------------------|
|-5---------------|-(5)---------------|-(5)---------------|-(5)---------------|
|-5---------------|-(5)---------------|-(5)---------------|-(5)---------------|


  PM----|            PM   PM|            PM   PM|            PM   PM  PM  PM
  E E E E E E E E    E  E E E E E E E    E  E E E E E E E    E  E E E E E E E
|-----------------|-----------------5-|-------------------|-------------------|
|---------6p5---5-|-----6-----6p5-----|-----6-----6p5---5-|-----6---8---6---5-|
|-7-7-7-7-----7---|--7----7-7-----7---|--7----7-7-----7---|--7----7---7---7---|
|-----------------|-------------------|-------------------|-------------------|
|-----------------|-------------------|-------------------|-------------------|
|-----------------|-------------------|-------------------|-------------------|
|
| PM----------|               PM--|               PM--|               PM----|
| E E E E E E E E   +H        E E E E   +H        E E E E   +H        E E E E
|-----------------|-------------------|-------------------|-------------------|
|-----------------|-------------------|-------------------|-------------------|
|-----------------|-------------------|-------------------|-------------------|
|-----------------|-------------------|-------------------|-------------------|
|-0-0-0-0-0-0-0-0-|-(0)-------0-0-0-0-|-(0)-------0-0-0-0-|-(0)-------0-0-0-0-|
|-0-0-0-0-0-0-0-0-|-(0)-------0-0-0-0-|-(0)-------0-0-0-0-|-(0)-------0-0-0-0-|


  PM----|            PM   PM|            PM   PM|            PM   PM  PM  PM
  E E E E E E E E    E  E E E E E E E    E  E E E E E E E    E  E E E E E E E
|-----------------|-----------------5-|-------------------|-------------------|
|---------6p5---5-|-----6-----6p5-----|-----6-----6p5---5-|-----6---8---6---5-|
|-7-7-7-7-----7---|--7----7-7-----7---|--7----7-7-----7---|--7----7---7---7---|
|-----------------|-------------------|-------------------|-------------------|
|-----------------|-------------------|-------------------|-------------------|
|-----------------|-------------------|-------------------|-------------------|
|
| PM----------|               PM--|               PM--|               PM----|
| E E E E E E E E   +H        E E E E   +H        E E E E   +H        E E E E
|-----------------|-------------------|-------------------|-------------------|
|-----------------|-------------------|-------------------|-------------------|
|-----------------|-------------------|-------------------|-------------------|
|-----------------|-------------------|-------------------|-------------------|
|-3-3-3-3-3-3-3-3-|-(3)-------3-3-3-3-|-(3)-------3-3-3-3-|-(3)-------3-3-3-3-|
|-3-3-3-3-3-3-3-3-|-(3)-------3-3-3-3-|-(3)-------3-3-3-3-|-(3)-------3-3-3-3-|


  PM----|            PM   PM|            PM   PM|            PM   PM  PM  PM
  E E E E E E E E    E  E E E E E E E    E  E E E E E E E    E  E E E E E E E
|-----------------|-----------------5-|-------------------|-------------------|
|---------6p5---5-|-----6-----6p5-----|-----6-----6p5---5-|-----6---8---6---5-|
|-7-7-7-7-----7---|--7----7-7-----7---|--7----7-7-----7---|--7----7---7---7---|
|-----------------|-------------------|-------------------|-------------------|
|-----------------|-------------------|-------------------|-------------------|
|-----------------|-------------------|-------------------|-------------------|
|
| PM----------|               PM--|               PM--|               PM----|
| E E E E E E E E   +H        E E E E   +H        E E E E   +H        E E E E
|-----------------|-------------------|-------------------|-------------------|
|-----------------|-------------------|-------------------|-------------------|
|-----------------|-------------------|-------------------|-------------------|
|-----------------|-------------------|-------------------|-------------------|
|-8-8-8-8-8-8-8-8-|-(8)-------8-8-8-8-|-(8)-------8-8-8-8-|-(8)-------8-8-8-8-|
|-8-8-8-8-8-8-8-8-|-(8)-------8-8-8-8-|-(8)-------8-8-8-8-|-(8)-------8-8-8-8-|


  PM----|            PM   PM|            PM   PM|           PM  PM  PM  PM
  E E E E E E E E    E  E E E E E E E    E  E E E E E E E   E E E E E E E E
|-----------------|-----------------5-|-------------------|-----------------|
|---------6p5---5-|-----6-----6p5-----|-----6-----6p5---5-|---6---8---6---5-|
|-7-7-7-7-----7---|--7----7-7-----7---|--7----7-7-----7---|-7---7---7---7---|
|-----------------|-------------------|-------------------|-----------------|
|-----------------|-------------------|-------------------|-----------------|
|-----------------|-------------------|-------------------|-----------------|
|
| PM----------|               PM--|               PM----------------------|
| E E E E E E E E   +H        E E E E   +H        E E E E   E E E E E E E E
|-----------------|-------------------|-------------------|-----------------|
|-----------------|-------------------|-------------------|-----------------|
|-----------------|-------------------|-------------------|-----------------|
|-----------------|-------------------|-------------------|-----------------|
|-5-5-5-5-5-5-5-5-|-(5)-------5-5-5-5-|-(5)-------5-5-5-5-|-5-5-5-5-5-5-5-5-|
|-5-5-5-5-5-5-5-5-|-(5)-------5-5-5-5-|-(5)-------5-5-5-5-|-5-5-5-5-5-5-5-5-|


  E E E E E E E E   E E E E E E E E   E E E E E E E E   E E E E E E E E
|-----------------|-----------------|-----------------|-------------------|
|-----------------|-----------------|-----------------|-------------------|
|-----------------|-----------------|-----------------|-------------------|
|-----0-----0---0-|-----0-----------|-----0-----0---0-|-----0-------------|
|-------------0---|---------5p0-----|-------------0---|---------5p0-------|
|-0h7---0h7-------|-0h7---0-----8p5-|-0h7---0h7-------|-0h7---0-----8p5---|
|
| E E E E E E E E   E E E E E E E E   E E E E E E E E   E E E E E E E E
|-----------------|-----------------|-----------------|-------------------|
|-----------------|-----------------|-----------------|-------------------|
|-----------------|-----------------|-----------------|-------------------|
|-----0-----0---0-|-----0-----------|-----0-----0---0-|-----0-------------|
|-------------0---|---------5p0-----|-------------0---|---------5p0-------|
|-0h7---0h7-------|-0h7---0-----8p5-|-0h7---0h7-------|-0h7---0-----8p5---|


                                                                PM----|
  E E E E E E E E   E E E E E E E E   E E E E E E E E   E E E E E E E E
|-----------------|-----------------|-----------------|-------------------|
|-----------------|-----------------|-----------------|-------------------|
|-----------------|-----------------|-----------------|-------------------|
|-----0-----0---0-|-----0-----------|-----0-----0---0-|-----0-------------|
|-------------0---|---------5p0-----|-------------0---|---------0-0-0-0---|
|-0h7---0h7-------|-0h7---0-----8p5-|-0h7---0h7-------|-0h7---0-0-0-0-0---|
|
|                                                               PM----|
| E E E E E E E E   E E E E E E E E   E E E E E E E E   E E E E E E E E
|-----------------|-----------------|-----------------|-------------------|
|-----------------|-----------------|-----------------|-------------------|
|-----------------|-----------------|-----------------|-------------------|
|-----0-----0---0-|-----0-----------|-----0-----0---0-|-----0-------------|
|-------------0---|---------5p0-----|-------------0---|---------0-0-0-0---|
|-0h7---0h7-------|-0h7---0-----8p5-|-0h7---0h7-------|-0h7---0-0-0-0-0---|

---------------------------------------------------------------------------
                             Within Destruction
----------------------------------------------------------------------------
Eb Tuning
                   1.               2.                  3.               4.
|-----------------|----------------|-------------------|----------------|------------------------|
|-----------------|----------------|-------------------|----------------|------------------------|
|-----------------|----------------|-------------------|----------------|------------------------|
|-----------------|----------------|-------------------|----------------|------------------------|
|--3-------6-5----|-4-5-----6-5-4-5|-4-5-----12-13-9-12|-4-5-----6-5-4-5|-12-13-12-9-12-8-9-8-6-9|
|--3-33333-6-5-333|-4-5-333-6-5-4-5|-4-5-333-----------|-4-5-333-6-5-4-5|------------------------|

|-------------------------------------------------------------------------------------------------|
|-------------------------------------------------------------------------------------------------|
|-------------------------------------------------------------------------------------------------|
|-------------------------------------------------------------------------------------------------|
|--------------------------------------------------------------9-8-6------------------------------|
|555555555555555555555555-6868-5656-555555555555555555555555-9-8-6-555555555555555555555-6868-5656|

|--------------------------------------------------------------------------------------------|
|--------------------------------------------------------------------------------------------|
|--------------------------------------------------------------------------------------------|
|--------------------------------------------------------------------------------------------|
|-------------------5-6-5-9-8-6-------------444-333-444-333-444-------------444-333-444-6-3--|
|--5555555555555555-5-6-5-9-8-6-3-333-3-333-333-333-333-333-333-3-333-3-333-333-333-333-3-3--|

|-----------------------------------------------------------------------------------------------|
|-----------------------------------------------------------------------------------------------|
|-----------------------------------------------------------------------------------------------|
|-----------------------------------------------------------------------------------------------|
|--------------444-333-444-333-444-------------444-333-444-6-3----------------------------------|
|--3-333-3-333-333-333-333-333-333-3-333-3-333-333-333-333-3-3-3-333-3-333-444-333-444-333-444--|

|-----------------------------------------------------------------------------------------------|
|-----------------------------------------------------------------------------------------------|
|-----------------------------------------------------------------------------------------------|
|-----------------------------------------------------------------------------------------------|
|------------------------------------------------------------------------------------------6-3--|
|--3-333-3-333-444-333-444-333-444-3-333-3-333-444-333-444-333-444-3-333-3-333-444-333-444-3-3--|

|---------------------------------------------------------------------------------
|---------------------------------------------------------------------------------
|---------------------------------------------------------------------------------
|---------------------------------------------------------------------------------
|----------------------------------------------------------6-3--------------------
|--3-333-3-333-444-333-444-333-444-3-333-3-333-444-333-444-3-3-3-333-3-333-444-333

------------------------------------------|
------------------------------------------|
------------------------------------------|
------------------------------------------|
-------------------------------------6-3--|
-444-333-444-3-333-3-333-444-333-444-3-3--|

|-----------------|13--13--13--13--|
|-----------------|--13--13--13--13|
|-----------------|----------------|X12
|-----------------|----------------|
|-------6-------3-|----------------|
|--3333-3--3333-3-|----------------|


|17--17--17--17--14--14--14--14--|
|--18--18--18--18--15--15--15--15|
|--------------------------------|
|--------------------------------|
|--------------------------------|
|--------------------------------|

|13--13--13--13--|
|--13--13--13--13|
|----------------|X8
|----------------|
|----------------|
|----------------|

|-17--17--17--17--10--10--10--10--|
|---18--18--18--18--11--11--11--11|
|---------------------------------|
|---------------------------------|
|---------------------------------|
|---------------------------------|

|8--8--8--8--|    |13--13--13--13--|
|-10-10-10-10|    |--13--13--13--13|
|------------|X4  |----------------|X9
|------------|    |----------------|
|------------|    |----------------|
|------------|    |----------------|


|-----|
|-----|
|-----|X32
|-----|
|-4444|
|-4444|

|---------------------------------|
|---------------------------------|
|---------------------------------|X4
|---------------------------------|
|---------------------------------|
|-3-333-3-333-333-333-333-333-333-|

Till End
|13--13--13--13--|
|--13--13--13--13|
|----------------|
|----------------|
|----------------|
|----------------|

----------------------------------------------------------------------------
                               Forsaken
----------------------------------------------------------------------------
Drop D Tuning

-Intro- (0:00 - 0:55)

****** I'm pretty sure there are 3 guitars tremolo picking here, so to save
       space I'm putting all 3 into one tab....if you want you can even play
       it this way, it's just [obviously] much more difficult than what they
       probably did on the album (record 3 guitars separately and just layer
       them on top of one another)

  Guitar III:
  x16   x16   x16   x8   x8    x16   x16   x16   x8   x8
E|-----|-----|-----|----------|-----|-----|-----|----------|
B|13---|15---|15---|15---15---|13---|15---|15---|15---15---|
G|15---|15---|14---|12---10---|15---|15---|14---|12---10---|
D|12---|12---|12---|12---12---|12---|12---|12---|12---12---|
A|-----|-----|-----|----------|-----|-----|-----|----------|
D|-----|-----|-----|----------|-----|-----|-----|----------|

  Guitars I + II:
E|-----|-----|-----|----------|-----|-----|-----|----------|
B|-----|-----|-----|----------|-----|-----|-----|----------|
G|-----|-----|-----|----------|-----|-----|-----|----------|
D|-----|-----|-----|----------|-----|-----|-----|----------|
A|-----|-----|-----|----------|-----|--5--|----/|8---------|
D|-----|-----|-----|----------|-----|-----|-----|----------|

                              THEN

  Guitar III: (same as above)
  x16   x16   x16   x8   x8                   x16   x16   x16   x16
E|-----|-----|-----|----------|             E|-----|-----|-----|-----|
B|13---|15---|15---|15---15---|             B|15---|15---|15---|15---|
G|15---|15---|14---|12---10---|             G|14---|14---|14---|14---|
D|12---|12---|12---|12---12---| x4,  then   D|12---|12---|12---|12---|
A|-----|-----|-----|----------|             A|-----|-----|-----|-----|
D|-----|-----|-----|----------|             D|-----|-----|-----|-----|

  Guitars I + II:
E|-----|-----|-----|----------|             E|-----|-----|-----|-----|
B|-----|-----|-----|----------|             B|-----|-----|-----|-----|
G|3----|-----|-----|----------|             G|-----|-----|-----|-----|
D|3----|-----|0----|3---------| x4,  then   D|0----|-----|-----|-----|
A|1----|-----|0----|3---------|             A|0----|-----|-----|-----|
D|-----|-----|0----|3---------|             D|0----|-----|-----|-----|


============================================================================
-Intro Riff- (0:56 - 1:12)

  Guitar I:
E|----------------|----------------|----------------|----------------|
B|----------------|----------------|----------------|----------------|
G|----------------|----------------|----------------|----------------|
D|----------------|----------------|----------------|----------------|
A|0-----------0h1p|0-----------0h1p|0-------0h1---1p|0---------------|
D|--0-0-0---0-----|--0-0-0---0-----|--0-3-0-----0---|--0-0-0---0-3p0-|
PM  . .     .        . .     .        .   .     .      . .     .

  Guitar II:
E|----------------|----------------|----------------|----------------|
B|----------------|----------------|----------------|----------------|
G|----------------|----------------|----------------|----------------|
D|----------------|----------------|----------------|\\\\\\\\\\\\\\\\|
A|0-*-------------|----------------|0-*-0-*-0-*-0-*-|\\\pickslide\\\\|
D|0-*-------------|----------------|0-*-0-*-0-*-0-*-|\\\\\\\\\\\\\\\\|
PM.                                 .   .   .   .

                                  THEN

  Guitars I + II:
E|----------------|----------------|----------------|----------------|
B|----------------|----------------|----------------|----------------|
G|----------------|----------------|----------------|----------------|
D|----------------|----------------|----------------|----------------| x3
A|0-----------0h1p|0-----------0h1p|0-------0h1---1p|0---------------|
D|--0-0-0---0-----|--0-0-0---0-----|--0-3-0-----0---|--0-0-0---0-3p0-|
PM  . .     .        . .     .        .   .     .      . .     .


============================================================================
-Pre-Verse- (1:12 - 1:20)

  Guitar I:
E|----------------|----------------|----------------|----------------|
B|----------------|----------------|----------------|----------------|
G|----------------|----------------|----------------|----------------|
D|----------------|----------------|----------------|----------------|
A|0---------------|----------------|0---------------|0---0h5h8---0h5-|
D|--0-0-0-0-0-0-0-|*---------------|--0-0-0-0-0-0-0-|--0-------0-----|
PM  . . . . . . .                     . . . . . . .

    Guitar II:
  E|----------------|----------------|----------------|----------------|
  B|----------------|----------------|----------------|----------------|
  G|----------------|----------------|----------------|----------------|
  D|----------------|----------------|----------------|----------------|
  A|0---------------|0---0h5h8---0h5-|0---------------|----------------|
  D|--0-0-0-0-0-0-0-|--0-------0-----|--0-0-0-0-0-0-0-|*---------------|
  PM  . . . . . . .                     . . . . . . .

E|----------------|----------------|----------------|----------------|
B|----------------|----------------|----------------|----------------|
G|----------------|----------------|----------------|----------------|
D|----------------|----------------|----------------|----------5-----|
A|0---------------|----------------|0---------------|0---0h5h8---7h8-|
D|--0-0-0-0-0-0-0-|*---------------|--0-0-0-0-0-0-0-|--0-------------|
PM  . . . . . . .                     . . . . . . .

  E|----------------|----------------|----------------|----------------|
  B|----------------|----------------|----------------|----------------|
  G|----------------|----------------|----------------|----------------|
  D|----------------|----------------|----------------|----------5-----|
  A|0---------------|0---0h5h8---0h5-|0---------------|0---0h5h8---7h8-|
  D|--0-0-0-0-0-0-0-|--0-------0-----|--0-0-0-0-0-0-0-|--0-------------|
  PM  . . . . . . .                     . . . . . . .


============================================================================
-Verse 2- (1:20 - 1:35)

  Guitar I:
E|----------------|----------------|----------------|----------------|
B|----------------|----------------|----------------|----------------|
G|----------------|----------------|----------------|----------------|
D|----------------|----------------|----------------|----------------|
A|0---------------|0---0h5h8---0h5-|0---------------|0---0h5h8---0h5-|
D|0-0-0-0-0-0-0-0-|--0-------0-----|0-0-0-0-0-0-0-0-|--0-------0-----|
PM  . . . . . . .                     . . . . . . .

    Guitar II:
  E|----------------|----------------|----------------|----------------|
  B|----------------|----------------|----------------|----------------|
  G|----------------|----------------|----------------|----------------|
  D|----------------|--------7-------|----------------|--------7-------|
  A|0---------------|5p0-5h8---0h5h8-|0---------------|5p0-5h8---0h5h8-|
  D|0-0-0-0-0-0-0-0-|----------------|0-0-0-0-0-0-0-0-|----------------|
  PM  . . . . . . .                     . . . . . . .

E|----------------|----------------|----------------|----------------|
B|----------------|----------------|----------------|----------------|
G|----------------|----------------|----------------|----------------|
D|----------------|----------------|----------------|----------5-----|
A|0---------------|0---0h5h8---0h5-|0---------------|0---0h5h8---7h8-|
D|0-0-0-0-0-0-0-0-|--0-------0-----|0-0-0-0-0-0-0-0-|--0-------------|
PM  . . . . . . .                     . . . . . . .

  E|----------------|----------------|----------------|----------------|
  B|----------------|----------------|----------------|----------------|
  G|----------------|----------------|----------------|----------------|
  D|----------------|----------------|----------------|----------5-----|
  A|0---------------|0---0h5h8---0h5-|0---------------|0---0h5h8---7h8-|
  D|0-0-0-0-0-0-0-0-|--0-------0-----|0-0-0-0-0-0-0-0-|--0-------------|
  PM  . . . . . . .                     . . . . . . .

                                    THEN

            Guitar I: same 8 bars again

            Guitar II: repeat the same       E|----------------|
                      8 bars except for      B|----------------|
                     the last one, where     G|----------------|
                   Guitar II plays this-->   D|--------7h8-5h7-|
                           instead           A|0---0h5---------|
                                             D|--0-------------|


============================================================================
-Chorus 1- (1:36 - 2:00)

  Guitar I:
E|--------------------------------|--------------------------------|
B|--------------------------------|--------------------------------|
G|--------------------------------|--------------------------------|
D|8-3-0-3-8-3-0-3-8-3-0-3-8-3-0-3-|8-3-0-3-8-3-0-3-8-3-0-3-8-3-0-3-|
A|--------------------------------|--------------------------------|
D|--------------------------------|--------------------------------|
                                                                       x3
E|--------------------------------|--------------------------------|
B|--------------------------------|--------------------------------|
G|--------------------------------|--------------------------------|
D|7-3-0-3-7-3-0-3-7-3-0-3-7-3-0-3-|7-3-0-3-7-3-0-3-7-3-0-3-7-3-0-3-|
A|--------------------------------|--------------------------------|
D|--------------------------------|--------------------------------|

  Guitar II:
E|----|----|----|----|----|----|----|----|----|----|----|----|
B|----|----|----|----|----|----|----|----|----|----|----|----|
G|3---|----|----|----|3---|----|----|----|3---|----|----|----|
D|3---|----|0---|3---|3---|----|0---|3---|3---|----|5---|----|
A|1---|----|0---|3---|1---|----|0---|3---|1---|----|5---|----|
D|----|----|0---|3---|----|----|0---|3---|----|----|5---|----|

  Guitar III:
  x16   x16   x16   x8   x8
E|-----|-----|-----|----------|
B|13---|15---|15---|15---15---|
G|15---|15---|14---|12---10---|
D|12---|12---|12---|12---12---|  x3
A|-----|-----|-----|----------|
D|-----|-----|-----|----------|


============================================================================
-Awesome Riffage- (2:00 - 2:15)

  Guitar III:
E|---------------------------|--------------------------------|
B|---------------------------|--------------------------------|
G|----9h10p9--9--10--10--12--|12--10--10-------9h10p9--9--9h10|
D|0000------12-12--12--12--12|--12--12--12-7h10------10-10----|
A|---------------------------|--------------------------------|
D|---------------------------|--------------------------------|
PM....       .  .   .   .   .    .   .   .            .  .
                                                                    x2
E|---------------------------|--------------------------------|
B|---------------------------|--------------------------------|
G|----9h10p9--9--10--10--12--|12--10--10-------9h10p9--9--10p9|
D|0000------12-12--12--12--12|--12--12--12-7h10------10-10----|
A|---------------------------|--------------------------------|
D|---------------------------|--------------------------------|
PM....       .  .   .   .   .    .   .   .            .  .

  Guitars I + II:
E|----------------|----------------|----------------|----------------|
B|----------------|----------------|----------------|----------------|
G|----------------|----------------|----------------|----------------|
D|----------------|----------------|----------------|----------------| x2
A|00000*----000000|00000*----------|00000*----000000|00000*------0000|
D|00000*----000000|00000*----------|00000*----000000|00000*------0000|
PM.....     ...... .....            .....     ...... .....       ....


============================================================================
-Verse 2- (2:16 - 2:41)

  Guitar I:                              Guitar II:
E|----------------|----------------|   E|----------------|----------------|
B|----------------|----------------|   B|----------------|----------------|
G|----------------|----------------|   G|----------------|----------------|
D|----------------|----------------|   D|----------------|----------------|
A|0-----------0h1p|0-------0h1---1p|   A|----------------|0-*-0-*-0-*-0-*-|
D|--0-0-0---0-----|--0-3-0-----0---|   D|----------------|0-*-0-*-0-*-0-*-|
PM  . .     .        .   .     .       PM.                .   .   .   .

                                  THEN

  Guitars I + II:
E|----------------|----------------|----------------|----------------|
B|----------------|----------------|----------------|----------------|
G|----------------|----------------|----------------|----------------|
D|----------------|----------------|----------------|----------------| x2
A|0-----------0h1p|0-----------0h1p|0-------0h1---1p|0---------------|
D|--0-0-0---0-----|--0-0-0---0-----|--0-3-0-----0---|--0-0-0---0-3p0-|
PM  . .     .        . .     .        .   .     .      . .     .

                                  THEN

  Guitars I + II:
E|----------------|----------------|----------------|----------------|
B|----------------|----------------|----------------|----------------|
G|----------------|----------------|----------------|----------------|
D|----------------|----------------|----------------|----------------| x4
A|0-----------0h1p|0-----------0h1-|----------------|0---------------|
D|--0-0-0---0-----|--0-0-0---0-----|0-0-0-0-0-0-0-0-|--0-0-0---0-3p0-|
PM  . .     .        . .     .      . . . . . . . .    . .     .


============================================================================
-Chorus 2- (2:42 - 3:05)

  Guitar I:
E|--------------------------------|--------------------------------|
B|--------------------------------|--------------------------------|
G|--------------------------------|--------------------------------|
D|8-3-0-3-8-3-0-3-8-3-0-3-8-3-0-3-|8-3-0-3-8-3-0-3-8-3-0-3-8-3-0-3-|
A|--------------------------------|--------------------------------|
D|--------------------------------|--------------------------------|
                                                                       x3
E|--------------------------------|--------------------------------|
B|--------------------------------|--------------------------------|
G|--------------------------------|--------------------------------|
D|7-3-0-3-7-3-0-3-7-3-0-3-7-3-0-3-|7-3-0-3-7-3-0-3-7-3-0-3-7-3-0-3-|
A|--------------------------------|--------------------------------|
D|--------------------------------|--------------------------------|

  Guitar II:
E|----|----|----|----|----|----|----|----|----|----|----|----|
B|----|----|----|----|----|----|----|----|----|----|----|----|
G|3---|----|----|----|3---|----|----|----|3---|----|----|----|
D|3---|----|0---|3---|3---|----|0---|3---|3---|----|5---|----|
A|1---|----|0---|3---|1---|----|0---|3---|1---|----|5---|----|
D|----|----|0---|3---|----|----|0---|3---|----|----|5---|----|

  Guitar III:
  x16   x16   x16   x8   x8
E|-----|-----|-----|----------|
B|13---|15---|15---|15---15---|
G|15---|15---|14---|12---10---|
D|12---|12---|12---|12---12---|  x3
A|-----|-----|-----|----------|
D|-----|-----|-----|----------|


============================================================================
-Awesome Riffage Again- (3:06 - 3:38)

  Guitar III:
E|---------------------------|--------------------------------|
B|---------------------------|--------------------------------|
G|----9h10p9--9--10--10--12--|12--10--10-------9h10p9--9--9h10|
D|0000------12-12--12--12--12|--12--12--12-7h10------10-10----|
A|---------------------------|--------------------------------|
D|---------------------------|--------------------------------|
PM....       .  .   .   .   .    .   .   .            .  .
                                                                    x4
E|---------------------------|--------------------------------|
B|---------------------------|--------------------------------|
G|----9h10p9--9--10--10--12--|12--10--10-------9h10p9--9--10p9|
D|0000------12-12--12--12--12|--12--12--12-7h10------10-10----|
A|---------------------------|--------------------------------|
D|---------------------------|--------------------------------|
PM....       .  .   .   .   .    .   .   .            .  .

  Guitars I + II:
E|----------------|----------------|----------------|----------------|
B|----------------|----------------|----------------|----------------|
G|----------------|----------------|----------------|----------------|
D|----------------|----------------|----------------|----------------| x2
A|00000*----000000|00000*----------|00000*----000000|00000*------0000|
D|00000*----000000|00000*----------|00000*----000000|00000*------0000|
PM.....     ...... .....            .....     ...... .....       ....

                                  THEN

  Guitars I + II: (only difference = let last palm mute ring out)
E|----------------|----------------|----------------|----------------|
B|----------------|----------------|----------------|----------------|
G|----------------|----------------|----------------|----------------|
D|----------------|----------------|----------------|----------------| x2
A|00000-----000000|00000-----------|00000-----000000|00000-------0000|
D|00000-----000000|00000-----------|00000-----000000|00000-------0000|
PM.....     ...... .....            .....     ...... .....       ....

============================================================================
-Break- (3:38 - 4:26)

  Guitar III:
  x8    x8    x8    x4   x4
E|-----|-----|-----|----------|
B|13---|15---|15---|15---15---|
G|15---|15---|14---|12---10---|
D|12---|12---|12---|12---12---| x6
A|-----|-----|-----|----------|
D|-----|-----|-----|----------|

  Guitars I + II:
E|----------------|----------------|----------------|----------------|
B|----------------|----------------|----------------|----------------|
G|3---------------|3-----------5---|----------------|----------------|
D|3---------------|3-----------5---|0---------------|3---------------| x6
A|1---------------|1-----------3---|0---------------|3---------------|
D|----------------|----------------|0---------------|3---------------|


============================================================================
-Final Chorus- (4:26 - end)

  Guitar I:
E|--------------------------------|--------------------------------|
B|--------------------------------|--------------------------------|
G|--------------------------------|--------------------------------|
D|8-3-0-3-8-3-0-3-8-3-0-3-8-3-0-3-|8-3-0-3-8-3-0-3-8-3-0-3-8-3-0-3-|
A|--------------------------------|--------------------------------|
D|--------------------------------|--------------------------------|
                                                                       x4
E|--------------------------------|--------------------------------|
B|--------------------------------|--------------------------------|
G|--------------------------------|--------------------------------|
D|7-3-0-3-7-3-0-3-7-3-0-3-7-3-0-3-|7-3-0-3-7-3-0-3-7-3-0-3-7-3-0-3-|
A|--------------------------------|--------------------------------|
D|--------------------------------|--------------------------------|

  Guitar II:
E|--------|--------|--------|--------|
B|--------|--------|--------|--------|
G|3-------|--------|--------|--------|
D|3-------|--------|0-------|3-------|  x4
A|1-------|--------|0-------|3-------|
D|--------|--------|0-------|3-------|

  Guitar III:
  x16   x16   x16   x8   x8
E|-----|-----|-----|----------|
B|13---|15---|15---|15---15---|
G|15---|15---|14---|12---10---|
D|12---|12---|12---|12---12---|  x4
A|-----|-----|-----|----------|
D|-----|-----|-----|----------|

                                    END ON:
  Guitar I:
E|--------|
B|--------|
G|--------|
D|0\-\-\-\|   (whammy bar?)
A|--------|
D|--------|

  Guitar II:
E|--------|
B|--------|
G|--------|
D|0-------|
A|0-------|
D|0-------|

  Guitar III:
E|--------|
B|--------|
G|14------|
D|--------|
A|--------|
D|--------|

----------------------------------------------------------------------------
                             Comfort Betrays
----------------------------------------------------------------------------
Guitar 1 - 0:10
||------------------------------------------------|
||------------------------------------------------|
||------------------------------------------------|
||------------------------------------10\7/10\9---|
||-----10p7p0-9p6p0------10p7p0-9p6p0--8\5/-8\7---|
||-0-0---------------0-0--------------------------|

||---------------------------------------------|
||---------------------------------------------|
||---------------------------------------------|
||------------------------------------10-9-8---|
||-----10p7p0-9p6p0------10p7p0-9p6p0--8-7-6---|
||-0-0---------------0-0-----------------------|


Both guitars - 0:43
||------------------------------------------------|
||------------------------------------------------|
||------------------------------------------------|
||------------------------------------10\7/10\9---|
||-----10p7p0-9p6p0------10p7p0-9p6p0--8\5/-8\7---|
||-0-0---------------0-0--------------------------|

||---------------------------------------------|
||---------------------------------------------|
||---------------------------------------------|
||------------------------------------10-9-8---|
||-----10p7p0-9p6p0------10p7p0-9p6p0--8-7-6---|
||-0-0---------------0-0-----------------------|


Both guitars - 0:44
||--------------------------------------------------|
||--------------------------------------------------|
||--------------------------------------------------|
||--------------------------------------------------|
||-0-0-0-00-000-000-0-0-00-0-00-0-0-0-000-000-------|
||-0-0-0-00-000-000-0-0-00-0-00-0-0-0-000-000-------|
          (! LISTEN TO SONG FOR TIMING !)


Guitar 1 - 01:05               ( 01:14 )
||---------------------------------12~--------------|
||--------~6-----------------------11~--------------|
||------9~---9~-7~----10~-9~-9~~~~-9~---------------|
||----------------12~-------------------------------|
||--------------------------------------------------|
||--------------------------------------------------|


Guitar 2 along with Guitar 1
||--------------------------------------------------|
||--------------------------------------------------|
||--------------------------------------------------|
||--------------------------------------------------|
||-0-0-0-00-000-000-0-0-00-0-00-0-0-0-000-000-------|
||-0-0-0-00-000-000-0-0-00-0-00-0-0-0-000-000-------|


Both guitars - 01:18
||------------------------------------------------------|
||------------------------------------------------------|
||------------------------------------------------------|
||-12\9/10--10\7/9-7/9-------------------777------------|
||-10\7/-8---8\5/7-5/7---555-777-888-555-----555--------|
||---------0--------------------------------------------|
                       pm***********************pm


Guitar 1 - 01:28
||------------------------------------------------------|
||------------------------------------------------------|
||------------------------------------------------------|
||-12\9/10--10\7/9-7/9----------------------------------|
||-10\7/-8---8\5/7-5/7---12ps\0-------------------------|
||---------0-------------12ps\0-------------------------|


Guitar 2 - 01:28
||-------------------------------------------------|
||-------------------------------------------------|
||-------------------------------------------------|
||-12\9/10--10\7/9-7/9---------------77------------|
||-10\7/-8---8\5/7-5/7---55-77-88-55----55---------|
||---------0---------------------------------------|
                       pm*****************pm

Both guitars - 01:30
||-------------------------------------------------|
||-------------------------------------------------|
||-------------------------------------------------|
||-12\9/10--10\7/9-7/9---------------77------------|
||-10\7/-8---8\5/7-5/7---55-77-88-55----55---------|
||---------0---------------------------------------|
                       pm*****************pm

T H I S  I S  W H E R E  T H E  S O L O  S H O U L D  B E.

Both guitars - 02:01
||-----------------------------------------------|
||-----------------------------------------------|
||-----------------------------------------------|
||----------12\9-----10\9---10\7/10\9------------|
||----------10\7------8\8----9\5/-8\7------------|
||-0000000-------0000-----00---------------------|

Guitar 1 - 02:11              (  02:23 )
||----------------|--------------------------------------------|
||-----6~~~-------|------6~~------/12^bend half step and hold--|
||-9~~~-----9~~~--|-9~~~---------------------------------------|
||----------------|--------------------------------------------|
||----------------|--------------------------------------------|
||----------------|--------------------------------------------|


Both guitars - 02:23
||---------------------------------------------------------|
||---------------------------------------------------------|
||---------------------------------------------------------|
||---------------------------------------------------------|
||---------------------------------------------------------|
||-000---000---0000--00--000---000---0000------------------|

Both guitars - 02:34 to end.
||--------------------------------------------------|
||--------------------------------------------------|
||--------------------------------------------------|
||--------------------------------------------------|
||-0-0-0-00-000-000-0-0-00-0-00-0-0-0-000-000-------|
||-0-0-0-00-000-000-0-0-00-0-00-0-0-0-000-000-------|

---------------------------------------------------------------------------
                          I Never Wanted
---------------------------------------------------------------------------
Drop C Tuning
    Gtr I
    E E E E E E E E   E E E E E E E E   E E E E E E E E   E E E E E E E E
||------------------|-----------------|-----------------|-------------------||
||o-----------------|-----------------|-----------------|------------------o||
||------------------|-----------------|-----------------|-------------------||
||------------------|-----------------|-----------------|---------------3---||
||o-8-8-8-8-8-8-8-8-|-8-8-8-8-8-8-8-8-|-8-8-8-8-8-8-8-8-|-8-8-8-8-8-8-8-3--o||
||--0-0-0-0-0-0-0-0-|-0-0-0-0-0-0-0-0-|-8-8-8-7-7-7-8-8-|-8-7-7-7-5-7-7-3---||
|
|   Gtr II
|   W                 W                 W                 W
||------------------|-----------------|-----------------|-------------------||
||o-----------------|-----------------|-----------------|------------------o||
||------------------|-----------------|-----------------|-------------------||
||------------------|-----------------|-----------------|-------------------||
||o-----------------|-----------------|-----------------|------------------o||
||------------------|-----------------|-----------------|-------------------||


  E E E E E  E E E    E  E E  E E E E E
|------------------|--------------------|
|------------------|--------------------|
|------------------|--------------------|
|------------------|--------------------|
|-8-8-8-8-8--8-8-8-|--8--8-8--8-8-8-8-8-|
|-0-0-0-0-0--0-0-0-|--0--0-0--0-0-0-0-0-|
|
| H       Q.     E   +Q    H.
|------------------|--------------------|
|----------------5-|-(5)---6------------|
|---------7--------|--------------------|
|------------------|--------------------|
|------------------|--------------------|
|------------------|--------------------|


   E  E E E E E E E    E  E E E E E E E
|-------------------|-------------------|
|-------------------|-------------------|
|-------------------|-------------------|
|-------------------|-----------------3-|
|--8--8-8-8-8-8-8-8-|--8--8-8-8-8-8-8-3-|
|--8--8-8-7-7-7-8-8-|--8--7-7-7-5-7-7-3-|
|
| +W                  +W
|-------------------|-------------------|
|-(6)---------------|-(6)---------------|
|-------------------|-------------------|
|-------------------|-------------------|
|-------------------|-------------------|
|-------------------|-------------------|


  E E E E E  E E E    E  E E  E E E E E
|------------------|--------------------|
|------------------|--------------------|
|------------------|--------------------|
|------------------|--------------------|
|-8-8-8-8-8--8-8-8-|--8--8-8--8-8-8-8-8-|
|-0-0-0-0-0--0-0-0-|--0--0-0--0-0-0-0-0-|
|
| H       Q.     E   +Q    H.
|------------------|--------------------|
|----------------5-|-(5)---6------------|
|---------7--------|--------------------|
|------------------|--------------------|
|------------------|--------------------|
|------------------|--------------------|


                                Gtr III
   E  E E E E E E E    E  E E E E E E E
|-------------------|-------------------|
|-------------------|-------------------|
|-------------------|-------------------|
|-------------------|-------------------|
|--8--8-8-8-8-8-8-8-|--8--8-8-8-5-7-7-3-|
|--8--8-8-7-7-7-8-8-|--8--7-7-7-5-7-7-3-|
|
|                               Gtr IV
| +W                  +H        E E E E
|-------------------|-------------------|
|-(6)---------------|-(6)---------------|
|-------------------|-------------------|
|-------------------|-------------------|
|-------------------|-----------5-7-7-3-|
|-------------------|-----------5-7-7-3-|


    Gtr III
    E E E E E E E E   E E E E E E E E   E E E E E E E E   E E E E E E E E
||------------------|-----------------|-----------------|------------------|
||o-----------------|-----------------|-----------------|------------------|
||------------------|-----------------|-----------------|------------------|
||------------------|-----------------|-----------------|------------------|
||o-0-0-0-0-0-0-0-0-|-0-0-0-0-0-0-0-0-|-0-0-0-0-0-0-0-0-|-0-0-0-0-5-7-7-3--|
||--0-0-0-0-0-0-0-0-|-0-0-0-0-0-0-0-0-|-0-0-0-0-0-0-0-0-|-0-0-0-0-5-7-7-3--|
|
|   Gtr IV
|   E E E E E E E E   E E E E E E E E   E E E E E E E E   E E E E E E E E
||------------------|-----------------|-----------------|------------------|
||o-----------------|-----------------|-----------------|------------------|
||------------------|-----------------|-----------------|------------------|
||------------------|-----------------|-----------------|------------------|
||o-0-0-0-0-0-0-0-0-|-0-0-0-0-0-0-0-0-|-0-0-0-0-0-0-0-0-|-0-0-0-0-5-7-7-3--|
||--0-0-0-0-0-0-0-0-|-0-0-0-0-0-0-0-0-|-0-0-0-0-0-0-0-0-|-0-0-0-0-5-7-7-3--|


  E E E E E E E E   E E E E E E E E   E E E E E E E E   E E E E E E E E
|-----------------|-----------------|-----------------|------------------||
|-----------------|-----------------|-----------------|-----------------o||
|-----------------|-----------------|-----------------|------------------||
|-----------------|-----------------|-----------------|------------------||
|-0-0-0-0-0-0-0-0-|-0-0-0-0-0-0-0-0-|-8-8-8-8-8-8-8-8-|-8-8-8-8-5-7-7-3-o||
|-0-0-0-0-0-0-0-0-|-0-0-0-0-0-0-0-0-|-8-8-8-7-7-7-8-8-|-8-7-7-7-5-7-7-3--||
|
| E E E E E E E E   E E E E E E E E   E E E E E E E E   E E E E E E E E
|-----------------|-----------------|-----------------|------------------||
|-----------------|-----------------|-----------------|-----------------o||
|-----------------|-----------------|-----------------|------------------||
|-----------------|-----------------|-----------------|------------------||
|-0-0-0-0-0-0-0-0-|-0-0-0-0-0-0-0-0-|-8-8-8-8-8-8-8-8-|-8-8-8-8-5-7-7-3-o||
|-0-0-0-0-0-0-0-0-|-0-0-0-0-0-0-0-0-|-8-8-8-7-7-7-8-8-|-8-7-7-7-5-7-7-3--||


  E E E E E E E E   E E E E E E E E
|-----------------|-----------------|
|-----------------|-----------------|
|-----------------|-----------------|
|-----------------|-----------------|
|-0-0-0-0-0-0-0-0-|-0-0-0-0-0-0-0-0-|
|-0-0-0-0-0-0-0-0-|-0-0-0-0-0-0-0-0-|
|
| E E E E E E E E   E E E E E E E E
|-----------------|-----------------|
|-----------------|-----------------|
|-----------------|-----------------|
|-----------------|-----------------|
|-0-0-0-0-0-0-0-0-|-0-0-0-0-0-0-0-0-|
|-0-0-0-0-0-0-0-0-|-0-0-0-0-0-0-0-0-|


   E  E  E  E  E  E  E  E    E  E  E  E E  E  E E
|-------------------------|-----------------------|
|-13-13-13-13-13-13-13-13-|-13-13-13-13-----------|
|-12-12-12-12-12-12-12-12-|-12-12-12-12-----------|
|--0--0--0--0--0--0--0--0-|--0--0--0--0-----------|
|--0--0--0--0--0--0--0--0-|--0--0--0--0-8-10-10-7-|
|--0--0--0--0--0--0--0--0-|--0--0--0--0-8-10-10-7-|
|
|  E  E  E  E  E  E  E  E    E  E  E  E E  E  E E
|-------------------------|-----------------------|
|-------------------------|-----------------------|
|-------------------------|-----------------------|
|-------------------------|-----------------------|
|--0--0--0--0--0--0--0--0-|--0--0--0--0-8-10-10-7-|
|--0--0--0--0--0--0--0--0-|--0--0--0--0-8-10-10-7-|


  E E E E E E E E   E E E E E E E E   E E E E E E E E   E E E E E E E E
|-----------------|-----------------|-----------------|-----------------|
|-----------------|-----------------|-----------------|-----------------|
|-----------------|-----------------|-----------------|-----------------|
|-----------------|-----------------|-----------------|-----------------|
|-0-0-0-0-0-0-0-0-|-0-0-0-0-0-0-0-0-|-8-8-8-8-8-8-8-8-|-8-8-8-8-5-7-7-3-|
|-0-0-0-0-0-0-0-0-|-0-0-0-0-0-0-0-0-|-8-8-8-7-7-7-8-8-|-8-7-7-7-5-7-7-3-|
|
| E E E E E E E E   E E E E E E E E   E E E E E E E E   E E E E E E E E
|-----------------|-----------------|-----------------|-----------------|
|-----------------|-----------------|-----------------|-----------------|
|-----------------|-----------------|-----------------|-----------------|
|-----------------|-----------------|-----------------|-----------------|
|-0-0-0-0-0-0-0-0-|-0-0-0-0-0-0-0-0-|-8-8-8-8-8-8-8-8-|-8-8-8-8-5-7-7-3-|
|-0-0-0-0-0-0-0-0-|-0-0-0-0-0-0-0-0-|-8-8-8-7-7-7-8-8-|-8-7-7-7-5-7-7-3-|


    PM----------------------------------------------------|
    E E E E E E E E   E E E E E E E E   E E E E E E E E   E E E E E E E E
||------------------|-----------------|-----------------|-------------------||
||o-----------------|-----------------|-----------------|-----6-6-6-6-6-6--o||
||------------------|-----------------|-----------------|-----7-7-7-7-7-7---||
||------------------|-----------------|-----------------|---0-0-0-0-0-0-0---||
||o-0-0-0-0-0-0-0-0-|-0-0-0-0-0-0-0-0-|-0-0-0-0-0-0-0-0-|-0----------------o||
||--0-0-0-0-0-0-0-0-|-0-0-0-0-0-0-0-0-|-0-0-0-0-0-0-0-0-|-0-----------------||
|
|   PM----------------------------------------------------|
|   E E E E E E E E   E E E E E E E E   E E E E E E E E   E E E E E E E E
||------------------|-----------------|-----------------|-------------------||
||o-----------------|-----------------|-----------------|-----6-6-6-6-6-6--o||
||------------------|-----------------|-----------------|-----7-7-7-7-7-7---||
||------------------|-----------------|-----------------|---0-0-0-0-0-0-0---||
||o-0-0-0-0-0-0-0-0-|-0-0-0-0-0-0-0-0-|-0-0-0-0-0-0-0-0-|-0----------------o||
||--0-0-0-0-0-0-0-0-|-0-0-0-0-0-0-0-0-|-0-0-0-0-0-0-0-0-|-0-----------------||


  PM----|   PM------------|   PM------------|   PM------|
  E E E E E E E E   E E E E E E E E   E E E E E E E E   E E E E E E E E
|-----------------|-----------------|-----------------|-----------------|
|-----------------|-----------------|-----------------|-----6-6-6-6-6-6-|
|-----------------|-----------------|-----------------|-----7-7-7-7-7-7-|
|-----------------|-----------------|-----------------|---0-0-0-0-0-0-0-|
|-0-0-0-0---0-0-0-|-0-0-0-0---0-0-0-|-0-0-0-0---0-0-0-|-0---------------|
|-0-0-0-0---0-0-0-|-0-0-0-0---0-0-0-|-0-0-0-0---0-0-0-|-0---------------|
|
| PM----|   PM------------|   PM------------|   PM------|
| E E E E E E E E   E E E E E E E E   E E E E E E E E   E E E E E E E E
|-----------------|-----------------|-----------------|-----------------|
|-----------------|-----------------|-----------------|-----6-6-6-6-6-6-|
|-----------------|-----------------|-----------------|-----7-7-7-7-7-7-|
|-----------------|-----------------|-----------------|---0-0-0-0-0-0-0-|
|-0-0-0-0---0-0-0-|-0-0-0-0---0-0-0-|-0-0-0-0---0-0-0-|-0---------------|
|-0-0-0-0---0-0-0-|-0-0-0-0---0-0-0-|-0-0-0-0---0-0-0-|-0---------------|


  PM----|   PM----------------|   PM---------
  E E E E E E S S S S   E E E E E E S S S S
|---------------------|---------------------|
|---------------------|---------------------|
|---------------------|---------------------|
|---------------------|---------------------|
|-0-0-0-0---0-0-0-0-0-|-0-0-0-0---0-0-0-0-0-|
|-0-0-0-0---0-0-0-0-0-|-0-0-0-0---0-0-0-0-0-|
|
| PM----|   PM----------------|   PM---------
| E E E E E E S S S S   E E E E E E S S S S
|---------------------|---------------------|
|---------------------|---------------------|
|---------------------|---------------------|
|---------------------|---------------------|
|-0-0-0-0---0-0-0-0-0-|-0-0-0-0---0-0-0-0-0-|
|-0-0-0-0---0-0-0-0-0-|-0-0-0-0---0-0-0-0-0-|


 -------|   PM----------|
  E E E E E E S S S S   E E E E E E E E
|---------------------|-----------------|
|---------------------|-----6-6-6-6-6-6-|
|---------------------|-----7-7-7-7-7-7-|
|---------------------|---0-0-0-0-0-0-0-|
|-0-0-0-0---0-0-0-0-0-|-0---------------|
|-0-0-0-0---0-0-0-0-0-|-0---------------|
|
|-------|   PM----------|
| E E E E E E S S S S   E E E E E E E E
|---------------------|-----------------|
|---------------------|-----6-6-6-6-6-6-|
|---------------------|-----7-7-7-7-7-7-|
|---------------------|---0-0-0-0-0-0-0-|
|-0-0-0-0---0-0-0-0-0-|-0---------------|
|-0-0-0-0---0-0-0-0-0-|-0---------------|


  PM----|   PM----------------|   PM---------
  E E E E E E S S S S   E E E E E E S S S S
|---------------------|---------------------|
|---------------------|---------------------|
|---------------------|---------------------|
|---------------------|---------------------|
|-0-0-0-0---0-0-0-0-0-|-0-0-0-0---0-0-0-0-0-|
|-0-0-0-0---0-0-0-0-0-|-0-0-0-0---0-0-0-0-0-|
|
| PM----|   PM----------------|   PM---------
| E E E E E E S S S S   E E E E E E S S S S
|---------------------|---------------------|
|---------------------|---------------------|
|---------------------|---------------------|
|---------------------|---------------------|
|-0-0-0-0---0-0-0-0-0-|-0-0-0-0---0-0-0-0-0-|
|-0-0-0-0---0-0-0-0-0-|-0-0-0-0---0-0-0-0-0-|


 -------|   PM----------------|
  E E E E E E S S S S   E E E E E  E  E   E
|---------------------|------------------------|
|---------------------|------------------------|
|---------------------|-----------12-10---7----|
|---------------------|------------------------|
|-0-0-0-0---0-0-0-0-0-|-0-0-0-0---10--8---5----|
|-0-0-0-0---0-0-0-0-0-|-0-0-0-0----------------|
|
|-------|   PM----------------|    PM-------|
| E E E E E E S S S S   E E E E E  E  S S S S
|---------------------|------------------------|
|---------------------|------------------------|
|---------------------|------------------------|
|---------------------|------------------------|
|-0-0-0-0---0-0-0-0-0-|-0-0-0-0----0--0-0-0-0--|
|-0-0-0-0---0-0-0-0-0-|-0-0-0-0----0--0-0-0-0--|


        PM|   PM----------------|   PM---------
   E  E E E E E S S S S   E E E E E E S S S S
|-----------------------|---------------------|
|-----------------------|---------------------|
|-14-10-----------------|---------------------|
|-----------------------|---------------------|
|-12--8-0-0---0-0-0-0-0-|-0-0-0-0---0-0-0-0-0-|
|-------0-0---0-0-0-0-0-|-0-0-0-0---0-0-0-0-0-|
|
|  PM-----|   PM----------------|   PM---------
|  E  E E E E E S S S S   E E E E E E S S S S
|-----------------------|---------------------|
|-----------------------|---------------------|
|-----------------------|---------------------|
|-----------------------|---------------------|
|--0--0-0-0---0-0-0-0-0-|-0-0-0-0---0-0-0-0-0-|
|--0--0-0-0---0-0-0-0-0-|-0-0-0-0---0-0-0-0-0-|


 -------|   PM----------------|
  E E E E E E S S S S   E E E E E E E E
|---------------------|--------------------|
|---------------------|--------------------|
|---------------------|--------------------|
|---------------------|--------------------|
|-0-0-0-0---0-0-0-0-0-|-0-0-0-0---5-3-8----|
|-0-0-0-0---0-0-0-0-0-|-0-0-0-0---5-3-8----|
|
|-------|   PM----------------|
| E E E E E E S S S S   E E E E H
|---------------------|--------------------|
|---------------------|--------------------|
|---------------------|--------------------|
|---------------------|--------------------|
|-0-0-0-0---0-0-0-0-0-|-0-0-0-0------------|
|-0-0-0-0---0-0-0-0-0-|-0-0-0-0------------|


  E E E E E E E E   E E E E E E E E   E E E E E E E E   E E E E E E E E
|-----------------|-----------------|-----------------|-----------------|
|-----------6-6-6-|-6-6-6-6-6-6-6-6-|-----------------|-----------------|
|-----------7-7-7-|-7-7-7-7-7-7-7-7-|-----------------|-----------------|
|-----------0-0-0-|-0-0-0-0-0-0-0-0-|-----------------|-----------------|
|-7-3-0-0-0-0-0-0-|-0-0-0-0-0-0-0-0-|-8-8-8-8-8-8-8-8-|-8-8-8-8-5-7-7-3-|
|-7-3-0-0-0-0-0-0-|-0-0-0-0-0-0-0-0-|-8-8-8-7-7-7-8-8-|-8-7-7-7-5-7-7-3-|
|
| Q   E E E E E E   E E E E E E E E   E E E E E E E E   E E E E E E E E
|-----------------|-----------------|-----------------|-----------------|
|-----------------|-----------------|-----------------|-----------------|
|-----------------|-----------------|-----------------|-----------------|
|-----------------|-----------------|-----------------|-----------------|
|-----0-0-0-0-0-0-|-0-0-0-0-0-0-0-0-|-8-8-8-8-8-8-8-8-|-8-8-8-8-5-7-7-3-|
|-----0-0-0-0-0-0-|-0-0-0-0-0-0-0-0-|-8-8-8-7-7-7-8-8-|-8-7-7-7-5-7-7-3-|


  E E E E E E E E   E E E E E E E E   E E E E E E E E   E E E E E E E E
|-----------------|-----------------|-----------------|-----------------|
|-----------------|-----------------|-----------------|-----------------|
|-----------------|-----------------|-----------------|-----------------|
|-----------------|-----------------|-----------------|-----------------|
|-0-0-0-0-0-0-0-0-|-0-0-0-0-5-7-7-3-|-0-0-0-0-0-0-0-0-|-0-0-0-0-0-0-0-0-|
|-0-0-0-0-0-0-0-0-|-0-0-0-0-5-7-7-3-|-0-0-0-0-0-0-0-0-|-0-0-0-0-0-0-0-0-|
|
| E E E E E E E E   E E E E E E E E   E E E E E E E E   E E E E E E E E
|-----------------|-----------------|-----------------|-----------------|
|-----------------|-----------------|-----------------|-----------------|
|-----------------|-----------------|-----------------|-----------------|
|-----------------|-----------------|-----------------|-----------------|
|-0-0-0-0-0-0-0-0-|-0-0-0-0-5-7-7-3-|-0-0-0-0-0-0-0-0-|-0-0-0-0-0-0-0-0-|
|-0-0-0-0-0-0-0-0-|-0-0-0-0-5-7-7-3-|-0-0-0-0-0-0-0-0-|-0-0-0-0-0-0-0-0-|


  E E E E E E E E   E E E E E E E E   E E E E E E E E    E  E  E  E E  E  E E
|-----------------|-----------------|-----------------|-----------------------|
|-----------------|-----------------|-----------------|-13-13-13-13-----------|
|-----------------|-----------------|-----------------|-12-12-12-12-----------|
|-----------------|-----------------|-----------------|--0--0--0--0-----------|
|-8-8-8-8-8-8-8-8-|-8-8-8-8-5-7-7-3-|-0-0-0-0-0-0-0-0-|--0--0--0--0-8-10-10-7-|
|-8-8-8-7-7-7-8-8-|-8-7-7-7-5-7-7-3-|-0-0-0-0-0-0-0-0-|--0--0--0--0-8-10-10-7-|
|
| E E E E E E E E   E E E E E E E E   E E E E E E E E    E  E  E  E E  E  E E
|-----------------|-----------------|-----------------|-----------------------|
|-----------------|-----------------|-----------------|-----------------------|
|-----------------|-----------------|-----------------|-----------------------|
|-----------------|-----------------|-----------------|-----------------------|
|-8-8-8-8-8-8-8-8-|-8-8-8-8-5-7-7-3-|-0-0-0-0-0-0-0-0-|--0--0--0--0-8-10-10-7-|
|-8-8-8-7-7-7-8-8-|-8-7-7-7-5-7-7-3-|-0-0-0-0-0-0-0-0-|--0--0--0--0-8-10-10-7-|


  E E E E E E E E   E E E E E E E E   E E E E E E E E   E E E E E E E E
|-----------------|-----------------|-----------------|-----------------|
|-----------------|-----------------|-----------------|-----------------|
|-----------------|-----------------|-----------------|-----------------|
|-----------------|-----------------|-----------------|-----------------|
|-0-0-0-0-0-0-0-0-|-0-0-0-0-5-7-7-3-|-8-8-8-8-8-8-8-8-|-8-8-8-8-5-7-7-3-|
|-0-0-0-0-0-0-0-0-|-0-0-0-0-5-7-7-3-|-8-8-8-7-7-7-8-8-|-8-7-7-7-5-7-7-3-|
|
| E E E E E E E E   E E E E E E E E   E E E E E E E E   E E E E E E E E
|-----------------|-----------------|-----------------|-----------------|
|-----------------|-----------------|-----------------|-----------------|
|-----------------|-----------------|-----------------|-----------------|
|-----------------|-----------------|-----------------|-----------------|
|-0-0-0-0-0-0-0-0-|-0-0-0-0-5-7-7-3-|-8-8-8-8-8-8-8-8-|-8-8-8-8-5-7-7-3-|
|-0-0-0-0-0-0-0-0-|-0-0-0-0-5-7-7-3-|-8-8-8-7-7-7-8-8-|-8-7-7-7-5-7-7-3-|


  E E E E Q  E E   E E Q  E E E E   Q  E E Q  E E   E E Q  E E E E
|----------------|----------------|---------------|----------------|
|----------------|----------------|---------------|----------------|
|-------0--------|----------------|------0--------|----------------|
|---------3------|---3-2--------0-|--------3------|---3-2--------0-|
|-0-0-0------0-0-|-0------0-0-3---|-0--0------0-0-|-0------0-0-3---|
|-0-0-0------0-0-|-0------0-0-----|-0--0------0-0-|-0------0-0-----|
|
| E E E E Q  E E   E E Q  E E E E   Q  E E Q  E E   E E Q  E E E E
|----------------|----------------|---------------|----------------|
|----------------|----------------|---------------|----------------|
|-------0--------|----------------|------0--------|----------------|
|---------3------|---3-2--------0-|--------3------|---3-2------2-3-|
|-0-0-0------0-0-|-0------0-0-3---|-0--0------0-0-|-0------0-0-----|
|-0-0-0------0-0-|-0------0-0-----|-0--0------0-0-|-0------0-0-----|


  Q  E E Q  E E   E E Q  E E E E   Q  E E Q  E E   E E E E E E E E
|---------------|----------------|---------------|-----------------|
|---------------|----------------|---------------|-----------------|
|------0--------|----------------|------0--------|-----------------|
|--------3------|---3-2--------0-|--------3------|-3-3-3-3-3-3-3-3-|
|-0--0------0-0-|-0------0-0-3---|-0--0------0-0-|-1-1-1-1-1-1-1-1-|
|-0--0------0-0-|-0------0-0-----|-0--0------0-0-|-1-1-1-1-1-1-1-1-|
|
| Q  E E Q  E E   E E Q  E E E E   Q  E E Q  E E   E E E E E E E E
|---------------|----------------|---------------|-----------------|
|---------------|----------------|---------------|-----------------|
|------0--------|----------------|------0--------|-----------------|
|--------3------|---3-2--------0-|--------3------|-3-3-3-3-3-3-3-3-|
|-0--0------0-0-|-0------0-0-3---|-0--0------0-0-|-1-1-1-1-1-1-1-1-|
|-0--0------0-0-|-0------0-0-----|-0--0------0-0-|-1-1-1-1-1-1-1-1-|


  Q  E E Q  E E   E E Q  E E E E   Q  E E Q  E E   E E Q  E E E E
|---------------|----------------|---------------|----------------|
|---------------|----------------|---------------|----------------|
|------0--------|----------------|------0--------|----------------|
|--------3------|---3-2--------0-|--------3------|---3-2--------0-|
|-0--0------0-0-|-0------0-0-3---|-0--0------0-0-|-0------0-0-3---|
|-0--0------0-0-|-0------0-0-----|-0--0------0-0-|-0------0-0-----|
|
| Q  E E Q  E E   E E Q  E E Q     Q  E E Q  E E   E E Q  E E E E
|---------------|----------------|---------------|----------------|
|---------------|----------------|---------------|----------------|
|---------------|----------------|---------------|----------------|
|---------------|----------------|---------------|------------2-3-|
|-0--0------0-0-|-0------0-0-----|-0--0------0-0-|-0------0-0-----|
|-0--0------0-0-|-0------0-0-----|-0--0------0-0-|-0------0-0-----|


  Q  E E Q  E E   E E Q  E E E E   Q  E E Q  E E   E E E E E E E E
|---------------|----------------|---------------|-----------------|
|---------------|----------------|---------------|-----------------|
|------0--------|----------------|------0--------|-----------------|
|--------3------|---3-2--------0-|--------3------|-3-3-3-3-3-3-3-3-|
|-0--0------0-0-|-0------0-0-3---|-0--0------0-0-|-1-1-1-1-1-1-1-1-|
|-0--0------0-0-|-0------0-0-----|-0--0------0-0-|-1-1-1-1-1-1-1-1-|
|
| Q  E E Q  E E   E E Q  E E Q     Q  E E Q  E E   E E E E E E E E
|---------------|----------------|---------------|-----------------|
|---------------|----------------|---------------|-----------------|
|---------------|----------------|---------------|-----------------|
|---------------|----------------|---------------|-3-3-3-3-3-3-3-3-|
|-0--0------0-0-|-0------0-0-----|-0--0------0-0-|-1-1-1-1-1-1-1-1-|
|-0--0------0-0-|-0------0-0-----|-0--0------0-0-|-1-1-1-1-1-1-1-1-|


   Q   E  E  E  E  E  E    E  E  E  E  E  E  E  E
|-----------------------|----------------10----10-|
|--------------------10-|----10----10-13----13----|
|--------10----10-12----|-12----12----------------|
|-12--12----12----------|-------------------------|
|-----------------------|-------------------------|
|-----------------------|-------------------------|
|
|  Q   E  E  Q     E  E    E  E  Q     E  E  E  E
|-----------------------|-------------------------|
|-----------------------|-------------------------|
|---------0-------------|-------------------------|
|------------3----------|-----3--2--------------0-|
|--0---0-----------0--0-|--0-----------0--0--3----|
|--0---0-----------0--0-|--0-----------0--0-------|


   E  E  E  E  E  E  E  E    E  E  E  E  E  E  E  E
|-------------------------|-------------------------|
|-10-------10-------10----|----10-------10----------|
|----10-------10-------10-|-------10-------10-------|
|-------12-------12-------|-12-------12-------10-12-|
|-------------------------|-------------------------|
|-------------------------|-------------------------|
|
|  Q     E  E  Q     E  E    E  E  Q     E  E  E  E
|-------------------------|-------------------------|
|-------------------------|-------------------------|
|-----------0-------------|-------------------------|
|--------------3----------|-----3--2--------------0-|
|--0-----0-----------0--0-|--0-----------0--0--3----|
|--0-----0-----------0--0-|--0-----------0--0-------|


   Q   E  E  E  E  E  E    E  E  E  E  E  E  E  E
|-----------------------|----------------10----10-|
|--------------------10-|----10----10-13----13----|
|--------10----10-12----|-12----12----------------|
|-12--12----12----------|-------------------------|
|-----------------------|-------------------------|
|-----------------------|-------------------------|
|
|  Q   E  E  Q     E  E    E  E  Q     E  E  E  E
|-----------------------|-------------------------|
|-----------------------|-------------------------|
|---------0-------------|-------------------------|
|------------3----------|-----3--2--------------0-|
|--0---0-----------0--0-|--0-----------0--0--3----|
|--0---0-----------0--0-|--0-----------0--0-------|


   E  E  E  E  E  E  E  E   E E E E E E E E
|-10-10-10-10-10-10-10-10-|-----------------|
|-------------------------|-----------------|
|-------------------------|-----------------|
|-------------------------|-3-3-3-3-3-3-3-3-|
|-------------------------|-1-1-1-1-1-1-1-1-|
|-------------------------|-1-1-1-1-1-1-1-1-|
|
|  Q     E  E  Q     E  E   E E E E E E E E
|-------------------------|-----------------|
|-------------------------|-----------------|
|-----------0-------------|-----------------|
|--------------3----------|-3-3-3-3-3-3-3-3-|
|--0-----0-----------0--0-|-1-1-1-1-1-1-1-1-|
|--0-----0-----------0--0-|-1-1-1-1-1-1-1-1-|


  E E E E E E E E
|--------------------|
|--------------------|
|--------------------|
|-5-5-5-5-5-5-5-5----|
|-3-3-3-3-3-3-3-3----|
|-3-3-3-3-3-3-3-3----|
|
| E E E E E E E E
|--------------------|
|--------------------|
|--------------------|
|-5-5-5-5-5-5-5-5----|
|-3-3-3-3-3-3-3-3----|
|-3-3-3-3-3-3-3-3----|


  Gtr I
   W           W          W          +H.      +E  E
|-----------|-----------|----------|----------------|
|-----------|-----------|----------|----------------|
|-----------|-----------|----------|----------------|
|-/5--------|-/7--------|-5--------|-(5)------(5)-5-|
|-----------|-----------|----------|----------------|
|-----------|-----------|----------|----------------|
|
| Gtr II
|  W           W          W           W
|-----------|-----------|----------|----------------|
|-----------|-----------|----------|----------------|
|-----------|-----------|----------|----------------|
|-----------|-----------|----------|----------------|
|-----------|-----------|----------|----------------|
|-----------|-----------|----------|----------------|


                                                      Gtr III
  E  E Q  +H       E E H    E E    W           +H       H
|----------------|--------------|-----------|-----------------|
|----------------|--------------|-----------|-----------------|
|----------------|----------7---|-----------|-----------------|
|-8h10p8--(8)----|-7h8p7------8-|-----------|-----------------|
|----------------|--------------|-10--------|-(10)----/12\----|
|----------------|--------------|-----------|---------/12\----|
|
|                                                     Gtr IV
| W                W               W            H       H
|----------------|--------------|-----------|-----------------|
|----------------|--------------|-----------|-----------------|
|----------------|--------------|-----------|-----------------|
|----------------|--------------|-----------|-----------------|
|----------------|--------------|-----------|---------/12\----|
|----------------|--------------|-----------|---------/12\----|


     E  E  E  E  E  E  E  E    E  E  E  E  E  E  E  E
||--------------------------|-------------------------|
||o-------------------------|-------------------------|
||--------------------------|-------------------------|
||--------------------------|-------------------------|
||o--5--5--5--5--5--5--5--5-|--5--5--5--5--5--5--5--5-|
||---5--5--5--5--5--5--5--5-|--5--5--5--5--5--5--5--5-|
|
|    E  E  E  E  E  E  E  E    E  E  E  E  E  E  E  E
||--------------------------|-------------------------|
||o-------------------------|-------------------------|
||--12-12-12-12-12-12-12-12-|-12-12-12-12-12-12-12-12-|
||--------------------------|-------------------------|
||o-10-10-10-10-10-10-10-10-|-10-10-10-10-10-10-10-10-|
||--------------------------|-------------------------|


   E  E  E  E  E  E  E  E    E  E  E  E  E  E  E  E
|-------------------------|--------------------------|
|-------------------------|--------------------------|
|-------------------------|--------------------------|
|-------------------------|--------------------------|
|--3--3--3--3--3--3--3--3-|--3--3--3--3--3--3--3--3--|
|--3--3--3--3--3--3--3--3-|--3--3--3--3--3--3--3--3--|
|
|  E  E  E  E  E  E  E  E    E  E  E  E  E  E  E  E
|-------------------------|--------------------------|
|-------------------------|--------------------------|
|-14-14-14-14-14-14-14-14-|-14-14-14-14-14-14-14-14--|
|-------------------------|--------------------------|
|-12-12-12-12-12-12-12-12-|-12-12-12-12-12-12-12-12--|
|-------------------------|--------------------------|


   E  E  E  E  E  E  E  E    E  E  E  E  E  E  E  E
|-------------------------|-------------------------|
|-------------------------|-------------------------|
|-------------------------|-------------------------|
|-------------------------|-------------------------|
|--1--1--1--1--1--1--1--1-|--1--1--1--1--1--1--1--1-|
|--1--1--1--1--1--1--1--1-|--1--1--1--1--1--1--1--1-|
|
|  E  E  E  E  E  E  E  E    E  E  E  E  E  E  E  E
|-------------------------|-------------------------|
|-------------------------|-------------------------|
|-10-10-10-10-10-10-10-10-|-10-10-10-10-10-10-10-10-|
|-------------------------|-------------------------|
|--8--8--8--8--8--8--8--8-|--8--8--8--8--8--8--8--8-|
|-------------------------|-------------------------|


  E E E E E E E E   E E E E E E E E
|-----------------|------------------||
|-----------------|-----------------o||
|-----------------|------------------||
|-----------------|------------------||
|-1-1-1-1-1-1-1-1-|-3-3-3-3-3-3-3-3-o||
|-1-1-1-1-1-1-1-1-|-3-3-3-3-3-3-3-3--||
|
| E E E E E E E E   E E E E E E E E
|-----------------|------------------||
|-----------------|-----------------o||
|-8-8-8-8-8-8-8-8-|-7-7-7-7-7-7-7-7--||
|-----------------|------------------||
|-6-6-6-6-6-6-6-6-|-5-5-5-5-5-5-5-5-o||
|-----------------|------------------||


     E  E  E  E  E  E  E  E    E  E  E  E  E  E  E  E
||--------------------------|-------------------------|
||o-------------------------|-------------------------|
||--------------------------|-------------------------|
||--------------------------|-------------------------|
||o--5--5--5--5--5--5--5--5-|--5--5--5--5--5--5--5--5-|
||---5--5--5--5--5--5--5--5-|--5--5--5--5--5--5--5--5-|
|
|    E  E  E  E  E  E  E  E    E  E  E  E  E  E  E  E
||--------------------------|-------------------------|
||o-------------------------|-------------------------|
||--12-12-12-12-12-12-12-12-|-12-12-12-12-12-12-12-12-|
||--------------------------|-------------------------|
||o-10-10-10-10-10-10-10-10-|-10-10-10-10-10-10-10-10-|
||--------------------------|-------------------------|
|
|   Gtr V
|    TP    TP    TP    TP      TP    TP    TP    TP
|    Q     Q     Q     Q       Q     Q     Q     Q
||--------------------------|-------------------------|
||o-------------------------|-------------------------|
||---------------------7----|--8-----7----------------|
||---5-----7-----8----------|--------------8-----7----|
||o-------------------------|-------------------------|
||--------------------------|-------------------------|


   E  E  E  E  E  E  E  E    E  E  E  E  E  E  E  E
|-------------------------|------------------------|
|-------------------------|------------------------|
|-------------------------|------------------------|
|-------------------------|------------------------|
|--3--3--3--3--3--3--3--3-|--3--3--3--3--3--3--3--3|
|--3--3--3--3--3--3--3--3-|--3--3--3--3--3--3--3--3|
|
|  E  E  E  E  E  E  E  E    E  E  E  E  E  E  E  E
|-------------------------|------------------------|
|-------------------------|------------------------|
|-14-14-14-14-14-14-14-14-|-14-14-14-14-14-14-14-14|
|-------------------------|------------------------|
|-12-12-12-12-12-12-12-12-|-12-12-12-12-12-12-12-12|
|-------------------------|------------------------|
|
|  TP    TP    TP    TP      TP    TP    TP    TP
|  Q     Q     Q     Q       Q     Q     Q     Q
|-------------------------|------------------------|
|-------------------------|------------------------|
|--------------------7----|--8-----7---------------|
|--5-----7-----8----------|--------------8-----7---|
|-------------------------|------------------------|
|-------------------------|------------------------|


   E  E  E  E  E  E  E  E    E  E  E  E  E  E  E  E
|-------------------------|-------------------------|
|-------------------------|-------------------------|
|-------------------------|-------------------------|
|-------------------------|-------------------------|
|--1--1--1--1--1--1--1--1-|--1--1--1--1--1--1--1--1-|
|--1--1--1--1--1--1--1--1-|--1--1--1--1--1--1--1--1-|
|
|  E  E  E  E  E  E  E  E    E  E  E  E  E  E  E  E
|-------------------------|-------------------------|
|-------------------------|-------------------------|
|-10-10-10-10-10-10-10-10-|-10-10-10-10-10-10-10-10-|
|-------------------------|-------------------------|
|--8--8--8--8--8--8--8--8-|--8--8--8--8--8--8--8--8-|
|-------------------------|-------------------------|
|
|  TP    TP    TP    TP      TP    TP    TP    TP
|  Q     Q     Q     Q       Q     Q     Q     Q
|-------------------------|-------------------------|
|-------------------------|-------------------------|
|--------------------7----|--8-----7----------------|
|--5-----7-----8----------|--------------8-----7----|
|-------------------------|-------------------------|
|-------------------------|-------------------------|


  E E E E E E E E   E E E E E E E E
|-----------------|------------------||
|-----------------|-----------------o||
|-----------------|------------------||
|-----------------|------------------||
|-1-1-1-1-1-1-1-1-|-3-3-3-3-3-3-3-3-o||
|-1-1-1-1-1-1-1-1-|-3-3-3-3-3-3-3-3--||
|
| E E E E E E E E   E E E E E E E E
|-----------------|------------------||
|-----------------|-----------------o||
|-8-8-8-8-8-8-8-8-|-7-7-7-7-7-7-7-7--||
|-----------------|------------------||
|-6-6-6-6-6-6-6-6-|-5-5-5-5-5-5-5-5-o||
|-----------------|------------------||
|
| TP  TP  TP  TP    TP  TP  TP  TP
| Q   Q   Q   Q     Q   Q   Q   Q
|-----------------|------------------||
|-----------------|-----------------o||
|-------------5---|-7-------5---7----||
|-5---7---8-------|-----5------------||
|-----------------|-----------------o||
|-----------------|------------------||


                                                        Gtr I
   W           +W            +W            +H.      +E  E
|-----------|-------------|-------------|-----------------|
|-----------|-------------|-------------|-----------------|
|-----------|-------------|-------------|-----------------|
|-----------|-------------|-------------|---------------5-|
|--5--------|--(5)--------|--(5)--------|--(5)------(5)---|
|--5--------|--(5)--------|--(5)--------|--(5)------(5)---|
|
|  W           +W            +W            +W
|-----------|-------------|-------------|-----------------|
|-----------|-------------|-------------|-----------------|
|-12--------|-(12)--------|-(12)--------|-(12)------------|
|-----------|-------------|-------------|-----------------|
|-10--------|-(10)--------|-(10)--------|-(10)------------|
|-----------|-------------|-------------|-----------------|


  Gtr I
  E  E Q  +H       E E H.        W          +H.      +E  E
|----------------|-------------|----------|----------------|
|----------------|-------------|----------|----------------|
|----------------|-------------|----------|----------------|
|-8h10p8--(8)----|-7h8p7-------|-5--------|-(5)------(5)-5-|
|----------------|-------------|----------|----------------|
|----------------|-------------|----------|----------------|
|
| Gtr II
| W                W             W          +W
|----------------|-------------|----------|----------------|
|----------------|-------------|----------|----------------|
|----------------|-------------|----------|----------------|
|----------------|-------------|----------|----------------|
|-5--------------|-3-----------|-1--------|-(1)------------|
|-5--------------|-3-----------|-1--------|-(1)------------|


                   H.=H
  E  E Q  +H       E E H    E E    W           +W.
|----------------|--------------|-----------|---------|
|----------------|--------------|-----------|---------|
|----------------|----------7---|-----------|---------|
|-8h10p8--(8)----|-7h8p7------8-|-----------|---------|
|----------------|--------------|-10--------|-(10)----|
|----------------|--------------|-----------|---------|
|
| W                W               W           +W
|----------------|--------------|-----------|---------|
|----------------|--------------|-----------|---------|
|----------------|--------------|-----------|---------|
|----------------|--------------|-----------|---------|
|-5--------------|-3------------|--1--------|--(1)----|

--------------------------------------------------------------------------
                         Bury Us All
---------------------------------------------------------------------------
Drop C Tuning
Intro

both guitars
D---------------------------------------------------------------------|
A---------------------------------------------------------------------|
F--------------------------------------------------------------   X 4-|
C---------------------------------------------------------------------|
G---------------------------------------------------------------------|
C---7-0-0-0-0-7-8-0-7-0-0-0-0-7-8-0-7-0-0-0-0-7-8-0-7-0-7-8-0-6-------|


Then an open is played till the third bar of the snare roll

both guitars
D--------------------------------------------------------------|
A--------------------------------------------------------------|
F--------------------------------------------------------------|
C-0------------------------------------------------------------|
G-0------------------------------------------------------------|
C-0------------------------------------------5-7-0-7-8-0-8-10--|


Verse

guitar 1
D--------------------------------------------------------------------|
A--------------------------------------------------------------------|
F--------------------------------------------------------------------|
C--------------------------------------------------------------------|
G-5---------8-7----5---------7-8----5---------8-7----5---7-8---10----|
C---0-0-0-0-----10---0-0-0-0-----10---0-0-0-0-----10---0-----0-------|

D---------------------------------------------------------------------|
A---------------------------------------------------------------------|
F---------------------------------------------------------------------|
C---------------------------------------------------------------------|
G-5---------8-7----5---------7-8----5---------8-7---------------------|
C---0-0-0-0-----10---0-0-0-0-----10---0-0-0-0-----10-5-7-0-7-8-0-8-10-|

This is repeated 2 times but on the second bar there is a harmony part where its
the same apart from the end part which is....

guitar 2
D--------------------------------------------------------------------|
A--------------------------------------------------------------------|
F--------------------------------------------------------------------|
C--------------------------------------------------------------------|
G-5---------8-7----5---------7-8----5---------8-7----8---10-12--13---|
C---0-0-0-0-----10---0-0-0-0-----10---0-0-0-0-----10---0------0------|

Riff before chorus

both guitars
D--------------------------------------------------------------------|
A--------------------------------------------------------------------|
F--------------------------------------------------------------------| x 2
C--------------------------------------------------------------------|
G--------------------------------------------------------------------|
C-0-0-0-0-0-0-0-0-0-0-0-0-0-0-0-0-0-0-0-0-0-0-0-0-0-5-8-3------------|

It then goes on to

Guitar 1
D--------------------------------------------------------------------|
A--------------------------------------------------------------------|
F-----------------7-0-9-10------------------------7-0-9-10-----------| x 2
C--------------------------------------------------------------------|
G--------------------------------------------------------------------|
C-0-0-0-0-0-0-0-0----------0-0-0-0-0-0-0-0-0-0-0-0-----------0-5-8-3-|
Guitar 2

D----------------------------------------------------------------------|
A----------------------------------------------------------------------|
F---------------------------------7-0-9-10---------------------------x-|
C----------------------------------------------------------------------|
G----------------------------------------------------------------------|
C-0-0-0-0-0-0-0-0-0-0-0-0-0-0-0-0----------0-0-0-0--0-5-8-3------------|


Chorus riff

Guitar 1
D-------------------------------------------------------------------------|
A-------------------------------------------------------------------------|
F-----------------7-0-9-10---------7-0-9-10---------7-0-9-10--------- x 2-|
C-------------------------------------------------------------------------|
G-------------------------------------------------------------------------|
C-0-0-0-0-0-0-0-0----------0-0-0-0----------0-0-0-0----------0-5-8-3------|

guitar 2
D--------------------------------------------------------------------|
A--------------------------------------------------------------------|
F-----------------10-0-5-7---------10-0-5-7---------10-0-5-7---------| x 2
C--------------------------------------------------------------------|
G--------------------------------------------------------------------|
C-0-0-0-0-0-0-0-0----------0-0-0-0----------0-0-0-0----------0-5-8-3-|


it then goes back to the verse riff but there is a harmony part which is


D--------------------------------------------------------------------------|
A--------------------------------------------------------------------------|
F--------------------------------------------------------------------------|
C--------------------------------------------------------------------------|
G-8---------12-10----8---------12-10----8---------12-10----8---10-12--13---|
C---0-0-0-0-------14---0-0-0-0-------14---0-0-0-0-------14---0------0------|

D----------------------------------------------------------------------------|
A----------------------------------------------------------------------------|
F----------------------------------------------------------------------------|
C----------------------------------------------------------------------------|
G-8---------12-10----8---------12-10----8---------12-10----------------------|
C---0-0-0-0-------14---0-0-0-0-------14---0-0-0-0-------14--5-7-0-7-8-0-8-10-|

it then goes back to the intro riff x 4

Backing to solo

D------------------------------------------------------------------------|
A------------------------------------------------------------------------|
F------------------------------------------------------------------------|
C------------------------------------------------------------------------|  x2
G------------------------------------------------------------------------|
C-0000000000000000000000000000000000000000000000000-7-0-7-8-0-6----------|

it then repeats the intro riff 2 times

Then it goes back to

Riff before chorus

both guitars
D--------------------------------------------------------------------|
A--------------------------------------------------------------------|
F--------------------------------------------------------------------| x 2
C--------------------------------------------------------------------|
G--------------------------------------------------------------------|
C-0-0-0-0-0-0-0-0-0-0-0-0-0-0-0-0-0-0-0-0-0-0-0-0-0-5-8-3------------|

It then goes on to

Guitar 1
D--------------------------------------------------------------------|
A--------------------------------------------------------------------|
F-----------------7-0-9-10------------------------7-0-9-10-----------| x 2
C--------------------------------------------------------------------|
G--------------------------------------------------------------------|
C-0-0-0-0-0-0-0-0----------0-0-0-0-0-0-0-0-0-0-0-0-----------0-5-8-3-|
Guitar 2

D----------------------------------------------------------------------|
A----------------------------------------------------------------------|
F---------------------------------7-0-9-10---------------------------x-|
C----------------------------------------------------------------------|
G----------------------------------------------------------------------|
C-0-0-0-0-0-0-0-0-0-0-0-0-0-0-0-0----------0-0-0-0--0-5-8-3------------|


Chorus riff

Guitar 1
D-------------------------------------------------------------------------|
A-------------------------------------------------------------------------|
F-----------------7-0-9-10---------7-0-9-10---------7-0-9-10--------- x 2-|
C-------------------------------------------------------------------------|
G-------------------------------------------------------------------------|
C-0-0-0-0-0-0-0-0----------0-0-0-0----------0-0-0-0----------0-5-8-3------|

guitar 2
D--------------------------------------------------------------------|
A--------------------------------------------------------------------|
F-----------------10-0-5-7---------10-0-5-7---------10-0-5-7---------| x 2
C--------------------------------------------------------------------|
G--------------------------------------------------------------------|
C-0-0-0-0-0-0-0-0----------0-0-0-0----------0-0-0-0----------0-5-8-3-|
End

---------------------------------------------------------------------------
                            The Sound of Truth
---------------------------------------------------------------------------
Drop C Tuning
this is a powertab so just to the powertab website nad download the free version and you 
look at this

Artist : As I Lay Dying
Song : Departed
Album : An Ocean Between Us
Tuning : CGCFAD

Tabbed by : James Sutton
E-mail : jas11790@yahoo.com


Fade In...
    T          T    16x   T    16x   T    16x   T    8x    T    8x
D|----------|----------|----------|----------|----------|----------|---------|
A|-19p10h14-|-22p10h14-|-21p12h15-|-19p10h14-|-18p12h14-|-21p12h14-|---------|
F|----------|----------|----------|----------|----------|----------|---------|
C|----------|----------|----------|----------|----------|----------|---------|
G|----------|----------|----------|----------|----------|----------|---------|
C|----------|----------|----------|----------|----------|----------|---------|

    T    16x   T    16x   T    16x   T     8x   T     8x   T     8x
D|----------|----------|----------|----------|----------|----------|---------|
A|-22p10h14-|-21p12h15-|-19p10h14-|-18p12h14-|-21p12h14-|-19p10h15-|---------|
F|----------|----------|----------|----------|----------|----------|---------|
C|----------|----------|----------|----------|----------|----------|---------|
G|----------|----------|----------|----------|----------|----------|---------|
C|----------|----------|----------|----------|----------|----------|---------|

    T     4x   T     4x   T    12x   T     4x   T     8x   T     4x
D|----------|----------|----------|----------|----------|----------|---------|
A|-21p10h15-|-22p10h15-|-19p10h14-|-21p10h14-|-19p10h15-|-21p10h15-|---------|
F|----------|----------|----------|----------|----------|----------|---------|
C|----------|----------|----------|----------|----------|----------|---------|
G|----------|----------|----------|----------|----------|----------|---------|
C|----------|----------|----------|----------|----------|----------|---------|

    T     4x   T    8x   T    8x   T  16x   T    8x   T    8x   T    8x
D|----------|-19p7h12-|-21p7h12-|-21p5h9-|-21p7h10-|-19p7h10-|---------|-----|
A|-22p10h15-|---------|---------|--------|---------|---------|-21p9h14-|-----|
F|----------|---------|---------|--------|---------|---------|---------|-----|
C|----------|---------|---------|--------|---------|---------|---------|-----|
G|----------|---------|---------|--------|---------|---------|---------|-----|
C|----------|---------|---------|--------|---------|---------|---------|-----|

    T    8x   T     8x   T     8x   T    16x   T    16x   T   'til end
D|---------|----------|----------|----------|----------|----------|----------|
A|-19p9h14-|-19p12h15-|-18p12h14-|-21p10h14-|-19p12h15-|-19p10h14-|----------|
F|---------|----------|----------|----------|----------|----------|----------|
C|---------|----------|----------|----------|----------|----------|----------|
G|---------|----------|----------|----------|----------|----------|----------|
C|---------|----------|----------|----------|----------|----------|----------|

  Wrath Upon Ourselves  -  As I Lay Dying

Tuning: C# G# C# F# A# D#

   Intro
        PM PM PM PM         PM PM     PM PM
 E    S  S  S  S   E   E  S  S   E  S  S

|--------------------------------------------|
|--10----------------10--10--------10--------|
|---x-----------------x---x---------x--------|
|---6-----------------6---6---------6--------|
|--------------------------------------------|
|--------0--0--0--0----------0--0------0--0--|


  PM PM     PM PM PM PM     PM PM
  S  S   E  S  S  S  S   E  S  S   E   E
------------------------------------------|
--------10--------------10--------10--10--|
---------x---------------x---------x---x--|
---------6---------------6---------6---6--|
------------------------------------------|
--0--0------0--0--0--0------0--0----------|


      PM PM PM PM         PM PM     PM PM
   E  S  S  S  S   E   E  S  S   E  S  S
------------------------------------------|
--10--------------10--10--------10--------|
---x---------------x---x---------x--------|
---6---------------6---6---------6--------|
------------------------------------------|
------0--0--0--0----------0--0------0--0--|


  PM PM     PM PM PM PM     PM PM
  S  S   E  S  S  S  S   E  S  S   E   E
------------------------------------------|
--------10--------------10--------10--10--|
---------x---------------x---------x---x--|
---------6---------------6---------6---6--|
------------------------------------------|
--0--0------0--0--0--0------0--0----------|


      PM PM PM PM         PM PM     PM PM
   E  S  S  S  S   E   E  S  S   E  S  S
------------------------------------------|
--10--------------10--10--------10--------|
---x---------------x---x---------x--------|
---6---------------6---6---------6--------|
------------------------------------------|
------0--0--0--0----------0--0------0--0--|


  PM PM     PM PM PM PM     PM PM
  S  S   E  S  S  S  S   E  S  S   E   E
------------------------------------------|
--------10--------------10--------10--10--|
---------x---------------x---------x---x--|
---------6---------------6---------6---6--|
------------------------------------------|
--0--0------0--0--0--0------0--0----------|


      PM PM PM PM         PM PM     PM PM
   E  S  S  S  S   E   E  S  S   E  S  S
------------------------------------------|
--10--------------10--10--------10--------|
---x---------------x---x---------x--------|
---6---------------6---6---------6--------|
------------------------------------------|
------0--0--0--0----------0--0------0--0--|


  PM PM     PM PM PM PM     PM PM
  S  S   E  S  S  S  S   E  S  S   E   E
------------------------------------------|
--------10--------------10--------10--10--|
---------x---------------x---------x---x--|
---------6---------------6---------6---6--|
------------------------------------------|
--0--0------0--0--0--0------0--0----------|


  PM PM PM PM PM PM PM PM            PM PM    PM PM PM PM PM
  S  S  S  S  S  S  S  S   E   E  E  S  S     E  S  S  E  E   E   E  E  E
-------------------------------------------|-------------------------------|
--------------------------10S--6--9--------|-----------------10S--6--9-----|
-------------------------------------------|-------------------------------|
---------------------------7S--3--6--------|------------------7S--3--6--0--|
--0--0--0--0--0--0--0--0-------------0--0--|--0--0--0--0--0-------------0--|
--0--0--0--0--0--0--0--0-------------0--0--|--0--0--0--0--0----------------|


  PM PM PM PM PM PM PM PM            PM PM    PM PM PM PM PM PM PM
  S  S  S  S  S  S  S  S   E   E  E  S  S     E  S  S  E  E  E  E   Q
-------------------------------------------|------------------------------|
--------------------------10S--6--9--------|------------------------------|
-------------------------------------------|------------------------------|
---------------------------7S--3--6--------|------------------------------|
--0--0--0--0--0--0--0--0-------------0--0--|--0--0--0--0--0--5--0--12\----|
--0--0--0--0--0--0--0--0-------------0--0--|--0--0--0--0--0--5--0---------|


  Verse 1
  PM      PM PM PM PM PM PM PM            PM PM
  S       S  S  S  S  S  S  S   E   E  E  S  S
------------------------------------------------|
-------------------------------10S--6--9--------|
------------------------------------------------|
--------------------------------7S--3--6--------|
--0-------0--0--0--0--0--0--0-------------0--0--|
--0-------0--0--0--0--0--0--0-------------0--0--|


  PM PM PM PM PM                  PM PM PM PM PM PM PM PM            PM PM
  E  S  S  E  E   E   E  E  E     S  S  S  S  S  S  S  S   E   E  E  S  S
-------------------------------|-------------------------------------------|
-----------------10S--6--9-----|--------------------------10S--6--9--------|
-------------------------------|-------------------------------------------|
------------------7S--3--6--0--|---------------------------7S--3--6--------|
--0--0--0--0--0-------------0--|--0--0--0--0--0--0--0--0-------------0--0--|
--0--0--0--0--0----------------|--0--0--0--0--0--0--0--0-------------0--0--|


  PM PM PM PM PM PM  PM PM PM    PM PM PM PM PM PM PM PM            PM PM
  E  S  S  E  E  E   E  E  E     S  S  S  S  S  S  S  S   E   E  E  S  S
------------------------------|-------------------------------------------|
------------------------------|--------------------------10S--6--9--------|
------------------------------|-------------------------------------------|
------------------------------|---------------------------7S--3--6--------|
--0--0--0--0--0--5---6--0--6--|--0--0--0--0--0--0--0--0-------------0--0--|
--0--0--0--0--0--5h--6--0--6--|--0--0--0--0--0--0--0--0-------------0--0--|


  PM PM PM PM PM                  PM PM    PM PM    PM PM PM PM PM PM PM
  E  S  S  E  E   E   E  E  E     S  S  E  S  S  E  S  S  S  S  S  S  E
-------------------------------|-----------------------------------------|
-----------------10S--6--9-----|-----------------------------------------|
-------------------------------|-----------------------------------------|
------------------7S--3--6--0--|-----------------------------------------|
--0--0--0--0--0-------------0--|--0--0-----0--0-----0--0--0--0--0--0--0--|
--0--0--0--0--0----------------|--0--0-----0--0-----0--0--0--0--0--0--0--|


     PM PM PM PM PM PM PM PM PM    PM PM PM PM PM PM PM PM            PM PM
  E  E  S  S  S  S  E  E  E  E     S  S  S  S  S  S  S  S   E   E  E  S  S
--------------------------------|-------------------------------------------|
--------------------------------|--------------------------10S--6--9--------|
--------------------------------|-------------------------------------------|
--------------------------------|---------------------------7S--3--6--------|
-----0--0--0--0--0--0--0--0--6--|--0--0--0--0--0--0--0--0-------------0--0--|
-----0--0--0--0--0--0--0--0--6--|--0--0--0--0--0--0--0--0-------------0--0--|


  PM PM PM PM PM                  PM PM PM PM PM PM PM PM            PM PM
  E  S  S  E  E   E   E  E  E     S  S  S  S  S  S  S  S   E   E  E  S  S
-------------------------------|-------------------------------------------|
-----------------10S--6--9-----|--------------------------10S--6--9--------|
-------------------------------|-------------------------------------------|
------------------7S--3--6--0--|---------------------------7S--3--6--------|
--0--0--0--0--0-------------0--|--0--0--0--0--0--0--0--0-------------0--0--|
--0--0--0--0--0----------------|--0--0--0--0--0--0--0--0-------------0--0--|


  PM PM PM PM PM PM  PM PM PM    PM PM PM PM PM PM PM PM            PM PM
  E  S  S  E  E  E   E  E  E     S  S  S  S  S  S  S  S   E   E  E  S  S
------------------------------|-------------------------------------------|
------------------------------|--------------------------10S--6--9--------|
------------------------------|-------------------------------------------|
------------------------------|---------------------------7S--3--6--------|
--0--0--0--0--0--5h--6--0--6--|--0--0--0--0--0--0--0--0-------------0--0--|
--0--0--0--0--0--5h--6--0--6--|--0--0--0--0--0--0--0--0-------------0--0--|


  PM PM PM PM PM                  PM PM PM PM PM    PM PM PM PM
  E  S  S  E  E   E   E  E  E     S  S  S  S  E  E  E  E  E  E
-------------------------------|--------------------------------|
-----------------10S--6--9-----|--------------------------------|
-------------------------------|--------------------------------|
------------------7S--3--6--0--|--------------------------------|
--0--0--0--0--0-------------0--|--0--0--0--0--0-----0--0--0--0--|
--0--0--0--0--0----------------|--0--0--0--0--0-----0--0--0--0--|


                                    Breakdown
     PM PM PM PM PM PM  PM PM PM    PM        PM PM                PM PM
  E  E  S  S  S  S  E   E  E  E     S         S  E  E  E  E  E  E  S  S
---------------------------------|---------------------------------------|
---------------------------------|---------------------------------------|
---------------------------------|---------------------------------------|
---------------------------------|---------------------------------------|
-----0--0--0--0--0--5h--6--0--6--|--0---------0--0--L--L--L--L--L--0--0--|
-----0--0--0--0--0--5h--6--0--6--|--0---------0--0--L--L--L--L--L--0--0--|


  PM PM PM PM                   PM PM PM                PM PM
  E  S  S  E  E  E  E  E  E     S  S  E  E  E  E  E  E  S  S
-----------------------------|--------------------------------|
-----------------------------|--------------------------------|
-----------------------------|--------------------------------|
-----------------------------|--------------------------------|
--0--0--0--0--L--L--L--L--L--|--0--0--0--L--L--L--L--L--0--0--|
--0--0--0--0--L--L--L--L--L--|--0--0--0--L--L--L--L--L--0--0--|


  PM PM PM PM                    PM PM PM                PM PM
  E  S  S  E  E  E  E   E  E     S  S  E  E  E  E  E  E  S  S
------------------------------|--------------------------------|
------------------------------|--------------------------------|
------------------------------|--------------------------------|
------------------------------|--------------------------------|
--0--0--0--0--L--5---------8--|--0--0--0--L--L--L--L--L--0--0--|
--0--0--0--0--L-----5h--6-----|--0--0--0--L--L--L--L--L--0--0--|


  PM PM PM PM                   PM PM PM                PM PM
  E  S  S  E  E  E  E  E  E     S  S  E  E  E  E  E  E  S  S
-----------------------------|--------------------------------|
-----------------------------|--------------------------------|
-----------------------------|--------------------------------|
-----------------------------|--------------------------------|
--0--0--0--0--L--L--L--L--L--|--0--0--0--L--L--L--L--L--0--0--|
--0--0--0--0--L--L--L--L--L--|--0--0--0--L--L--L--L--L--0--0--|


  PM PM PM PM                    PM PM PM PM PM PM PM PM PM PM
  E  S  S  E  E  E  E   E  E     S  S  E  E  E  E  E  E  S  S
------------------------------|--------------------------------|
------------------------------|--------------------------------|
------------------------------|--------------------------------|
------------------------------|--------------------------------|
--0--0--0--0--L--5---------8--|--0--0--0--0--0--0--0--0--0--0--|
--0--0--0--0--L-----5h--6-----|--0--0--0--0--0--0--0--0--0--0--|


  PM PM PM PM PM PM PM PM PM    PM PM PM PM PM PM PM PM PM PM
  E  S  S  E  E  E  E  E  E     S  S  E  E  E  E  E  E  S  S
-----------------------------|--------------------------------|
-----------------------------|--------------------------------|
-----------------------------|--------------------------------|
-----------------------------|--------------------------------|
--0--0--0--0--0--0--0--0--0--|--0--0--0--0--0--0--0--0--0--0--|
--0--0--0--0--0--0--0--0--0--|--0--0--0--0--0--0--0--0--0--0--|


  PM PM PM PM PM                 PM PM PM PM PM PM PM PM PM PM
  E  S  S  E  E  E  E   E  E     S  S  E  E  E  E  E  E  S  S
------------------------------|--------------------------------|
------------------------------|--------------------------------|
------------------------------|--------------------------------|
------------------------------|--------------------------------|
--0--0--0--0--0--5---------8--|--0--0--0--0--0--0--0--0--0--0--|
--0--0--0--0--0-----5h--6-----|--0--0--0--0--0--0--0--0--0--0--|


  PM PM PM PM PM PM PM PM PM    PM PM PM PM PM PM PM PM PM PM
  E  S  S  E  E  E  E  E  E     S  S  E  E  E  E  E  E  S  S
-----------------------------|--------------------------------|
-----------------------------|--------------------------------|
-----------------------------|--------------------------------|
-----------------------------|--------------------------------|
--0--0--0--0--0--0--0--0--0--|--0--0--0--0--0--0--0--0--0--0--|
--0--0--0--0--0--0--0--0--0--|--0--0--0--0--0--0--0--0--0--0--|


                                  Re-Entry
  PM PM PM PM PM                          PM PM PM PM         PM PM     PM PM
  E  S  S  E  E  E  E   E  E      E       S  S  S  S   E   E  S  S   E  S  S
------------------------------|-----------------------------------------------|
------------------------------|--10-------------------10--10--------10--------|
------------------------------|---x--------------------x---x---------x--------|
------------------------------|---6--------------------6---6---------6--------|
--0--0--0--0--0--5------------|-----------------------------------------------|
--0--0--0--0--0-----5h--6-----|-----------0--0--0--0----------0--0------0--0--|


  PM PM     PM PM PM PM     PM PM     PM
  S  S   E  S  S  S  S   E  S  S   E  E
-----------------------------------------|
--------10--------------10--------10-----|
---------x---------------x---------x-----|
---------6---------------6---------6-----|
-----------------------------------------|
--0--0------0--0--0--0------0--0------0--|


      PM PM PM PM         PM PM     PM PM
   E  S  S  S  S   E   E  S  S   E  S  S
------------------------------------------|
--10--------------10--10--------10--------|
---x---------------x---x---------x--------|
---6---------------6---6---------6--------|
------------------------------------------|
------0--0--0--0----------0--0------0--0--|


  PM PM     PM PM PM PM     PM PM     PM
  S  S   E  S  S  S  S   E  S  S   E  E
-----------------------------------------|
--------10--------------10--------10-----|
---------x---------------x---------x-----|
---------6---------------6---------6-----|
-----------------------------------------|
--0--0------0--0--0--0------0--0------0--|


      PM PM PM PM         PM PM     PM PM
   E  S  S  S  S   E   E  S  S   E  S  S
------------------------------------------|
--10--------------10--10--------10--------|
---x---------------x---x---------x--------|
---6---------------6---6---------6--------|
------------------------------------------|
------0--0--0--0----------0--0------0--0--|


  PM PM     PM PM PM PM     PM PM
  S  S   E  S  S  S  S   E  S  S   E   E
------------------------------------------|
--------10--------------10--------10--10--|
---------x---------------x---------x---x--|
---------6---------------6---------6---6--|
------------------------------------------|
--0--0------0--0--0--0------0--0----------|


      PM PM PM PM         PM PM     PM PM
   E  S  S  S  S   E   E  S  S   E  S  S
------------------------------------------|
--10--------------10--10--------10--------|
---x---------------x---x---------x--------|
---6---------------6---6---------6--------|
------------------------------------------|
------0--0--0--0----------0--0------0--0--|


                                             Pre-Chorus
  PM PM     PM PM PM PM     PM PM
  S  S   E  S  S  S  S   E  S  S   E   E     W
------------------------------------------|-------------------|
--------10--------------10--------10--10--|-------------------|
---------x---------------x---------x---x--|-------------------|
---------6---------------6---------6---6--|-------------------|
------------------------------------------|-------------------|
--0--0------0--0--0--0------0--0----------|-------------------|


  W                   W                   W                   W
-------------------|-------------------|-------------------|-------------------|
-------------------|-------------------|-------------------|-------------------|
-------------------|-------------------|-------------------|-------------------|
-------------------|-------------------|-------------------|-------------------|
-------------------|-------------------|-------------------|-------------------|
-------------------|-------------------|-------------------|-------------------|


  W                   W                   H        Q     Q
-------------------|-------------------|-----------------------|
-------------------|-------------------|-----------------------|
-------------------|-------------------|-----------------------|
-------------------|-------------------|-----------------------|
-------------------|-------------------|----------------12\----|
-------------------|-------------------|----------------12\----|


  Chorus
  PM     PM PM PM PM PM PM PM PM PM PM PM PM PM
  E      S  S  S  S  S  S  S  S  S  S  S  S  E
------------------------------------------------|
------------------------------------------------|
------------------------------------------------|
------------------------------------------------|
--0------0--0--0--0--0--0--0--0--0--0--0--0--0--|
--0------0--0--0--0--0--0--0--0--0--0--0--0--0--|


     PM PM PM PM PM PM PM PM PM PM PM PM
  E  S  S  S  S  S  S  S  S  S  S  E  E
-----------------------------------------|
-----------------------------------------|
-----------------------------------------|
-----------------------------------------|
-----0--0--0--0--0--0--0--0--0--0--0--0--|
-----0--0--0--0--0--0--0--0--0--0--0--0--|


     PM PM PM PM PM PM PM PM PM PM PM PM PM
  E  S  S  S  S  S  S  S  S  S  S  S  S  E
--------------------------------------------|
--------------------------------------------|
--------------------------------------------|
--------------------------------------------|
-----0--0--0--0--0--0--0--0--0--0--0--0--0--|
-----0--0--0--0--0--0--0--0--0--0--0--0--0--|


     PM PM PM PM PM PM PM PM PM PM PM PM
  E  S  S  S  S  S  S  S  S  S  S  E  E     E  E  E  E  E  E  E  E
-----------------------------------------|--------------------------|
-----------------------------------------|--------------------------|
-----------------------------------------|--------------------------|
-----------------------------------------|--8--8--8--8--8--8--8--8--|
-----0--0--0--0--0--0--0--0--0--0--0--0--|--8--8--8--8--8--8--8--8--|
-----0--0--0--0--0--0--0--0--0--0--0--0--|--8--8--8--8--8--8--8--8--|


  E  E  E  E  E  E  E  E     E  E  E  E  E  E  E  E
--------------------------|--------------------------|
--------------------------|--------------------------|
--------------------------|--------------------------|
--8--8--8--8--8--8--7--7--|--5--5--5--5--5--5--5--5--|
--8--8--8--8--8--8--7--7--|--5--5--5--5--5--5--5--5--|
--8--8--8--8--8--8--7--7--|--5--5--5--5--5--5--5--5--|


                             PM PM PM PM PM PM PM PM PM PM PM PM PM PM
  E  E  E  E  E  E  E  E     E  S  S  S  S  S  S  S  S  S  S  S  S  E
--------------------------|--------------------------------------------|
--------------------------|--------------------------------------------|
--------------------------|--------------------------------------------|
--5--5--5--5--5--5--5--5--|--------------------------------------------|
--5--5--5--5--5--5--5--5--|--0--0--0--0--0--0--0--0--0--0--0--0--0--0--|
--5--5--5--5--5--5--5--5--|--0--0--0--0--0--0--0--0--0--0--0--0--0--0--|


     PM PM PM PM PM PM PM PM PM PM PM PM
  E  S  S  S  S  S  S  S  S  S  S  E  E
-----------------------------------------|
-----------------------------------------|
-----------------------------------------|
-----------------------------------------|
-----0--0--0--0--0--0--0--0--0--0--0--0--|
-----0--0--0--0--0--0--0--0--0--0--0--0--|


     PM PM PM PM PM PM PM PM PM PM PM PM PM
  E  S  S  S  S  S  S  S  S  S  S  S  S  E
--------------------------------------------|
--------------------------------------------|
--------------------------------------------|
--------------------------------------------|
-----0--0--0--0--0--0--0--0--0--0--0--0--0--|
-----0--0--0--0--0--0--0--0--0--0--0--0--0--|


     PM PM PM PM PM PM PM PM PM PM PM PM
  E  S  S  S  S  S  S  S  S  S  S  E  E     E  E  E  E  E  E  E  E
-----------------------------------------|--------------------------|
-----------------------------------------|--------------------------|
-----------------------------------------|--------------------------|
-----------------------------------------|--8--8--8--8--8--8--8--8--|
-----0--0--0--0--0--0--0--0--0--0--0--0--|--8--8--8--8--8--8--8--8--|
-----0--0--0--0--0--0--0--0--0--0--0--0--|--8--8--8--8--8--8--8--8--|


  E  E  E  E  E  E  E  E     E  E  E  E  E  E  E  E
--------------------------|--------------------------|
--------------------------|--------------------------|
--------------------------|--------------------------|
--8--8--8--8--8--8--7--7--|--5--5--5--5--5--5--5--5--|
--8--8--8--8--8--8--7--7--|--5--5--5--5--5--5--5--5--|
--8--8--8--8--8--8--7--7--|--5--5--5--5--5--5--5--5--|


                             Solo 1
  E  E  E  E  E  E  E  E     H.            Q
--------------------------|-----------------------|
--------------------------|--6b------------6b~----|
--------------------------|-----------------------|
--5--5--5--5--5-----------|-----------------------|
--5--5--5--5--5-----------|-----------------------|
--5--5--5--5--5-----------|-----------------------|


            |---3--|   |---3---|
  H         E  E   E   E   E   E      Q    E   E    Q    Q
----------------------------------|---------------------------|
--L--------10--9------------------|---------------------------|
------------------12--10--12--12--|--10----L---Lb---L----7----|
----------------------------------|---------------------------|
----------------------------------|---------------------------|
----------------------------------|---------------------------|


                          PH               PH
  Q    H.                 H.               Q
---------------------|---------------------------|
---------------------|---------------------------|
--L------------------|--<>7~------------<>10~----|
---------------------|---------------------------|
-------3b------------|---------------------------|
---------------------|---------------------------|


        |---3---|   |---3---|    |----3---|                     |---3---|
  Q     E   E   E   E   E   E    E   E    E      H.             E   E   E
---------------10--12--10--------------------|--12b------------12--10--12~--|
-----------10--------------10h--15--10h--15--|------------------------------|
--L----12------------------------------------|------------------------------|
---------------------------------------------|------------------------------|
---------------------------------------------|------------------------------|
---------------------------------------------|------------------------------|


                        Verse 2
                        PM      PM PM PM PM PM PM PM           PM PM
  H        H            S       S  S  S  S  S  S  S  E   E  E  S  S
--L------------------|-----------------------------------------------|
---------------------|-----------------------------------------------|
---------------------|-----------------------------------------------|
---------------------|-----------------------------------------------|
---------------------|--0-------0--0--0--0--0--0--0------------0--0--|
-----------3\--------|--0-------0--0--0--0--0--0--0--7S--3--6--0--0--|


  PM PM PM PM PM PM PM PM
  S  S  S  S  S  S  S  S  E   E  E  E
---------------------------------------|
---------------------------------------|
---------------------------------------|
---------------------------------------|
--0--0--0--0--0--0--0--0------------0--|
--0--0--0--0--0--0--0--0--7S--3--6-----|


  PM PM PM PM PM PM PM PM           PM PM
  S  S  S  S  S  S  S  S  E   E  E  S  S
------------------------------------------|
------------------------------------------|
------------------------------------------|
------------------------------------------|
--0--0--0--0--0--0--0--0------------0--0--|
--0--0--0--0--0--0--0--0--7S--3--6--0--0--|


  PM PM PM PM PM PM PM PM
  S  S  S  S  S  S  S  S  E   E  E  E
---------------------------------------|
---------------------------------------|
---------------------------------------|
---------------------------------------|
--0--0--0--0--0--0--0--0--5h--6--0--6--|
--0--0--0--0--0--0--0--0--5h--6--0--6--|


  PM PM PM PM PM PM PM PM           PM PM
  S  S  S  S  S  S  S  S  E   E  E  S  S
------------------------------------------|
------------------------------------------|
------------------------------------------|
------------------------------------------|
--0--0--0--0--0--0--0--0------------0--0--|
--0--0--0--0--0--0--0--0--7S--3--6--0--0--|


  PM PM PM PM PM PM PM PM                 PM PM PM PM PM    PM PM PM PM
  S  S  S  S  S  S  S  S  E   E  E  E     S  S  S  S  E  E  E  E  E  E
---------------------------------------|--------------------------------|
---------------------------------------|--------------------------------|
---------------------------------------|--------------------------------|
---------------------------------------|--------------------------------|
--0--0--0--0--0--0--0--0------------0--|--0--0--0--0--0-----0--0--0--0--|
--0--0--0--0--0--0--0--0--7S--3--6-----|--0--0--0--0--0-----0--0--0--0--|


                                    Solo 2
     PM PM PM PM PM
                                    |----3----|  |--3--|  |--3--|  |--3--|
  E  E  S  S  S  S  E   E  E  E     E      E  E  E  E  E  E  E  E  E  E  E
---------------------------------|------------------------------------------|
---------------------------------|------------------------------------------|
---------------------------------|--7---------------------9--7-----------7--|
---------------------------------|---------8--5--8--5--7--------8--7--8-----|
-----0--0--0--0--0--5h--6--0--6--|------------------------------------------|
-----0--0--0--0--0--5h--6--0--6--|------------------------------------------|


   |---3--|   |---3---|   |---3---|
   E   E  E   E   E   E   E   E   E   Q        H.             Q
-------------10----------13----------12----|--17b------------17~----|
--10-------------11--10------11--10--------|------------------------|
------10--9--------------------------------|------------------------|
-------------------------------------------|------------------------|
-------------------------------------------|------------------------|
-------------------------------------------|------------------------|


  H         E   E   E   E      H.             S  E.
--L------------15--17------|--17b---------------------|
-----------15----------15--|-----------------15-------|
---------------------------|--------------------15~---|
---------------------------|--------------------------|
---------------------------|--------------------------|
---------------------------|--------------------------|


  H         T   T   S  E   E   E      Q     E   Q.       E   E
----------------------------------|-----------------------------|
-----------17h-18p-17-15--17--15--|-----------------------------|
--L-------------------------------|--14----15--12b------10--12--|
----------------------------------|-----------------------------|
----------------------------------|-----------------------------|
----------------------------------|-----------------------------|


                               Chorus
                               PM     PM PM PM PM PM PM PM PM PM PM PM PM PM
   E  E   E   H          E     E      S  S  S  S  S  S  S  S  S  S  S  S  E
----------------------------|------------------------------------------------|
-------------10b~-----------|------------------------------------------------|
--10--9--10-----------------|------------------------------------------------|
----------------------------|------------------------------------------------|
----------------------------|--0------0--0--0--0--0--0--0--0--0--0--0--0--0--|
----------------------------|--0------0--0--0--0--0--0--0--0--0--0--0--0--0--|


     PM PM PM PM PM PM PM PM PM PM PM PM
  E  S  S  S  S  S  S  S  S  S  S  E  E
-----------------------------------------|
-----------------------------------------|
-----------------------------------------|
-----------------------------------------|
-----0--0--0--0--0--0--0--0--0--0--0--0--|
-----0--0--0--0--0--0--0--0--0--0--0--0--|


     PM PM PM PM PM PM PM PM PM PM PM PM PM
  E  S  S  S  S  S  S  S  S  S  S  S  S  E
--------------------------------------------|
--------------------------------------------|
--------------------------------------------|
--------------------------------------------|
-----0--0--0--0--0--0--0--0--0--0--0--0--0--|
-----0--0--0--0--0--0--0--0--0--0--0--0--0--|


     PM PM PM PM PM PM PM PM PM PM PM PM
  E  S  S  S  S  S  S  S  S  S  S  E  E     E  E  E  E  E  E  E  E
-----------------------------------------|--------------------------|
-----------------------------------------|--------------------------|
-----------------------------------------|--------------------------|
-----------------------------------------|--8--8--8--8--8--8--8--8--|
-----0--0--0--0--0--0--0--0--0--0--0--0--|--8--8--8--8--8--8--8--8--|
-----0--0--0--0--0--0--0--0--0--0--0--0--|--8--8--8--8--8--8--8--8--|


  E  E  E  E  E  E  E  E     E  E  E  E  E  E  E  E
--------------------------|--------------------------|
--------------------------|--------------------------|
--------------------------|--------------------------|
--8--8--8--8--8--8--7--7--|--5--5--5--5--5--5--5--5--|
--8--8--8--8--8--8--7--7--|--5--5--5--5--5--5--5--5--|
--8--8--8--8--8--8--7--7--|--5--5--5--5--5--5--5--5--|


                             PM PM PM PM PM PM PM PM PM PM PM PM PM PM
  E  E  E  E  E  E  E  E     E  S  S  S  S  S  S  S  S  S  S  S  S  E
--------------------------|--------------------------------------------|
--------------------------|--------------------------------------------|
--------------------------|--------------------------------------------|
--5--5--5--5--5--5--5--5--|--------------------------------------------|
--5--5--5--5--5--5--5--5--|--0--0--0--0--0--0--0--0--0--0--0--0--0--0--|
--5--5--5--5--5--5--5--5--|--0--0--0--0--0--0--0--0--0--0--0--0--0--0--|


     PM PM PM PM PM PM PM PM PM PM PM PM
  E  S  S  S  S  S  S  S  S  S  S  E  E
-----------------------------------------|
-----------------------------------------|
-----------------------------------------|
-----------------------------------------|
-----0--0--0--0--0--0--0--0--0--0--0--0--|
-----0--0--0--0--0--0--0--0--0--0--0--0--|


     PM PM PM PM PM PM PM PM PM PM PM PM PM
  E  S  S  S  S  S  S  S  S  S  S  S  S  E
--------------------------------------------|
--------------------------------------------|
--------------------------------------------|
--------------------------------------------|
-----0--0--0--0--0--0--0--0--0--0--0--0--0--|
-----0--0--0--0--0--0--0--0--0--0--0--0--0--|


     PM PM PM PM PM PM PM PM PM PM PM PM
  E  S  S  S  S  S  S  S  S  S  S  E  E     E  E  E  E  E  E  E  E
-----------------------------------------|--------------------------|
-----------------------------------------|--------------------------|
-----------------------------------------|--------------------------|
-----------------------------------------|--8--8--8--8--8--8--8--8--|
-----0--0--0--0--0--0--0--0--0--0--0--0--|--8--8--8--8--8--8--8--8--|
-----0--0--0--0--0--0--0--0--0--0--0--0--|--8--8--8--8--8--8--8--8--|


  E  E  E  E  E  E  E  E     E  E  E  E  E  E  E  E
--------------------------|--------------------------|
--------------------------|--------------------------|
--------------------------|--------------------------|
--8--8--8--8--8--8--7--7--|--5--5--5--5--5--5--5--5--|
--8--8--8--8--8--8--7--7--|--5--5--5--5--5--5--5--5--|
--8--8--8--8--8--8--7--7--|--5--5--5--5--5--5--5--5--|


                              Final Chorus
  E  E  E  E  E  E  E  E      E            E   E   E   E   E   E   E
--------------------------|-------------------------------------------|
--------------------------|-------------------------------------------|
--------------------------|-------------------------------------------|
--5--5--5--5--5--5--5--5--|--12-----------12--12--12--12--12--12--12--|
--5--5--5--5--5--5--5--5--|---0------------0---0---0---0---0---0---0--|
--5--5--5--5--5--5--5--5--|---0------------0---0---0---0---0---0---0--|


   E   E   E   E   E   E   E   E      E   E   E   E   E   E   E   E
----------------------------------|----------------------------------|
----------------------------------|----------------------------------|
----------------------------------|----------------------------------|
--12--12--12--12--12--12--12--12--|--12--12--12--12--12--12--12--12--|
---0---0---0---0---0---0---0---0--|---0---0---0---0---0---0---0---0--|
---0---0---0---0---0---0---0---0--|---0---0---0---0---0---0---0---0--|


   E   E   E   E   E   E   E   E      E   E   E   E   E   E   E   E
----------------------------------|----------------------------------|
----------------------------------|----------------------------------|
----------------------------------|----------------------------------|
--12--12--12--12--12--12--12--12--|--12--12--12--12--12--12--12--12--|
---0---0---0---0---0---0---0---0--|---x---x---x---x---x---x---x---x--|
---0---0---0---0---0---0---0---0--|---8---8---8---8---8---8---8---8--|


   E   E   E   E   E   E   E   E     E  E  E  E  E  E  E  E
----------------------------------|--------------------------|
----------------------------------|--------------------------|
----------------------------------|--------------------------|
--12--12--12--12--12--12--12--12--|--8--8--8--8--8--8--8--8--|
---x---x---x---x---x---x---x---x--|--x--x--x--x--x--x--x--x--|
---8---8---8---8---8---8---7---7--|--5--5--5--5--5--5--5--5--|


  E  E  E  E  E  E  E  E      E   E   E   E   E   E   E   E
--------------------------|----------------------------------|
--------------------------|----------------------------------|
--------------------------|----------------------------------|
--8--8--8--8--8--8--8--8--|--12--12--12--12--12--12--12--12--|
--x--x--x--x--x--x--x--x--|---0---0---0---0---0---0---0---0--|
--5--5--5--5--5--5--5--5--|---0---0---0---0---0---0---0---0--|


   E   E   E   E   E   E   E   E      E   E   E   E   E   E   E   E
----------------------------------|----------------------------------|
----------------------------------|----------------------------------|
----------------------------------|----------------------------------|
--12--12--12--12--12--12--12--12--|--12--12--12--12--12--12--12--12--|
---0---0---0---0---0---0---0---0--|---0---0---0---0---0---0---0---0--|
---0---0---0---0---0---0---0---0--|---0---0---0---0---0---0---0---0--|


   E   E   E   E   E   E   E   E      E   E   E   E   E   E   E   E
----------------------------------|----------------------------------|
----------------------------------|----------------------------------|
----------------------------------|----------------------------------|
--12--12--12--12--12--12--12--12--|--12--12--12--12--12--12--12--12--|
---0---0---0---0---0---0---0---0--|---x---x---x---x---x---x---x---x--|
---0---0---0---0---0---0---0---0--|---8---8---8---8---8---8---8---8--|


   E   E   E   E   E   E   E   E     E  E  E  E  E  E  E  E
----------------------------------|--------------------------|
----------------------------------|--------------------------|
----------------------------------|--------------------------|
--12--12--12--12--12--12--12--12--|--8--8--8--8--8--8--8--8--|
---x---x---x---x---x---x---x---x--|--x--x--x--x--x--x--x--x--|
---8---8---8---8---8---8---7---7--|--5--5--5--5--5--5--5--5--|


                              Outro
  E  E  E  E  E  E  E  E      E     E   E   E   E   E   E   E
--------------------------|------------------------------------|
--------------------------|------------------------------------|
--------------------------|------------------------------------|
--8--8--8--8--8--8--8--8--|--12----12--12--12--12--12--12--12--|
--x--x--x--x--x--x--x--x--|---0-----0---0---0---0---0---0---0--|
--5--5--5--5--5--5--5--5--|---0-----0---0---0---0---0---0---0--|


   E   E   E   E   E   E   E   E      E   E   E   E   E   E   E   E
----------------------------------|----------------------------------|
----------------------------------|----------------------------------|
----------------------------------|----------------------------------|
--12--12--12--12--12--12--12--12--|--12--12--12--12--12--12--12--12--|
---0---0---0---0---0---0---0---0--|---0---0---0---0---0---0---0---0--|
---0---0---0---0---0---0---0---0--|---0---0---0---0---0---0---0---0--|


   E   E   E   E   E   E   E   E      E   E   E   E   E   E   E   E
----------------------------------|----------------------------------|
----------------------------------|----------------------------------|
----------------------------------|----------------------------------|
--12--12--12--12--12--12--12--12--|--12--12--12--12--12--12--12--12--|
---0---0---0---0---0---0---0---0--|---x---x---x---x---x---x---x---x--|
---0---0---0---0---0---0---0---0--|---8---8---8---8---8---8---8---8--|


   E   E   E   E   E   E   E   E     E  E  E  E  E  E  E  E
----------------------------------|--------------------------|
----------------------------------|--------------------------|
----------------------------------|--------------------------|
--12--12--12--12--12--12--12--12--|--8--8--8--8--8--8--8--8--|
---x---x---x---x---x---x---x---x--|--x--x--x--x--x--x--x--x--|
---8---8---8---8---8---8---7---7--|--5--5--5--5--5--5--5--5--|


  E  E  E  E  E  E  E  E      E   E   E   E   E   E   E   E
--------------------------|----------------------------------|
--------------------------|----------------------------------|
--------------------------|----------------------------------|
--8--8--8--8--8--8--8--8--|--12--12--12--12--12--12--12--12--|
--x--x--x--x--x--x--x--x--|---0---0---0---0---0---0---0---0--|
--5--5--5--5--5--5--5--5--|---0---0---0---0---0---0---0---0--|


   E   E   E   E   E   E   E   E      E   E   E   E   E   E   E   E
----------------------------------|----------------------------------|
----------------------------------|----------------------------------|
----------------------------------|----------------------------------|
--12--12--12--12--12--12--12--12--|--12--12--12--12--12--12--12--12--|
---0---0---0---0---0---0---0---0--|---0---0---0---0---0---0---0---0--|
---0---0---0---0---0---0---0---0--|---0---0---0---0---0---0---0---0--|


   E   E   E   E   E   E   E   E      E   E   E   E   E   E   E   E
----------------------------------|----------------------------------|
----------------------------------|----------------------------------|
----------------------------------|----------------------------------|
--12--12--12--12--12--12--12--12--|--12--12--12--12--12--12--12--12--|
---0---0---0---0---0---0---0---0--|---x---x---x---x---x---x---x---x--|
---0---0---0---0---0---0---0---0--|---8---8---8---8---8---8---8---8--|


   E   E   E   E   E   E   E   E     E  E  E  E  E  E  E  E
----------------------------------|--------------------------|
----------------------------------|--------------------------|
----------------------------------|--------------------------|
--12--12--12--12--12--12--12--12--|--8--8--8--8--8--8--8--8--|
---x---x---x---x---x---x---x---x--|--x--x--x--x--x--x--x--x--|
---8---8---8---8---8---8---7---7--|--5--5--5--5--5--5--5--5--|


  E  E  E  E  E  E  E  E      E   E   E   E   E   E   E   E
--------------------------|----------------------------------|
--------------------------|----------------------------------|
--------------------------|----------------------------------|
--8--8--8--8--8--8--8--8--|--12--12--12--12--12--12--12--12--|
--x--x--x--x--x--x--x--x--|---0---0---0---0---0---0---0---0--|
--5--5--5--5--5--5--5--5--|---0---0---0---0---0---0---0---0--|


   E   E   E   E   E   E   E   E      E   E   E   E   E   E   E   E
----------------------------------|----------------------------------|
----------------------------------|----------------------------------|
----------------------------------|----------------------------------|
--12--12--12--12--12--12--12--12--|--12--12--12--12--12--12--12--12--|
---0---0---0---0---0---0---0---0--|---0---0---0---0---0---0---0---0--|
---0---0---0---0---0---0---0---0--|---0---0---0---0---0---0---0---0--|


   E   E   E   E   E   E   E   E      E   E   E   E   E   E   E   E
----------------------------------|----------------------------------|
----------------------------------|----------------------------------|
----------------------------------|----------------------------------|
--12--12--12--12--12--12--12--12--|--12--12--12--12--12--12--12--12--|
---0---0---0---0---0---0---0---0--|---x---x---x---x---x---x---x---x--|
---0---0---0---0---0---0---0---0--|---8---8---8---8---8---8---8---8--|


   E   E   E   E   E   E   E   E     E  E  E  E  E  E  E  E
----------------------------------|--------------------------|
----------------------------------|--------------------------|
----------------------------------|--------------------------|
--12--12--12--12--12--12--12--12--|--8--8--8--8--8--8--8--8--|
---x---x---x---x---x---x---x---x--|--x--x--x--x--x--x--x--x--|
---8---8---8---8---8---8---7---7--|--5--5--5--5--5--5--5--5--|


  E  E  E  E  E  E  E  E      E   E   E   E   E   E   E   E
--------------------------|----------------------------------|
--------------------------|----------------------------------|
--------------------------|----------------------------------|
--8--8--8--8--8--8--8--8--|--12--12--12--12--12--12--12--12--|
--x--x--x--x--x--x--x--x--|---0---0---0---0---0---0---0---0--|
--5--5--5--5--5--5--5--5--|---0---0---0---0---0---0---0---0--|


   E   E   E   E   E   E   E   E      E   E   E   E   E   E   E   E
----------------------------------|----------------------------------|
----------------------------------|----------------------------------|
----------------------------------|----------------------------------|
--12--12--12--12--12--12--12--12--|--12--12--12--12--12--12--12--12--|
---0---0---0---0---0---0---0---0--|---0---0---0---0---0---0---0---0--|
---0---0---0---0---0---0---0---0--|---0---0---0---0---0---0---0---0--|


   E   E   E   E   E   E   E   E      E   E   E   E   E   E   E   E
----------------------------------|----------------------------------|
----------------------------------|----------------------------------|
----------------------------------|----------------------------------|
--12--12--12--12--12--12--12--12--|--12--12--12--12--12--12--12--12--|
---0---0---0---0---0---0---0---0--|---x---x---x---x---x---x---x---x--|
---0---0---0---0---0---0---0---0--|---8---8---8---8---8---8---8---8--|


   E   E   E   E   E   E   E   E     E  E  E  E  E  E  E  E
----------------------------------|--------------------------|
----------------------------------|--------------------------|
----------------------------------|--------------------------|
--12--12--12--12--12--12--12--12--|--8--8--8--8--8--8--8--8--|
---x---x---x---x---x---x---x---x--|--x--x--x--x--x--x--x--x--|
---8---8---8---8---8---8---7---7--|--5--5--5--5--5--5--5--5--|


  E  E  E  E  E  E  E  E     W                   W
--------------------------|-------------------|-------------------|
--------------------------|-------------------|-------------------|
--------------------------|-------------------|-------------------|
--8--8--8--8--8--8--8--8--|--0----------------|--L----------------|
--x--x--x--x--x--x--x--x--|--0----------------|--L----------------|
--5--5--5--5--5--5--5--5--|--0----------------|--L----------------|


  W                   W
-------------------|-------------------||
-------------------|-------------------||
-------------------|-------------------||
--L----------------|--L----------------||
--L----------------|--L----------------||
--L----------------|--L----------------||


____________________________________________________________________
********************************************************************
____________________________________________________________________




Nick Hipa

      W                   W                   W
D#||-------------------|-------------------|-------------------|
A#||-------------------|-------------------|-------------------|
F#||-------------------|-------------------|-------------------|
C#||-------------------|-------------------|-------------------|
G#||-------------------|-------------------|-------------------|
C#||-------------------|-------------------|-------------------|


                       Intro
                            PM PM PM PM         PM PM     PM PM
  W                    E    S  S  S  S   E   E  S  S   E  S  S
-------------------|--------------------------------------------|
-------------------|--10----------------10--10--------10--------|
-------------------|---x-----------------x---x---------x--------|
-------------------|---6-----------------6---6---------6--------|
-------------------|--------------------------------------------|
-------------------|--------0--0--0--0----------0--0------0--0--|


  PM PM     PM PM PM PM     PM PM
  S  S   E  S  S  S  S   E  S  S   E   E
------------------------------------------|
--------10--------------10--------10--10--|
---------x---------------x---------x---x--|
---------6---------------6---------6---6--|
------------------------------------------|
--0--0------0--0--0--0------0--0----------|


      PM PM PM PM         PM PM     PM PM
   E  S  S  S  S   E   E  S  S   E  S  S
------------------------------------------|
--10--------------10--10--------10--------|
---x---------------x---x---------x--------|
---6---------------6---6---------6--------|
------------------------------------------|
------0--0--0--0----------0--0------0--0--|


  PM PM     PM PM PM PM     PM PM
  S  S   E  S  S  S  S   E  S  S   E   E
------------------------------------------|
--------10--------------10--------10--10--|
---------x---------------x---------x---x--|
---------6---------------6---------6---6--|
------------------------------------------|
--0--0------0--0--0--0------0--0----------|


      PM PM PM PM         PM PM     PM PM
   E  S  S  S  S   E   E  S  S   E  S  S
------------------------------------------|
--10--------------10--10--------10--------|
---x---------------x---x---------x--------|
---6---------------6---6---------6--------|
------------------------------------------|
------0--0--0--0----------0--0------0--0--|


  PM PM     PM PM PM PM     PM PM
  S  S   E  S  S  S  S   E  S  S   E   E
------------------------------------------|
--------10--------------10--------10--10--|
---------x---------------x---------x---x--|
---------6---------------6---------6---6--|
------------------------------------------|
--0--0------0--0--0--0------0--0----------|


      PM PM PM PM         PM PM     PM PM
   E  S  S  S  S   E   E  S  S   E  S  S
------------------------------------------|
--10--------------10--10--------10--------|
---x---------------x---x---------x--------|
---6---------------6---6---------6--------|
------------------------------------------|
------0--0--0--0----------0--0------0--0--|


  PM PM     PM PM PM PM     PM PM
  S  S   E  S  S  S  S   E  S  S   E   E     W
------------------------------------------|-------------------|
--------10--------------10--------10--10--|-------------------|
---------x---------------x---------x---x--|-------------------|
---------6---------------6---------6---6--|--0----------------|
------------------------------------------|--0----------------|
--0--0------0--0--0--0------0--0----------|--0----------------|


  W                   W                   H        Q     Q
-------------------|-------------------|-----------------------|
-------------------|-------------------|-----------------------|
-------------------|-------------------|-----------------------|
--L----------------|--L----------------|--L--------------------|
--L----------------|--L----------------|--L-------------12\----|
--L----------------|--L----------------|--L--------0-----------|


  Verse 1
  PM      PM PM PM PM PM PM PM            PM PM
  S       S  S  S  S  S  S  S   E   E  E  S  S
------------------------------------------------|
-------------------------------10S--6--9--------|
------------------------------------------------|
--------------------------------7S--3--6--------|
--0-------0--0--0--0--0--0--0-------------0--0--|
--0-------0--0--0--0--0--0--0-------------0--0--|


  PM PM PM PM PM                  PM PM PM PM PM PM PM PM            PM PM
  E  S  S  E  E   E   E  E  E     S  S  S  S  S  S  S  S   E   E  E  S  S
-------------------------------|-------------------------------------------|
-----------------10S--6--9-----|--------------------------10S--6--9--------|
-------------------------------|-------------------------------------------|
------------------7S--3--6--0--|---------------------------7S--3--6--------|
--0--0--0--0--0-------------0--|--0--0--0--0--0--0--0--0-------------0--0--|
--0--0--0--0--0----------------|--0--0--0--0--0--0--0--0-------------0--0--|


  PM PM PM PM PM PM  PM PM PM    PM PM PM PM PM PM PM PM            PM PM
  E  S  S  E  E  E   E  E  E     S  S  S  S  S  S  S  S   E   E  E  S  S
------------------------------|-------------------------------------------|
------------------------------|--------------------------10S--6--9--------|
------------------------------|-------------------------------------------|
------------------------------|---------------------------7S--3--6--------|
--0--0--0--0--0--5---6--0--6--|--0--0--0--0--0--0--0--0-------------0--0--|
--0--0--0--0--0--5h--6--0--6--|--0--0--0--0--0--0--0--0-------------0--0--|


  PM PM PM PM PM                  PM PM    PM PM    PM PM PM PM PM PM PM
  E  S  S  E  E   E   E  E  E     S  S  E  S  S  E  S  S  S  S  S  S  E
-------------------------------|-----------------------------------------|
-----------------10S--6--9-----|-----------------------------------------|
-------------------------------|-----------------------------------------|
------------------7S--3--6--0--|-----------------------------------------|
--0--0--0--0--0-------------0--|--0--0-----0--0-----0--0--0--0--0--0--0--|
--0--0--0--0--0----------------|--0--0-----0--0-----0--0--0--0--0--0--0--|


     PM PM PM PM PM PM PM PM PM    PM PM PM PM PM PM PM PM            PM PM
  E  E  S  S  S  S  E  E  E  E     S  S  S  S  S  S  S  S   E   E  E  S  S
--------------------------------|-------------------------------------------|
--------------------------------|--------------------------10S--6--9--------|
--------------------------------|-------------------------------------------|
--------------------------------|---------------------------7S--3--6--------|
-----0--0--0--0--0--0--0--0--6--|--0--0--0--0--0--0--0--0-------------0--0--|
-----0--0--0--0--0--0--0--0--6--|--0--0--0--0--0--0--0--0-------------0--0--|


  PM PM PM PM PM                  PM PM PM PM PM PM PM PM            PM PM
  E  S  S  E  E   E   E  E  E     S  S  S  S  S  S  S  S   E   E  E  S  S
-------------------------------|-------------------------------------------|
-----------------10S--6--9-----|--------------------------10S--6--9--------|
-------------------------------|-------------------------------------------|
------------------7S--3--6--0--|---------------------------7S--3--6--------|
--0--0--0--0--0-------------0--|--0--0--0--0--0--0--0--0-------------0--0--|
--0--0--0--0--0----------------|--0--0--0--0--0--0--0--0-------------0--0--|


  PM PM PM PM PM PM  PM PM PM    PM PM PM PM PM PM PM PM            PM PM
  E  S  S  E  E  E   E  E  E     S  S  S  S  S  S  S  S   E   E  E  S  S
------------------------------|-------------------------------------------|
------------------------------|--------------------------10S--6--9--------|
------------------------------|-------------------------------------------|
------------------------------|---------------------------7S--3--6--------|
--0--0--0--0--0--5h--6--0--6--|--0--0--0--0--0--0--0--0-------------0--0--|
--0--0--0--0--0--5h--6--0--6--|--0--0--0--0--0--0--0--0-------------0--0--|


  PM PM PM PM PM                  PM PM PM PM PM    PM PM PM PM
  E  S  S  E  E   E   E  E  E     S  S  S  S  E  E  E  E  E  E
-------------------------------|--------------------------------|
-----------------10S--6--9-----|--------------------------------|
-------------------------------|--------------------------------|
------------------7S--3--6--0--|--------------------------------|
--0--0--0--0--0-------------0--|--0--0--0--0--0-----0--0--0--0--|
--0--0--0--0--0----------------|--0--0--0--0--0-----0--0--0--0--|


                                    Breakdown
     PM PM PM PM PM PM  PM PM PM    PM        PM PM                PM PM
  E  E  S  S  S  S  E   E  E  E     S         S  E  E  E  E  E  E  S  S
---------------------------------|---------------------------------------|
---------------------------------|---------------------------------------|
---------------------------------|---------------------------------------|
---------------------------------|---------------------------------------|
-----0--0--0--0--0--5h--6--0--6--|--0---------0--0--L--L--L--L--L--0--0--|
-----0--0--0--0--0--5h--6--0--6--|--0---------0--0--L--L--L--L--L--0--0--|


  PM PM PM PM                   PM PM PM                PM PM
  E  S  S  E  E  E  E  E  E     S  S  E  E  E  E  E  E  S  S
-----------------------------|--------------------------------|
-----------------------------|--------------------------------|
-----------------------------|--------------------------------|
-----------------------------|--------------------------------|
--0--0--0--0--L--L--L--L--L--|--0--0--0--L--L--L--L--L--0--0--|
--0--0--0--0--L--L--L--L--L--|--0--0--0--L--L--L--L--L--0--0--|


  PM PM PM PM                    PM PM PM                PM PM
  E  S  S  E  E  E  E   E  E     S  S  E  E  E  E  E  E  S  S
------------------------------|--------------------------------|
------------------------------|--------------------------------|
------------------------------|--------------------------------|
------------------------------|--------------------------------|
--0--0--0--0--L--5---------8--|--0--0--0--L--L--L--L--L--0--0--|
--0--0--0--0--L-----5h--6-----|--0--0--0--L--L--L--L--L--0--0--|


  PM PM PM PM                   PM PM PM                PM PM
  E  S  S  E  E  E  E  E  E     S  S  E  E  E  E  E  E  S  S
-----------------------------|--------------------------------|
-----------------------------|--------------------------------|
-----------------------------|--------------------------------|
-----------------------------|--------------------------------|
--0--0--0--0--L--L--L--L--L--|--0--0--0--L--L--L--L--L--0--0--|
--0--0--0--0--L--L--L--L--L--|--0--0--0--L--L--L--L--L--0--0--|


  PM PM PM PM                    PM PM PM             PM PM PM
  E  S  S  E  E  E  E   E  E     S  S  E  Q     E  E  E  S  S
------------------------------|--------------------------------|
------------------------------|--------------------------------|
------------------------------|--------------------------------|
------------------------------|-----------6\----0--3-----------|
--0--0--0--0--L--5---------8--|--0--0--0--------------0--0--0--|
--0--0--0--0--L-----5h--6-----|--0--0--0--------------0--0--0--|


     PM PM PM    PM PM          PM PM PM                PM PM
  E  S  S  E  E  E  E  E  E     S  S  E  E  E  E  E  E  S  S
-----------------------------|--------------------------------|
-----------------------------|--------------------------------|
-----------------------------|--------------------------------|
--0-----------0--------0--3--|-----------0--0--0--------------|
-----0--0--0-----0--0--------|--0--0--0-----------1--0--0--0--|
-----0--0--0-----0--0--------|--0--0--0-----------------0--0--|


  PM PM PM PM PM                 PM PM PM             PM PM PM
  E  S  S  E  E  E  E   E  E     S  S  E  Q     E  E  E  S  S
------------------------------|--------------------------------|
------------------------------|--------------------------------|
------------------------------|--------------------------------|
------------------------------|-----------6\----0--3-----------|
--0--0--0--0--0--5---------8--|--0--0--0--------------0--0--0--|
--0--0--0--0--0-----5h--6-----|--0--0--0--------------0--0--0--|


     PM PM PM    PM PM          PM PM PM                PM PM
  E  S  S  E  E  E  E  E  E     S  S  E  E  E  E  E  E  S  S
-----------------------------|--------------------------------|
-----------------------------|--------------------------------|
-----------------------------|--------------------------------|
--0-----------0--------0--3--|-----------0--0--0--------------|
-----0--0--0-----0--0--------|--0--0--0-----------1--0--0--0--|
-----0--0--0-----0--0--------|--0--0--0-----------------0--0--|


                                  Re-Entry
  PM PM PM PM PM                          PM PM PM PM         PM PM     PM PM
  E  S  S  E  E  E  E   E  E      E       S  S  S  S   E   E  S  S   E  S  S
------------------------------|-----------------------------------------------|
------------------------------|--10-------------------10--10--------10--------|
------------------------------|---x--------------------x---x---------x--------|
------------------------------|---6--------------------6---6---------6--------|
--0--0--0--0--0--5------------|-----------------------------------------------|
--0--0--0--0--0-----5h--6-----|-----------0--0--0--0----------0--0------0--0--|


  PM PM     PM PM PM PM     PM PM     PM
  S  S   E  S  S  S  S   E  S  S   E  E
-----------------------------------------|
--------10--------------10--------10-----|
---------x---------------x---------x-----|
---------6---------------6---------6-----|
-----------------------------------------|
--0--0------0--0--0--0------0--0------0--|


      PM PM PM PM         PM PM     PM PM
   E  S  S  S  S   E   E  S  S   E  S  S
------------------------------------------|
--10--------------10--10--------10--------|
---x---------------x---x---------x--------|
---6---------------6---6---------6--------|
------------------------------------------|
------0--0--0--0----------0--0------0--0--|


  PM PM     PM PM PM PM     PM PM     PM
  S  S   E  S  S  S  S   E  S  S   E  E
-----------------------------------------|
--------10--------------10--------10-----|
---------x---------------x---------x-----|
---------6---------------6---------6-----|
-----------------------------------------|
--0--0------0--0--0--0------0--0------0--|


      PM PM PM PM         PM PM     PM PM
   E  S  S  S  S   E   E  S  S   E  S  S
------------------------------------------|
--10--------------10--10--------10--------|
---x---------------x---x---------x--------|
---6---------------6---6---------6--------|
------------------------------------------|
------0--0--0--0----------0--0------0--0--|


  PM PM     PM PM PM PM     PM PM
  S  S   E  S  S  S  S   E  S  S   E   E
------------------------------------------|
--------10--------------10--------10--10--|
---------x---------------x---------x---x--|
---------6---------------6---------6---6--|
------------------------------------------|
--0--0------0--0--0--0------0--0----------|


      PM PM PM PM         PM PM     PM PM
   E  S  S  S  S   E   E  S  S   E  S  S
------------------------------------------|
--10--------------10--10--------10--------|
---x---------------x---x---------x--------|
---6---------------6---6---------6--------|
------------------------------------------|
------0--0--0--0----------0--0------0--0--|


                                             Pre-Chorus
  PM PM     PM PM PM PM     PM PM
  S  S   E  S  S  S  S   E  S  S   E   E     W
------------------------------------------|-------------------|
--------10--------------10--------10--10--|-------------------|
---------x---------------x---------x---x--|-------------------|
---------6---------------6---------6---6--|-------------------|
------------------------------------------|-------------------|
--0--0------0--0--0--0------0--0----------|-------------------|


  W                   W                   W                   W
-------------------|-------------------|-------------------|-------------------|
-------------------|-------------------|-------------------|-------------------|
-------------------|-------------------|-------------------|-------------------|
-------------------|-------------------|-------------------|-------------------|
-------------------|-------------------|-------------------|-------------------|
-------------------|-------------------|-------------------|-------------------|


  W                   W                   W
-------------------|-------------------|-------------------|
-------------------|-------------------|-------------------|
-------------------|-------------------|-------------------|
-------------------|-------------------|-------------------|
-------------------|-------------------|-------------------|
-------------------|-------------------|-------------------|


  Chorus
  PM     PM PM PM PM PM PM PM PM PM PM PM PM PM
  E      S  S  S  S  S  S  S  S  S  S  S  S  E
------------------------------------------------|
------------------------------------------------|
------------------------------------------------|
------------------------------------------------|
--0------0--0--0--0--0--0--0--0--0--0--0--0--0--|
--0------0--0--0--0--0--0--0--0--0--0--0--0--0--|


     PM PM PM PM PM PM PM PM PM PM PM PM
  E  S  S  S  S  S  S  S  S  S  S  E  E
-----------------------------------------|
-----------------------------------------|
-----------------------------------------|
-----------------------------------------|
-----0--0--0--0--0--0--0--0--0--0--0--0--|
-----0--0--0--0--0--0--0--0--0--0--0--0--|


     PM PM PM PM PM PM PM PM PM PM PM PM PM
  E  S  S  S  S  S  S  S  S  S  S  S  S  E
--------------------------------------------|
--------------------------------------------|
--------------------------------------------|
--------------------------------------------|
-----0--0--0--0--0--0--0--0--0--0--0--0--0--|
-----0--0--0--0--0--0--0--0--0--0--0--0--0--|


     PM PM PM PM PM PM PM PM PM PM PM PM
  E  S  S  S  S  S  S  S  S  S  S  E  E     E  E  E  E  E  E  E  E
-----------------------------------------|--------------------------|
-----------------------------------------|--------------------------|
-----------------------------------------|--------------------------|
-----------------------------------------|--8--8--8--8--8--8--8--8--|
-----0--0--0--0--0--0--0--0--0--0--0--0--|--8--8--8--8--8--8--8--8--|
-----0--0--0--0--0--0--0--0--0--0--0--0--|--8--8--8--8--8--8--8--8--|


  E  E  E  E  E  E  E  E     E  E  E  E  E  E  E  E
--------------------------|--------------------------|
--------------------------|--------------------------|
--------------------------|--------------------------|
--8--8--8--8--8--8--7--7--|--5--5--5--5--5--5--5--5--|
--8--8--8--8--8--8--7--7--|--5--5--5--5--5--5--5--5--|
--8--8--8--8--8--8--7--7--|--5--5--5--5--5--5--5--5--|


                             PM PM PM PM PM PM PM PM PM PM PM PM PM PM
  E  E  E  E  E  E  E  E     E  S  S  S  S  S  S  S  S  S  S  S  S  E
--------------------------|--------------------------------------------|
--------------------------|--------------------------------------------|
--------------------------|--------------------------------------------|
--5--5--5--5--5--5--5--5--|--------------------------------------------|
--5--5--5--5--5--5--5--5--|--0--0--0--0--0--0--0--0--0--0--0--0--0--0--|
--5--5--5--5--5--5--5--5--|--0--0--0--0--0--0--0--0--0--0--0--0--0--0--|


     PM PM PM PM PM PM PM PM PM PM PM PM
  E  S  S  S  S  S  S  S  S  S  S  E  E
-----------------------------------------|
-----------------------------------------|
-----------------------------------------|
-----------------------------------------|
-----0--0--0--0--0--0--0--0--0--0--0--0--|
-----0--0--0--0--0--0--0--0--0--0--0--0--|


     PM PM PM PM PM PM PM PM PM PM PM PM PM
  E  S  S  S  S  S  S  S  S  S  S  S  S  E
--------------------------------------------|
--------------------------------------------|
--------------------------------------------|
--------------------------------------------|
-----0--0--0--0--0--0--0--0--0--0--0--0--0--|
-----0--0--0--0--0--0--0--0--0--0--0--0--0--|


     PM PM PM PM PM PM PM PM PM PM PM PM
  E  S  S  S  S  S  S  S  S  S  S  E  E     E  E  E  E  E  E  E  E
-----------------------------------------|--------------------------|
-----------------------------------------|--------------------------|
-----------------------------------------|--------------------------|
-----------------------------------------|--8--8--8--8--8--8--8--8--|
-----0--0--0--0--0--0--0--0--0--0--0--0--|--8--8--8--8--8--8--8--8--|
-----0--0--0--0--0--0--0--0--0--0--0--0--|--8--8--8--8--8--8--8--8--|


  E  E  E  E  E  E  E  E     E  E  E  E  E  E  E  E
--------------------------|--------------------------|
--------------------------|--------------------------|
--------------------------|--------------------------|
--8--8--8--8--8--8--7--7--|--5--5--5--5--5--5--5--5--|
--8--8--8--8--8--8--7--7--|--5--5--5--5--5--5--5--5--|
--8--8--8--8--8--8--7--7--|--5--5--5--5--5--5--5--5--|


                             Solo 1
                             PM     PM PM PM PM PM PM PM            PM PM
  E  E  E  E  E  E  E  E     S      S  S  S  S  S  S  S   E   E  E  S  S
--------------------------|-----------------------------------------------|
--------------------------|------------------------------10S--6--9--------|
--------------------------|-----------------------------------------------|
--5--5--5--5--5-----------|-------------------------------7S--3--6--------|
--5--5--5--5--5-----------|--0------0--0--0--0--0--0--0-------------0--0--|
--5--5--5--5--5-----------|--0------0--0--0--0--0--0--0-------------0--0--|


  PM PM PM PM PM                  PM PM PM PM PM PM PM PM            PM PM
  E  S  S  E  E   E   E  E  E     S  S  S  S  S  S  S  S   E   E  E  S  S
-------------------------------|-------------------------------------------|
-----------------10S--6--9-----|--------------------------10S--6--9--------|
-------------------------------|-------------------------------------------|
------------------7S--3--6--0--|---------------------------7S--3--6--------|
--0--0--0--0--0-------------0--|--0--0--0--0--0--0--0--0-------------0--0--|
--0--0--0--0--0----------------|--0--0--0--0--0--0--0--0-------------0--0--|


  PM PM PM PM PM PM  PM PM PM    PM PM PM PM PM PM PM PM            PM PM
  E  S  S  E  E  E   E  E  E     S  S  S  S  S  S  S  S   E   E  E  S  S
------------------------------|-------------------------------------------|
------------------------------|--------------------------10S--6--9--------|
------------------------------|-------------------------------------------|
------------------------------|---------------------------7S--3--6--------|
--0--0--0--0--0--5---6--0--6--|--0--0--0--0--0--0--0--0-------------0--0--|
--0--0--0--0--0--5h--6--0--6--|--0--0--0--0--0--0--0--0-------------0--0--|


  PM PM PM PM PM                  PM PM    PM PM    PM PM PM PM PM PM PM
  E  S  S  E  E   E   E  E  E     S  S  E  S  S  E  S  S  S  S  S  S  E
-------------------------------|-----------------------------------------|
-----------------10S--6--9-----|-----------------------------------------|
-------------------------------|-----------------------------------------|
------------------7S--3--6--0--|-----------------------------------------|
--0--0--0--0--0-------------0--|--0--0-----0--0-----0--0--0--0--0--0--0--|
--0--0--0--0--0----------------|--0--0-----0--0-----0--0--0--0--0--0--0--|


                                   Verse 2
     PM PM PM PM PM PM PM PM PM    PM      PM PM PM PM PM PM PM          PM PM
  E  E  S  S  S  S  E  E  E  E     S       S  S  S  S  S  S  S  E  E  E  S  S
--------------------------------|----------------------------------------------|
--------------------------------|----------------------------------------------|
--------------------------------|----------------------------------------------|
--------------------------------|----------------------------------------------|
-----0--0--0--0--0--0--0--0--6--|--0-------0--0--0--0--0--0--0--5--1--4--0--0--|
-----0--0--0--0--0--0--0--0--6--|--0-------0--0--0--0--0--0--0-----------0--0--|


  PM PM PM PM PM PM PM PM
  S  S  S  S  S  S  S  S  E  E  E  E
--------------------------------------|
--------------------------------------|
--------------------------------------|
--------------------------------------|
--0--0--0--0--0--0--0--0--5--1--4--0--|
--0--0--0--0--0--0--0--0--------------|


  PM PM PM PM PM PM PM PM          PM PM
  S  S  S  S  S  S  S  S  E  E  E  S  S
-----------------------------------------|
-----------------------------------------|
-----------------------------------------|
-----------------------------------------|
--0--0--0--0--0--0--0--0--5--1--4--0--0--|
--0--0--0--0--0--0--0--0-----------0--0--|


  PM PM PM PM PM PM PM PM
  S  S  S  S  S  S  S  S  E   E  E  E
---------------------------------------|
---------------------------------------|
---------------------------------------|
---------------------------------------|
--0--0--0--0--0--0--0--0--5h--6--0--6--|
--0--0--0--0--0--0--0--0--5h--6--0--6--|


  PM PM PM PM PM PM PM PM          PM PM
  S  S  S  S  S  S  S  S  E  E  E  S  S
-----------------------------------------|
-----------------------------------------|
-----------------------------------------|
-----------------------------------------|
--0--0--0--0--0--0--0--0--5--1--4--0--0--|
--0--0--0--0--0--0--0--0-----------0--0--|


  PM PM PM PM PM PM PM PM                PM PM PM PM PM    PM PM PM PM
  S  S  S  S  S  S  S  S  E  E  E  E     S  S  S  S  E  E  E  E  E  E
--------------------------------------|--------------------------------|
--------------------------------------|--------------------------------|
--------------------------------------|--------------------------------|
--------------------------------------|--------------------------------|
--0--0--0--0--0--0--0--0--5--1--4--0--|--0--0--0--0--0-----0--0--0--0--|
--0--0--0--0--0--0--0--0--------------|--0--0--0--0--0-----0--0--0--0--|


                                    Solo 2
     PM PM PM PM PM                 PM     PM PM PM PM PM PM PM PM PM
  E  E  S  S  S  S  E   E  E  E     S      S  E  E  E  E  E  E  S  S
---------------------------------|------------------------------------|
---------------------------------|------------------------------------|
---------------------------------|------------------------------------|
---------------------------------|------------------------------------|
-----0--0--0--0--0--5h--6--0--6--|--0------0--0--0--0--0--0--0--0--0--|
-----0--0--0--0--0--5h--6--0--6--|--0------0--0--0--0--0--0--0--0--0--|


  PM PM PM PM PM PM PM PM PM    PM PM PM PM PM PM PM PM PM PM
  E  S  S  E  E  E  E  E  E     S  S  E  E  E  E  E  E  S  S
-----------------------------|--------------------------------|
-----------------------------|--------------------------------|
-----------------------------|--------------------------------|
-----------------------------|--------------------------------|
--0--0--0--0--0--0--0--0--0--|--0--0--0--0--0--0--0--0--0--0--|
--0--0--0--0--0--0--0--0--0--|--0--0--0--0--0--0--0--0--0--0--|


  PM PM PM PM PM                 PM PM PM PM PM PM PM PM PM PM
  E  S  S  E  E  E  E   E  E     S  S  E  E  E  E  E  E  S  S
------------------------------|--------------------------------|
------------------------------|--------------------------------|
------------------------------|--------------------------------|
------------------------------|--------------------------------|
--0--0--0--0--0--5---------8--|--0--0--0--0--0--0--0--0--0--0--|
--0--0--0--0--0-----5h--6-----|--0--0--0--0--0--0--0--0--0--0--|


  PM PM PM PM PM PM PM PM PM    PM PM PM PM PM PM PM PM PM PM
  E  S  S  E  E  E  E  E  E     S  S  E  E  E  E  E  E  S  S
-----------------------------|--------------------------------|
-----------------------------|--------------------------------|
-----------------------------|--------------------------------|
-----------------------------|--------------------------------|
--0--0--0--0--0--0--0--0--0--|--0--0--0--0--0--0--0--0--0--0--|
--0--0--0--0--0--0--0--0--0--|--0--0--0--0--0--0--0--0--0--0--|


                                 Chorus
  PM PM PM PM PM                 PM     PM PM PM PM PM PM PM PM PM PM PM PM PM
  E  S  S  E  E  E  E   E  E     E      S  S  S  S  S  S  S  S  S  S  S  S  E
------------------------------|------------------------------------------------|
------------------------------|------------------------------------------------|
------------------------------|------------------------------------------------|
------------------------------|------------------------------------------------|
--0--0--0--0--0--5------------|--0------0--0--0--0--0--0--0--0--0--0--0--0--0--|
--0--0--0--0--0-----5h--6-----|--0------0--0--0--0--0--0--0--0--0--0--0--0--0--|


     PM PM PM PM PM PM PM PM PM PM PM PM
  E  S  S  S  S  S  S  S  S  S  S  E  E
-----------------------------------------|
-----------------------------------------|
-----------------------------------------|
-----------------------------------------|
-----0--0--0--0--0--0--0--0--0--0--0--0--|
-----0--0--0--0--0--0--0--0--0--0--0--0--|


     PM PM PM PM PM PM PM PM PM PM PM PM PM
  E  S  S  S  S  S  S  S  S  S  S  S  S  E
--------------------------------------------|
--------------------------------------------|
--------------------------------------------|
--------------------------------------------|
-----0--0--0--0--0--0--0--0--0--0--0--0--0--|
-----0--0--0--0--0--0--0--0--0--0--0--0--0--|


     PM PM PM PM PM PM PM PM PM PM PM PM
  E  S  S  S  S  S  S  S  S  S  S  E  E     E  E  E  E  E  E  E  E
-----------------------------------------|--------------------------|
-----------------------------------------|--------------------------|
-----------------------------------------|--------------------------|
-----------------------------------------|--8--8--8--8--8--8--8--8--|
-----0--0--0--0--0--0--0--0--0--0--0--0--|--8--8--8--8--8--8--8--8--|
-----0--0--0--0--0--0--0--0--0--0--0--0--|--8--8--8--8--8--8--8--8--|


  E  E  E  E  E  E  E  E     E  E  E  E  E  E  E  E
--------------------------|--------------------------|
--------------------------|--------------------------|
--------------------------|--------------------------|
--8--8--8--8--8--8--7--7--|--5--5--5--5--5--5--5--5--|
--8--8--8--8--8--8--7--7--|--5--5--5--5--5--5--5--5--|
--8--8--8--8--8--8--7--7--|--5--5--5--5--5--5--5--5--|


                             PM PM PM PM PM PM PM PM PM PM PM PM PM PM
  E  E  E  E  E  E  E  E     E  S  S  S  S  S  S  S  S  S  S  S  S  E
--------------------------|--------------------------------------------|
--------------------------|--------------------------------------------|
--------------------------|--------------------------------------------|
--5--5--5--5--5--5--5--5--|--------------------------------------------|
--5--5--5--5--5--5--5--5--|--0--0--0--0--0--0--0--0--0--0--0--0--0--0--|
--5--5--5--5--5--5--5--5--|--0--0--0--0--0--0--0--0--0--0--0--0--0--0--|


     PM PM PM PM PM PM PM PM PM PM PM PM
  E  S  S  S  S  S  S  S  S  S  S  E  E
-----------------------------------------|
-----------------------------------------|
-----------------------------------------|
-----------------------------------------|
-----0--0--0--0--0--0--0--0--0--0--0--0--|
-----0--0--0--0--0--0--0--0--0--0--0--0--|


     PM PM PM PM PM PM PM PM PM PM PM PM PM
  E  S  S  S  S  S  S  S  S  S  S  S  S  E
--------------------------------------------|
--------------------------------------------|
--------------------------------------------|
--------------------------------------------|
-----0--0--0--0--0--0--0--0--0--0--0--0--0--|
-----0--0--0--0--0--0--0--0--0--0--0--0--0--|


     PM PM PM PM PM PM PM PM PM PM PM PM
  E  S  S  S  S  S  S  S  S  S  S  E  E     E  E  E  E  E  E  E  E
-----------------------------------------|--------------------------|
-----------------------------------------|--------------------------|
-----------------------------------------|--------------------------|
-----------------------------------------|--8--8--8--8--8--8--8--8--|
-----0--0--0--0--0--0--0--0--0--0--0--0--|--8--8--8--8--8--8--8--8--|
-----0--0--0--0--0--0--0--0--0--0--0--0--|--8--8--8--8--8--8--8--8--|


  E  E  E  E  E  E  E  E     E  E  E  E  E  E  E  E
--------------------------|--------------------------|
--------------------------|--------------------------|
--------------------------|--------------------------|
--8--8--8--8--8--8--7--7--|--5--5--5--5--5--5--5--5--|
--8--8--8--8--8--8--7--7--|--5--5--5--5--5--5--5--5--|
--8--8--8--8--8--8--7--7--|--5--5--5--5--5--5--5--5--|


                              Final Chorus
                              TP                   TP
  E  E  E  E  E  E  E  E      W                    W
--------------------------|--------------------|--------------------|
--------------------------|--------------------|--------------------|
--------------------------|--------------------|--------------------|
--5--5--5--5--5--5--5--5--|--12----------------|--12----------------|
--5--5--5--5--5--5--5--5--|--------------------|--------------------|
--5--5--5--5--5--5--5--5--|--------------------|--------------------|


   TP                   TP                   TP
   W                    W                    W
--------------------|--------------------|--------------------|
--------------------|--------------------|--------------------|
--------------------|--------------------|--------------------|
--12----------------|--12----------------|--12----------------|
--------------------|--------------------|--------------------|
--------------------|--------------------|--------------------|


   TP                   TP                   TP
   W                    W                    W
--------------------|--------------------|--------------------|
--------------------|--------------------|--------------------|
--------------------|--------------------|--------------------|
--12----------------|--12----------------|--12----------------|
--------------------|--------------------|--------------------|
--------------------|--------------------|--------------------|


   TP                   TP                   TP
   W                    W                    W
--------------------|--------------------|--------------------|
--------------------|--------------------|--------------------|
--------------------|--------------------|--------------------|
--12----------------|--12----------------|--12----------------|
--------------------|--------------------|--------------------|
--------------------|--------------------|--------------------|


   TP                   TP                   TP
   W                    W                    W
--------------------|--------------------|--------------------|
--------------------|--------------------|--------------------|
--------------------|--------------------|--------------------|
--12----------------|--12----------------|--12----------------|
--------------------|--------------------|--------------------|
--------------------|--------------------|--------------------|


                                             Outro
   TP                   TP                   TP
   W                    W                    W
--------------------|--------------------|--------------------|
--------------------|--------------------|--------------------|
--------------------|--------------------|--------------------|
--12----------------|--12----------------|--12----------------|
--------------------|--------------------|--------------------|
--------------------|--------------------|--------------------|


   TP                   TP                   TP
   W                    W                    W
--------------------|--------------------|--------------------|
--------------------|--------------------|--------------------|
--------------------|--------------------|--------------------|
--12----------------|--12----------------|--12----------------|
--------------------|--------------------|--------------------|
--------------------|--------------------|--------------------|


   TP                   TP                   TP
   W                    W                    W
--------------------|--------------------|--------------------|
--------------------|--------------------|--------------------|
--------------------|--------------------|--------------------|
--12----------------|--12----------------|--12----------------|
--------------------|--------------------|--------------------|
--------------------|--------------------|--------------------|


   TP                   TP                   TP
   W                    W                    W
--------------------|--------------------|--------------------|
--------------------|--------------------|--------------------|
--------------------|--------------------|--------------------|
--12----------------|--12----------------|--12----------------|
--------------------|--------------------|--------------------|
--------------------|--------------------|--------------------|


   TP                   TP                   TP
   W                    W                    W
--------------------|--------------------|--------------------|
--------------------|--------------------|--------------------|
--------------------|--------------------|--------------------|
--12----------------|--12----------------|--12----------------|
--------------------|--------------------|--------------------|
--------------------|--------------------|--------------------|


   TP                   TP                   TP
   W                    W                    W
--------------------|--------------------|--------------------|
--------------------|--------------------|--------------------|
--------------------|--------------------|--------------------|
--12----------------|--12----------------|--12----------------|
--------------------|--------------------|--------------------|
--------------------|--------------------|--------------------|


   TP                   TP                   TP
   W                    W                    W
--------------------|--------------------|--------------------|
--------------------|--------------------|--------------------|
--------------------|--------------------|--------------------|
--12----------------|--12----------------|--12----------------|
--------------------|--------------------|--------------------|
--------------------|--------------------|--------------------|


   TP                   TP                   TP
   W                    W                    W
--------------------|--------------------|--------------------|
--------------------|--------------------|--------------------|
--------------------|--------------------|--------------------|
--12----------------|--12----------------|--12----------------|
--------------------|--------------------|--------------------|
--------------------|--------------------|--------------------|


   TP                   TP                   TP
   W                    W                    W
--------------------|--------------------|--------------------|
--------------------|--------------------|--------------------|
--------------------|--------------------|--------------------|
--12----------------|--12----------------|--12----------------|
--------------------|--------------------|--------------------|
--------------------|--------------------|--------------------|


   TP                   TP                   TP
   W                    W                    W
--------------------|--------------------|--------------------|
--------------------|--------------------|--------------------|
--------------------|--------------------|--------------------|
--12----------------|--12----------------|--12----------------|
--------------------|--------------------|--------------------|
--------------------|--------------------|--------------------|


   TP                   TP                   TP
   W                    W                    W
--------------------|--------------------|--------------------|
--------------------|--------------------|--------------------|
--------------------|--------------------|--------------------|
--12----------------|--12----------------|--12----------------|
--------------------|--------------------|--------------------|
--------------------|--------------------|--------------------|


   TP
   W                   W
--------------------|-------------------|
--------------------|-------------------|
--------------------|-------------------|
--12----------------|--0----------------|
--------------------|--0----------------|
--------------------|--0----------------|

----------------------------------------------------------------------------
                    This is Who we Are
---------------------------------------------------------------------------
this song is a powertab too so just download the free version of powertab and look at it
comments
print report bad tab
1 comment total.
0 reply
downfromthesky wrote on February 11 2012, 04:27 pm

the within destruction tab is terrible

I want to post or [tab]
guest
You may want to rate the tab now too:
select rating
Please do not post tabs as comments. Select "correction" instead!