Oops, an error
Loading. Please wait.

An Ocean Between Us Tab

ver1
ver1

Album

Whole song

More versions @911Tabs.com
44,550 views 51 this week
17 commentsread comments
1 2 3 4 5
accurate
x 14
Autoscroll
+/-
esc
set tempo
stop
Contributor
Tuning
C G C F A D
WARNING: You are trying to view
                                    content from Ultimate-Guitar.com
                                    in an unauthorized application,
                                    which is prohibited.

                                    Please use an official Ultimate
                                    Guitar Tabs application for iPhone,
                                    iPad or Android to access legitimate
                                    chords, guitar, bass, and drum tabs
                                    from Ultimate-Guitar.com database.

                                    Type "ultimate guitar tabs" in Apple
                                    App Store's or Android Market's
                                    search to find the application.
#----------------------------------PLEASE NOTE---------------------------------#
#This file is the author's own work and represents their interpretation of the #
#song. You may only use this file for private study, scholarship, or research. #
#------------------------------------------------------------------------------#



Alright this is "An Ocean Between Us" off of As I Lay Dying's upcoming album
It's incredibly fast, which means it's incredibly AWESOME!!!
and the new bassist is the shit!


So tell me what you think
ewlord-1492@hotmail.com

and feel free to PM or email me if you want the powertab 

 

 

Gtr I (C G C F A D) - 'Untitled'
Gtr II (C G C F A D) - 'Untitled'


  Q=218
  Gtr I
  E E E E E E E E   E E E E E E E E   E E E E E E E E   E E E E E E E E
|-----------------|-----------------|-----------------|-------------------|
|-----------------|-----------------|-----------------|-------------------|
|-----------------|-----------------|-----------------|-------------------|
|-----0-----0---0-|-----0-----------|-----0-----0---0-|-----0-------------|
|-------------0---|---------5p0-----|-------------0---|---------5p0-------|
|-0h7---0h7-------|-0h7---0-----8p5-|-0h7---0h7-------|-0h7---0-----8p5---|
|
| Gtr II
| E E E E E E E E   E E E E E E E E   E E E E E E E E   E E E E E E E E
|-----------------|-----------------|-----------------|-------------------|
|-----------------|-----------------|-----------------|-------------------|
|-----------------|-----------------|-----------------|-------------------|
|-----0-----0---0-|-----0-----------|-----0-----0---0-|-----0-------------|
|-------------0---|---------5p0-----|-------------0---|---------5p0-------|
|-0h7---0h7-------|-0h7---0-----8p5-|-0h7---0h7-------|-0h7---0-----8p5---|


  E E E E E E E E   E E E E E E E E   E E E E E E E E   E E E E Q Q
|-----------------|-----------------|-----------------|---------------|
|-----------------|-----------------|-----------------|---------------|
|-----------------|-----------------|-----------------|---------------|
|-----0-----0---0-|-----0-----------|-----0-----0---0-|-----0---------|
|-------------0---|---------5p0-----|-------------0---|---------0-----|
|-0h7---0h7-------|-0h7---0-----8p5-|-0h7---0h7-------|-0h7---0-0-----|
|
| E E E E E E E E   E E E E E E E E   E E E E E E E E   E E E E Q Q
|-----------------|-----------------|-----------------|---------------|
|-----------------|-----------------|-----------------|---------------|
|-----------------|-----------------|-----------------|---------------|
|-----0-----0---0-|-----0-----------|-----0-----0---0-|-----0---------|
|-------------0---|---------5p0-----|-------------0---|---------0-----|
|-0h7---0h7-------|-0h7---0-----8p5-|-0h7---0h7-------|-0h7---0-0-----|


    E E E E E E E E   E E E E E E E E   E E E E E E E E   E E E E E E E E
||------------------|-----------------|-----------------|-------------------||
||o-----------------|-----------------|-----------------|------------------o||
||------------------|-----------------|-----------------|-------------------||
||------0-----0---0-|-----0-----------|-----0-----0---0-|-----0-------------||
||o-------------0---|---------5p0-----|-------------0---|---------5p0------o||
||--0h7---0h7-------|-0h7---0-----8p5-|-0h7---0h7-------|-0h7---0-----8p5---||
|
|   E E E E E E E E   E E E E E E E E   E E E E E E E E   E E E E E E E E
||------------------|-----------------|-----------------|-------------------||
||o-----------------|-----------------|-----------------|------------------o||
||------------------|-----------------|-----------------|-------------------||
||------0-----0---0-|-----0-----------|-----0-----0---0-|-----0-------------||
||o-------------0---|---------5p0-----|-------------0---|---------5p0------o||
||--0h7---0h7-------|-0h7---0-----8p5-|-0h7---0h7-------|-0h7---0-----8p5---||


  E E E E E E E E   E E E E E E E E   E E E E E E E E   E E E E E E E E
|-----------------|-----------------|-----------------|-------------------|
|-----------------|-----------------|-----------------|-------------------|
|-----------------|-----------------|-----------------|-------------------|
|-----0-----0---0-|-----0-----------|-----0-----0---0-|-----0-------------|
|-------------0---|---------5p0-----|-------------0---|---------5p0-------|
|-0h7---0h7-------|-0h7---0-----8p5-|-0h7---0h7-------|-0h7---0-----8p5---|
|
| E E E E E E E E   E E E E E E E E   E E E E E E E E   E E E E E E E E
|-----------------|-----------------|-----------------|-------------------|
|-----------------|-----------------|-----------------|-------------------|
|-----------------|-----------------|-----------------|-------------------|
|-----------------|-----------------|-----------------|-------------------|
|-----8-----8---8-|-----8---8p0-----|-----8-----8---8-|-----8---8p0-------|
|-0h7---0h7---7---|-0h7---0-----8p5-|-0h7---0h7---7---|-0h7---0-----8p5---|


                                          PM  PM  PM    PM  PM|
  E E E E E E E E   E E E E E E E E   E E E E E E E E   E E E E E E E E
|-----------------|-----------------|-----------------|-----------------|
|-----------------|-----------------|-----------------|-----------------|
|-----------------|-----------------|-----------------|-----------------|
|-----0-----0---0-|-----0-----------|-----------------|---------2h3p2---|
|-------------0---|---------5p0-----|-0h1---1---3---5-|---8-----------3-|
|-0h7---0h7-------|-0h7---0-----8p5-|-----5---5---5---|-7---7-7---------|
|
|                                         PM  PM  PM    PM  PM|
| E E E E E E E E   E E E E E E E E   E E E E E E E E   E E E E E E E E
|-----------------|-----------------|-----------------|-----------------|
|-----------------|-----------------|-----------------|-----------------|
|-----------------|-----------------|-----------------|-----------------|
|-----------------|-----------------|-----------------|---------2h3p2---|
|-----8-----8---8-|-----8---8p0-----|-0h1---1---3---5-|---8-----------3-|
|-0h7---0h7---7---|-0h7---0-----8p5-|-----5---5---5---|-7---7-7---------|


        PM------------------|               PM------------------|
    E E E E E E E E   E E E E E E E E   E E E E E E E E   E E E E E E E E
||------------------|-----------------|-----------------|------------------|
||o-----------------|-----------------|-----------------|------------------|
||------------------|-----------------|-----------------|------------------|
||--2p0-------------|---------2h3p2---|-2h3-------------|---------2h3p2----|
||o-----------------|---------------3-|-----------------|---------------3--|
||------0-0-0-0-0-0-|-0-0-0-0---------|-----0-0-0-0-0-0-|-0-0-0-0----------|
|
|       PM------------------|               PM------------------|
|   E E E E E E E E   E E E E E E E E   E E E E E E E E   E E E E E E E E
||------------------|-----------------|-----------------|------------------|
||o-----------------|-----------------|-----------------|------------------|
||------------------|-----------------|-----------------|------------------|
||--2p0-------------|---------2h3p2---|-2h3-------------|---------2h3p2----|
||o-----------------|---------------3-|-----------------|---------------3--|
||------0-0-0-0-0-0-|-0-0-0-0---------|-----0-0-0-0-0-0-|-0-0-0-0----------|


      PM------------------|               PM  PM  PM    PM  PM|
  E E E E E E E E   E E E E E E E E   E E E E E E E E   E E E E E E E E
|-----------------|-----------------|-----------------|------------------||
|-----------------|-----------------|-----------------|-----------------o||
|-----------------|-----------------|-----------------|------------------||
|-2p0-------------|---------2h3p2---|-----------------|---------2h3p2----||
|-----------------|---------------3-|-0h1---1---3---5-|---8-----------3-o||
|-----0-0-0-0-0-0-|-0-0-0-0---------|-----5---5---5---|-7---7-7----------||
|
|     PM------------------|               PM  PM  PM    PM  PM|
| E E E E E E E E   E E E E E E E E   E E E E E E E E   E E E E E E E E
|-----------------|-----------------|-----------------|------------------||
|-----------------|-----------------|-----------------|-----------------o||
|-----------------|-----------------|-----------------|------------------||
|-2p0-------------|---------2h3p2---|-----------------|---------2h3p2----||
|-----------------|---------------3-|-0h1---1---3---5-|---8-----------3-o||
|-----0-0-0-0-0-0-|-0-0-0-0---------|-----5---5---5---|-7---7-7----------||


        PM------------------|               PM------------------|
    E E E E E E E E   E E E E E E E E   E E E E E E E E   E E E E E E E E
||------------------|-----------------|-----------------|----------------|
||o-----------------|-----------------|-----------------|----------------|
||------------------|-----------------|-----------------|----------------|
||--2p0-------------|---------2h3p2---|-2h3-------------|---------2h3p2--|
||o-----------------|---------------3-|-----------------|---------------3|
||------0-0-0-0-0-0-|-0-0-0-0---------|-----0-0-0-0-0-0-|-0-0-0-0--------|
|
|       PM------------------|               PM------------------|
|   E E E E E E E E   E E E E E E E E   E E E E E E E E   E E E E E E E E
||------------------|-----------------|-----------------|----------------|
||o-----------------|-----------------|-----------------|----------------|
||------------------|-----------------|-----------------|----------------|
||--7p3-------------|---------5h7p5-3-|-5h7-------------|---------5h7p5-3|
||o-----------------|-----------------|-----------------|----------------|
||------0-0-0-0-0-0-|-0-0-0-0---------|-----0-0-0-0-0-0-|-0-0-0-0--------|


      PM------------------|               PM  PM  PM    PM  PM|
  E E E E E E E E   E E E E E E E E   E E E E E E E E   E E E E E E E E
|-----------------|-----------------|-----------------|------------------||
|-----------------|-----------------|-----------------|-----------------o||
|-----------------|-----------------|-----------------|------------------||
|-2p0-------------|---------2h3p2---|-----------------|---------2h3p2----||
|-----------------|---------------3-|-0h1---1---3---5-|---8-----------3-o||
|-----0-0-0-0-0-0-|-0-0-0-0---------|-----5---5---5---|-7---7-7----------||
|
|     PM------------------|               PM  PM  PM    PM  PM|
| E E E E E E E E   E E E E E E E E   E E E E E E E E   E E E E E E E E
|-----------------|-----------------|-----------------|------------------||
|-----------------|-----------------|-----------------|-----------------o||
|-----------------|-----------------|-----------------|------------------||
|-7p3-------------|---------5h7p5-3-|-----------------|---------5h7p5-3--||
|-----------------|-----------------|-0h1---1---3---5-|---8-------------o||
|-----0-0-0-0-0-0-|-0-0-0-0---------|-----5---5---5---|-7---7-7----------||


    PM----------------------------------------------------------------|
    E E E E E E E E   E E E E E E E E   E E E E E E E E   E E E E E E E E
||------------------|-----------------|-----------------|-----------------||
||o-----------------|-----------------|-----------------|----------------o||
||------------------|-----------------|-----------------|-----------------||
||------------------|-----------------|-----------------|-----------------||
||o-----------------|-----------------|-----------------|----------------o||
||--0-0-0-0-0-0-0-0-|-0-0-0-0-0-0-0-0-|-0-0-0-0-0-0-0-0-|-0-0-0-0-0-0-0-0-||
|
|   E E E E E E E E   E E E E E E E E   E E E E E E E E   E E E E E E E E
||------------------|-----------------|-----------------|-----------------||
||o-----------------|-----------------|-----------------|----------------o||
||--7-7-7-7-7-7-7-7-|-7-7-7-7-7-7-7-7-|-7-7-7-7-7-7-7-7-|-7-7-7-7-7-7-7-7-||
||------------------|-----------------|-----------------|-----------------||
||o-5-5-5-5-5-5-5-5-|-5-5-5-5-5-5-5-5-|-5-5-5-5-5-5-5-5-|-5-5-5-5-5-5-5-5o||
||------------------|-----------------|-----------------|-----------------||


  PM----|            PM   PM|            PM   PM|            PM   PM  PM  PM
  E E E E E E E E    E  E E E E E E E    E  E E E E E E E    E  E E E E E E E
|-----------------|-----------------5-|-------------------|-------------------|
|---------6p5---5-|-----6-----6p5-----|-----6-----6p5---5-|-----6---8---6---5-|
|-7-7-7-7-----7---|--7----7-7-----7---|--7----7-7-----7---|--7----7---7---7---|
|-----------------|-------------------|-------------------|-------------------|
|-----------------|-------------------|-------------------|-------------------|
|-----------------|-------------------|-------------------|-------------------|
|
| W                 +W                  +W                  +W
|-----------------|-------------------|-------------------|-------------------|
|-----------------|-------------------|-------------------|-------------------|
|-----------------|-------------------|-------------------|-------------------|
|-----------------|-------------------|-------------------|-------------------|
|-0---------------|-(0)---------------|-(0)---------------|-(0)---------------|
|-0---------------|-(0)---------------|-(0)---------------|-(0)---------------|


  PM----|            PM   PM|            PM   PM|            PM   PM  PM  PM
  E E E E E E E E    E  E E E E E E E    E  E E E E E E E    E  E E E E E E E
|-----------------|-----------------5-|-------------------|-------------------|
|---------6p5---5-|-----6-----6p5-----|-----6-----6p5---5-|-----6---8---6---5-|
|-7-7-7-7-----7---|--7----7-7-----7---|--7----7-7-----7---|--7----7---7---7---|
|-----------------|-------------------|-------------------|-------------------|
|-----------------|-------------------|-------------------|-------------------|
|-----------------|-------------------|-------------------|-------------------|
|
| W                 +W                  +W                  +W
|-----------------|-------------------|-------------------|-------------------|
|-----------------|-------------------|-------------------|-------------------|
|-----------------|-------------------|-------------------|-------------------|
|-----------------|-------------------|-------------------|-------------------|
|-3---------------|-(3)---------------|-(3)---------------|-(3)---------------|
|-3---------------|-(3)---------------|-(3)---------------|-(3)---------------|


  PM----|            PM   PM|            PM   PM|            PM   PM  PM  PM
  E E E E E E E E    E  E E E E E E E    E  E E E E E E E    E  E E E E E E E
|-----------------|-----------------5-|-------------------|-------------------|
|---------6p5---5-|-----6-----6p5-----|-----6-----6p5---5-|-----6---8---6---5-|
|-7-7-7-7-----7---|--7----7-7-----7---|--7----7-7-----7---|--7----7---7---7---|
|-----------------|-------------------|-------------------|-------------------|
|-----------------|-------------------|-------------------|-------------------|
|-----------------|-------------------|-------------------|-------------------|
|
| W                 +W                  +W                  +W
|-----------------|-------------------|-------------------|-------------------|
|-----------------|-------------------|-------------------|-------------------|
|-----------------|-------------------|-------------------|-------------------|
|-----------------|-------------------|-------------------|-------------------|
|-8---------------|-(8)---------------|-(8)---------------|-(8)---------------|
|-8---------------|-(8)---------------|-(8)---------------|-(8)---------------|


  PM----|            PM   PM|            PM   PM|            PM   PM  PM  PM
  E E E E E E E E    E  E E E E E E E    E  E E E E E E E    E  E E E E E E E
|-----------------|-----------------5-|-------------------|-------------------|
|---------6p5---5-|-----6-----6p5-----|-----6-----6p5---5-|-----6---8---6---5-|
|-7-7-7-7-----7---|--7----7-7-----7---|--7----7-7-----7---|--7----7---7---7---|
|-----------------|-------------------|-------------------|-------------------|
|-----------------|-------------------|-------------------|-------------------|
|-----------------|-------------------|-------------------|-------------------|
|
| W                 +W                  +W                  +W
|-----------------|-------------------|-------------------|-------------------|
|-----------------|-------------------|-------------------|-------------------|
|-----------------|-------------------|-------------------|-------------------|
|-----------------|-------------------|-------------------|-------------------|
|-5---------------|-(5)---------------|-(5)---------------|-(5)---------------|
|-5---------------|-(5)---------------|-(5)---------------|-(5)---------------|


    E E E E E E E E   E E E E E E E E   E E E E E E E E   E E E E E E E E
||------------------|-----------------|-----------------|-------------------||
||o-----------------|-----------------|-----------------|------------------o||
||------------------|-----------------|-----------------|-------------------||
||------0-----0---0-|-----0-----------|-----0-----0---0-|-----0-------------||
||o-------------0---|---------5p0-----|-------------0---|---------5p0------o||
||--0h7---0h7-------|-0h7---0-----8p5-|-0h7---0h7-------|-0h7---0-----8p5---||
|
|   E E E E E E E E   E E E E E E E E   E E E E E E E E   E E E E E E E E
||------------------|-----------------|-----------------|-------------------||
||o-----------------|-----------------|-----------------|------------------o||
||------------------|-----------------|-----------------|-------------------||
||------0-----0---0-|-----0-----------|-----0-----0---0-|-----0-------------||
||o-------------0---|---------5p0-----|-------------0---|---------5p0------o||
||--0h7---0h7-------|-0h7---0-----8p5-|-0h7---0h7-------|-0h7---0-----8p5---||


  E E E E E E E E   E E E E E E E E   E E E E E E E E   E E E E E E E E
|-----------------|-----------------|-----------------|-------------------|
|-----------------|-----------------|-----------------|-------------------|
|-----------------|-----------------|-----------------|-------------------|
|-----0-----0---0-|-----0-----------|-----0-----0---0-|-----0-------------|
|-------------0---|---------5p0-----|-------------0---|---------5p0-------|
|-0h7---0h7-------|-0h7---0-----8p5-|-0h7---0h7-------|-0h7---0-----8p5---|
|
| E E E E E E E E   E E E E E E E E   E E E E E E E E   E E E E E E E E
|-----------------|-----------------|-----------------|-------------------|
|-----------------|-----------------|-----------------|-------------------|
|-----------------|-----------------|-----------------|-------------------|
|-----------------|-----------------|-----------------|-------------------|
|-----8-----8---8-|-----8---8p0-----|-----8-----8---8-|-----8---8p0-------|
|-0h7---0h7---7---|-0h7---0-----8p5-|-0h7---0h7---7---|-0h7---0-----8p5---|


                                          PM  PM  PM    PM  PM|
  E E E E E E E E   E E E E E E E E   E E E E E E E E   E E E E E E E E
|-----------------|-----------------|-----------------|-----------------|
|-----------------|-----------------|-----------------|-----------------|
|-----------------|-----------------|-----------------|-----------------|
|-----0-----0---0-|-----0-----------|-----------------|---------2h3p2---|
|-------------0---|---------5p0-----|-0h1---1---3---5-|---8-----------3-|
|-0h7---0h7-------|-0h7---0-----8p5-|-----5---5---5---|-7---7-7---------|
|
|                                         PM  PM  PM    PM  PM|
| E E E E E E E E   E E E E E E E E   E E E E E E E E   E E E E E E E E
|-----------------|-----------------|-----------------|-----------------|
|-----------------|-----------------|-----------------|-----------------|
|-----------------|-----------------|-----------------|-----------------|
|-----------------|-----------------|-----------------|---------2h3p2---|
|-----8-----8---8-|-----8---8p0-----|-0h1---1---3---5-|---8-----------3-|
|-0h7---0h7---7---|-0h7---0-----8p5-|-----5---5---5---|-7---7-7---------|


        PM------------------|               PM------------------|
    E E E E E E E E   E E E E E E E E   E E E E E E E E   E E E E E E E E
||------------------|-----------------|-----------------|------------------|
||o-----------------|-----------------|-----------------|------------------|
||------------------|-----------------|-----------------|------------------|
||--2p0-------------|---------2h3p2---|-2h3-------------|---------2h3p2----|
||o-----------------|---------------3-|-----------------|---------------3--|
||------0-0-0-0-0-0-|-0-0-0-0---------|-----0-0-0-0-0-0-|-0-0-0-0----------|
|
|       PM------------------|               PM------------------|
|   E E E E E E E E   E E E E E E E E   E E E E E E E E   E E E E E E E E
||------------------|-----------------|-----------------|------------------|
||o-----------------|-----------------|-----------------|------------------|
||------------------|-----------------|-----------------|------------------|
||--7p3-------------|---------5h7p5-3-|-5h7-------------|---------5h7p5-3--|
||o-----------------|-----------------|-----------------|------------------|
||------0-0-0-0-0-0-|-0-0-0-0---------|-----0-0-0-0-0-0-|-0-0-0-0----------|


      PM------------------|               PM  PM  PM    PM  PM|
  E E E E E E E E   E E E E E E E E   E E E E E E E E   E E E E E E E E
|-----------------|-----------------|-----------------|------------------||
|-----------------|-----------------|-----------------|-----------------o||
|-----------------|-----------------|-----------------|------------------||
|-2p0-------------|---------2h3p2---|-----------------|---------2h3p2----||
|-----------------|---------------3-|-0h1---1---3---5-|---8-----------3-o||
|-----0-0-0-0-0-0-|-0-0-0-0---------|-----5---5---5---|-7---7-7----------||
|
|     PM------------------|               PM  PM  PM    PM  PM|
| E E E E E E E E   E E E E E E E E   E E E E E E E E   E E E E E E E E
|-----------------|-----------------|-----------------|------------------||
|-----------------|-----------------|-----------------|-----------------o||
|-----------------|-----------------|-----------------|------------------||
|-7p3-------------|---------5h7p5-3-|-----------------|---------5h7p5-3--||
|-----------------|-----------------|-0h1---1---3---5-|---8-------------o||
|-----0-0-0-0-0-0-|-0-0-0-0---------|-----5---5---5---|-7---7-7----------||


    PM----------------------------------------------------------------|
    E E E E E E E E   E E E E E E E E   E E E E E E E E   E E E E E E E E
||------------------|-----------------|-----------------|-----------------||
||o-----------------|-----------------|-----------------|----------------o||
||------------------|-----------------|-----------------|-----------------||
||------------------|-----------------|-----------------|-----------------||
||o-----------------|-----------------|-----------------|----------------o||
||--0-0-0-0-0-0-0-0-|-0-0-0-0-0-0-0-0-|-0-0-0-0-0-0-0-0-|-0-0-0-0-0-0-0-0-||
|
|   E E E E E E E E   E E E E E E E E   E E E E E E E E   E E E E E E E E
||------------------|-----------------|-----------------|-----------------||
||o-----------------|-----------------|-----------------|----------------o||
||--7-7-7-7-7-7-7-7-|-7-7-7-7-7-7-7-7-|-7-7-7-7-7-7-7-7-|-7-7-7-7-7-7-7-7-||
||------------------|-----------------|-----------------|-----------------||
||o-5-5-5-5-5-5-5-5-|-5-5-5-5-5-5-5-5-|-5-5-5-5-5-5-5-5-|-5-5-5-5-5-5-5-5o||
||------------------|-----------------|-----------------|-----------------||


    PM----|            PM   PM|
    E E E E E E E E    E  E E E E E E E
||------------------|-----------------5-|
||o---------6p5---5-|-----6-----6p5-----|
||--7-7-7-7-----7---|--7----7-7-----7---|
||------------------|-------------------|
||o-----------------|-------------------|
||------------------|-------------------|
|
|   W                 +W
||------------------|-------------------|
||o-----------------|-------------------|
||------------------|-------------------|
||------------------|-------------------|
||o-0---------------|-(0)---------------|
||--0---------------|-(0)---------------|


   PM   PM|            PM   PM  PM  PM
   E  E E E E E E E    E  E E E E E E E
|-------------------|--------------------|
|-----6-----6p5---5-|-----6---8---6---5--|
|--7----7-7-----7---|--7----7---7---7----|
|-------------------|--------------------|
|-------------------|--------------------|
|-------------------|--------------------|
|
| +W                  +W
|-------------------|--------------------|
|-------------------|--------------------|
|-------------------|--------------------|
|-------------------|--------------------|
|-(0)---------------|-(0)----------------|
|-(0)---------------|-(0)----------------|


  PM----|            PM   PM|            PM   PM|            PM   PM  PM  PM
  E E E E E E E E    E  E E E E E E E    E  E E E E E E E    E  E E E E E E E
|-----------------|-----------------5-|-------------------|-------------------|
|---------6p5---5-|-----6-----6p5-----|-----6-----6p5---5-|-----6---8---6---5-|
|-7-7-7-7-----7---|--7----7-7-----7---|--7----7-7-----7---|--7----7---7---7---|
|-----------------|-------------------|-------------------|-------------------|
|-----------------|-------------------|-------------------|-------------------|
|-----------------|-------------------|-------------------|-------------------|
|
| W                 +W                  +W                  +W
|-----------------|-------------------|-------------------|-------------------|
|-----------------|-------------------|-------------------|-------------------|
|-----------------|-------------------|-------------------|-------------------|
|-----------------|-------------------|-------------------|-------------------|
|-3---------------|-(3)---------------|-(3)---------------|-(3)---------------|
|-3---------------|-(3)---------------|-(3)---------------|-(3)---------------|


  PM----|            PM   PM|            PM   PM|            PM   PM  PM  PM
  E E E E E E E E    E  E E E E E E E    E  E E E E E E E    E  E E E E E E E
|-----------------|-----------------5-|-------------------|-------------------|
|---------6p5---5-|-----6-----6p5-----|-----6-----6p5---5-|-----6---8---6---5-|
|-7-7-7-7-----7---|--7----7-7-----7---|--7----7-7-----7---|--7----7---7---7---|
|-----------------|-------------------|-------------------|-------------------|
|-----------------|-------------------|-------------------|-------------------|
|-----------------|-------------------|-------------------|-------------------|
|
| W                 +W                  +W                  +W
|-----------------|-------------------|-------------------|-------------------|
|-----------------|-------------------|-------------------|-------------------|
|-----------------|-------------------|-------------------|-------------------|
|-----------------|-------------------|-------------------|-------------------|
|-8---------------|-(8)---------------|-(8)---------------|-(8)---------------|
|-8---------------|-(8)---------------|-(8)---------------|-(8)---------------|


  PM----|            PM   PM|
  E E E E E E E E    E  E E E E E E E
|-----------------|-----------------5-|
|---------6p5---5-|-----6-----6p5-----|
|-7-7-7-7-----7---|--7----7-7-----7---|
|-----------------|-------------------|
|-----------------|-------------------|
|-----------------|-------------------|
|
| W                 +W
|-----------------|-------------------|
|-----------------|-------------------|
|-----------------|-------------------|
|-----------------|-------------------|
|-5---------------|-(5)---------------|
|-5---------------|-(5)---------------|


   PM   PM|            PM   PM  PM  PM
   E  E E E E E E E    E  E E E E E E E
|-------------------|--------------------||
|-----6-----6p5---5-|-----6---8---6---5-o||
|--7----7-7-----7---|--7----7---7---7----||
|-------------------|--------------------||
|-------------------|-------------------o||
|-------------------|--------------------||
|
| +W                  +W
|-------------------|--------------------||
|-------------------|-------------------o||
|-------------------|--------------------||
|-------------------|--------------------||
|-(5)---------------|-(5)---------------o||
|-(5)---------------|-(5)----------------||


  PM------------|       PM--------|       PM--------------------------|
  E E E E E E E E   E E E E E E E E   E E E E E E E E   E E E E E E E E
|-----------------|-----------------|-----------------|-----------------|
|-----------------|-----------------|-----------------|-----------------|
|-----------------|-----------------|-----------------|-----------------|
|-----------------|-----------------|-----------------|-----------------|
|-0-0-0-0-0-0-0-0-|-3-5-0-0-0-0-0-0-|-3-5-0-0-0-0-0-0-|-0-0-0-0-0-0-0-0-|
|-0-0-0-0-0-0-0-0-|-----0-0-0-0-0-0-|-----0-0-0-0-0-0-|-0-0-0-0-0-0-0-0-|
|
| W                 W                 W                 W
|-----------------|-----------------|-----------------|-----------------|
|-----------------|-----------------|-----------------|-----------------|
|-----------------|-----------------|-----------------|-----------------|
|-----------------|-----------------|-----------------|-----------------|
|-----------------|-----------------|-----------------|-----------------|
|-----------------|-----------------|-----------------|-----------------|


  PM------------|       PM--------|       PM------------------|
  E E E E E E E E   E E E E E E E E   E E E E E E E E   E E E E  H
|-----------------|-----------------|-----------------|----------------|
|-----------------|-----------------|-----------------|----------------|
|-----------------|-----------------|-----------------|----------------|
|-----------------|-----------------|-----------------|----------------|
|-0-0-0-0-0-0-0-0-|-3-5-0-0-0-0-0-0-|-3-5-0-0-0-0-0-0-|-0-0-0-0-[5]----|
|-0-0-0-0-0-0-0-0-|-----0-0-0-0-0-0-|-----0-0-0-0-0-0-|-0-0-0-0--------|
|
| W                 W                 W                 W
|-----------------|-----------------|-----------------|----------------|
|-----------------|-----------------|-----------------|----------------|
|-----------------|-----------------|-----------------|----------------|
|-----------------|-----------------|-----------------|----------------|
|-----------------|-----------------|-----------------|----------------|
|-----------------|-----------------|-----------------|----------------|


    PM----------------------------------------------------------------|
    E E E E E E E E   E E E E E E E E   E E E E E E E E   E E E E E E E E
||------------------|-----------------|-----------------|----------------|
||o-----------------|-----------------|-----------------|----------------|
||------------------|-----------------|-----------------|----------------|
||------------------|-----------------|-----------------|----------------|
||o-0-0-0-0-0-0-0-0-|-0-0-0-0-0-0-0-0-|-0-0-0-0-0-0-0-0-|-0-0-0-0-0-0-0-0|
||--0-0-0-0-0-0-0-0-|-0-0-0-0-0-0-0-0-|-0-0-0-0-0-0-0-0-|-0-0-0-0-0-0-0-0|
|
|   PM----------------------------------------------------------------|
|   E E E E E E E E   E E E E E E E E   E E E E E E E E   E E E E E E E E
||------------------|-----------------|-----------------|----------------|
||o-----------------|-----------------|-----------------|----------------|
||------------------|-----------------|-----------------|----------------|
||------------------|-----------------|-----------------|----------------|
||o-0-0-0-0-0-0-0-0-|-0-0-0-0-0-0-0-0-|-0-0-0-0-0-0-0-0-|-0-0-0-0-0-0-0-0|
||--0-0-0-0-0-0-0-0-|-0-0-0-0-0-0-0-0-|-0-0-0-0-0-0-0-0-|-0-0-0-0-0-0-0-0|


  PM----------------------------|
  E E E E E E E E   E E E E E E E E   +E  E E E E E E E   +E  E E E E E E E
|-----------------|-----------------|-------------------|--------------------||
|-----------------|-----------------|-------------------|-------------------o||
|-----------------|-----------------|-------------------|--------------------||
|-----------------|-----------------|-------------------|--------------------||
|-0-0-0-0-0-0-0-0-|-0-0-0-0-0-0-0-3-|-(3)-3-3-3-3-3-3-5-|-(5)-5-5-5-5-5-5-5-o||
|-0-0-0-0-0-0-0-0-|-0-0-0-0-0-0-0-3-|-(3)-3-3-3-3-3-3-5-|-(5)-5-5-5-5-5-5-5--||
|
| PM----------------------------|
| E E E E E E E E   E E E E E E E E   +E  E E E E E E E   +E  E E E E E E E
|-----------------|-----------------|-------------------|--------------------||
|-----------------|-----------------|-------------------|-------------------o||
|-----------------|-----------------|-------------------|--------------------||
|-----------------|-----------------|-------------------|--------------------||
|-0-0-0-0-0-0-0-0-|-0-0-0-0-0-0-0-3-|-(3)-3-3-3-3-3-3-5-|-(5)-5-5-5-5-5-5-5-o||
|-0-0-0-0-0-0-0-0-|-0-0-0-0-0-0-0-3-|-(3)-3-3-3-3-3-3-5-|-(5)-5-5-5-5-5-5-5--||


     PM----------------------------------------
     E E  E E  E E  E E    E E  E E  E E  E E
||----------------------|---------------------|
||o---------------------|---------------------|
||----------------------|---------------------|
||----------------------|---------------------|
||o--0-0--0-0--0-0--0-0-|--0-0--0-0--0-0--0-0-|
||---0-0--0-0--0-0--0-0-|--0-0--0-0--0-0--0-0-|
|
|    Q    Q    Q    Q      Q    Q    Q    Q
||----------------------|---------------------|
||o-10------------------|-----------10--------|
||-------10--------10---|------10--------10---|
||------------12--------|-12------------------|
||o---------------------|---------------------|
||----------------------|---------------------|


 --------------------------------------|
   E E  E E  E E  E E    E E  E E  E E  E E
|---------------------|--------------------|
|---------------------|--------------------|
|---------------------|--------------------|
|---------------------|--------------------|
|--0-0--0-0--0-0--0-0-|--0-0--0-0--0-0--0-0|
|--0-0--0-0--0-0--0-0-|--0-0--0-0--0-0--0-0|
|
|  Q    Q    Q    Q      Q    Q    Q    Q
|---------------------|--------------------|
|---------------------|-10-----------------|
|------10--------10---|------10--------10--|
|-12--------12--------|-----------12-------|
|---------------------|--------------------|
|---------------------|--------------------|


   E E  E E  E E  E E    E E  E E  E E  E E
|---------------------|---------------------|
|---------------------|---------------------|
|---------------------|---------------------|
|---------------------|---------------------|
|--3-3--3-3--3-3--3-3-|--3-3--3-3--3-3--3-3-|
|--3-3--3-3--3-3--3-3-|--3-3--3-3--3-3--3-3-|
|
|  Q    Q    Q    Q      Q    Q    Q    Q
|---------------------|---------------------|
|-10------------------|-----------10--------|
|------10--------10---|------10--------10---|
|-----------12--------|-12------------------|
|---------------------|---------------------|
|---------------------|---------------------|


   E E  E E  E E  E E    E E  E E  E E  E E
|---------------------|----------------------||
|---------------------|---------------------o||
|---------------------|----------------------||
|---------------------|----------------------||
|--5-5--5-5--5-5--5-5-|--5-5--5-5--5-5--5-5-o||
|--5-5--5-5--5-5--5-5-|--5-5--5-5--5-5--5-5--||
|
|  Q    Q    Q    Q      Q    Q    Q    Q
|---------------------|----------------------||
|---------------------|-10------------------o||
|------10--------10---|------10--------10----||
|-12--------12--------|-----------12---------||
|---------------------|---------------------o||
|---------------------|----------------------||


  PM----|            PM   PM|            PM   PM|            PM   PM  PM  PM
  E E E E E E E E    E  E E E E E E E    E  E E E E E E E    E  E E E E E E E
|-----------------|-----------------5-|-------------------|-------------------|
|---------6p5---5-|-----6-----6p5-----|-----6-----6p5---5-|-----6---8---6---5-|
|-7-7-7-7-----7---|--7----7-7-----7---|--7----7-7-----7---|--7----7---7---7---|
|-----------------|-------------------|-------------------|-------------------|
|-----------------|-------------------|-------------------|-------------------|
|-----------------|-------------------|-------------------|-------------------|
|
| W                 +W                  +W                  +W
|-----------------|-------------------|-------------------|-------------------|
|-----------------|-------------------|-------------------|-------------------|
|-----------------|-------------------|-------------------|-------------------|
|-----------------|-------------------|-------------------|-------------------|
|-0---------------|-(0)---------------|-(0)---------------|-(0)---------------|
|-0---------------|-(0)---------------|-(0)---------------|-(0)---------------|


  PM----|            PM   PM|            PM   PM|            PM   PM  PM  PM
  E E E E E E E E    E  E E E E E E E    E  E E E E E E E    E  E E E E E E E
|-----------------|-----------------5-|-------------------|-------------------|
|---------6p5---5-|-----6-----6p5-----|-----6-----6p5---5-|-----6---8---6---5-|
|-7-7-7-7-----7---|--7----7-7-----7---|--7----7-7-----7---|--7----7---7---7---|
|-----------------|-------------------|-------------------|-------------------|
|-----------------|-------------------|-------------------|-------------------|
|-----------------|-------------------|-------------------|-------------------|
|
| W                 +W                  +W                  +W
|-----------------|-------------------|-------------------|-------------------|
|-----------------|-------------------|-------------------|-------------------|
|-----------------|-------------------|-------------------|-------------------|
|-----------------|-------------------|-------------------|-------------------|
|-3---------------|-(3)---------------|-(3)---------------|-(3)---------------|
|-3---------------|-(3)---------------|-(3)---------------|-(3)---------------|


  PM----|            PM   PM|            PM   PM|            PM   PM  PM  PM
  E E E E E E E E    E  E E E E E E E    E  E E E E E E E    E  E E E E E E E
|-----------------|-----------------5-|-------------------|-------------------|
|---------6p5---5-|-----6-----6p5-----|-----6-----6p5---5-|-----6---8---6---5-|
|-7-7-7-7-----7---|--7----7-7-----7---|--7----7-7-----7---|--7----7---7---7---|
|-----------------|-------------------|-------------------|-------------------|
|-----------------|-------------------|-------------------|-------------------|
|-----------------|-------------------|-------------------|-------------------|
|
| W                 +W                  +W                  +W
|-----------------|-------------------|-------------------|-------------------|
|-----------------|-------------------|-------------------|-------------------|
|-----------------|-------------------|-------------------|-------------------|
|-----------------|-------------------|-------------------|-------------------|
|-8---------------|-(8)---------------|-(8)---------------|-(8)---------------|
|-8---------------|-(8)---------------|-(8)---------------|-(8)---------------|


  PM----|            PM   PM|            PM   PM|            PM   PM  PM  PM
  E E E E E E E E    E  E E E E E E E    E  E E E E E E E    E  E E E E E E E
|-----------------|-----------------5-|-------------------|-------------------|
|---------6p5---5-|-----6-----6p5-----|-----6-----6p5---5-|-----6---8---6---5-|
|-7-7-7-7-----7---|--7----7-7-----7---|--7----7-7-----7---|--7----7---7---7---|
|-----------------|-------------------|-------------------|-------------------|
|-----------------|-------------------|-------------------|-------------------|
|-----------------|-------------------|-------------------|-------------------|
|
| W                 +W                  +W                  +W
|-----------------|-------------------|-------------------|-------------------|
|-----------------|-------------------|-------------------|-------------------|
|-----------------|-------------------|-------------------|-------------------|
|-----------------|-------------------|-------------------|-------------------|
|-5---------------|-(5)---------------|-(5)---------------|-(5)---------------|
|-5---------------|-(5)---------------|-(5)---------------|-(5)---------------|


  PM----|            PM   PM|            PM   PM|            PM   PM  PM  PM
  E E E E E E E E    E  E E E E E E E    E  E E E E E E E    E  E E E E E E E
|-----------------|-----------------5-|-------------------|-------------------|
|---------6p5---5-|-----6-----6p5-----|-----6-----6p5---5-|-----6---8---6---5-|
|-7-7-7-7-----7---|--7----7-7-----7---|--7----7-7-----7---|--7----7---7---7---|
|-----------------|-------------------|-------------------|-------------------|
|-----------------|-------------------|-------------------|-------------------|
|-----------------|-------------------|-------------------|-------------------|
|
| PM----------|               PM--|               PM--|               PM----|
| E E E E E E E E   +H        E E E E   +H        E E E E   +H        E E E E
|-----------------|-------------------|-------------------|-------------------|
|-----------------|-------------------|-------------------|-------------------|
|-----------------|-------------------|-------------------|-------------------|
|-----------------|-------------------|-------------------|-------------------|
|-0-0-0-0-0-0-0-0-|-(0)-------0-0-0-0-|-(0)-------0-0-0-0-|-(0)-------0-0-0-0-|
|-0-0-0-0-0-0-0-0-|-(0)-------0-0-0-0-|-(0)-------0-0-0-0-|-(0)-------0-0-0-0-|


  PM----|            PM   PM|            PM   PM|            PM   PM  PM  PM
  E E E E E E E E    E  E E E E E E E    E  E E E E E E E    E  E E E E E E E
|-----------------|-----------------5-|-------------------|-------------------|
|---------6p5---5-|-----6-----6p5-----|-----6-----6p5---5-|-----6---8---6---5-|
|-7-7-7-7-----7---|--7----7-7-----7---|--7----7-7-----7---|--7----7---7---7---|
|-----------------|-------------------|-------------------|-------------------|
|-----------------|-------------------|-------------------|-------------------|
|-----------------|-------------------|-------------------|-------------------|
|
| PM----------|               PM--|               PM--|               PM----|
| E E E E E E E E   +H        E E E E   +H        E E E E   +H        E E E E
|-----------------|-------------------|-------------------|-------------------|
|-----------------|-------------------|-------------------|-------------------|
|-----------------|-------------------|-------------------|-------------------|
|-----------------|-------------------|-------------------|-------------------|
|-3-3-3-3-3-3-3-3-|-(3)-------3-3-3-3-|-(3)-------3-3-3-3-|-(3)-------3-3-3-3-|
|-3-3-3-3-3-3-3-3-|-(3)-------3-3-3-3-|-(3)-------3-3-3-3-|-(3)-------3-3-3-3-|


  PM----|            PM   PM|            PM   PM|            PM   PM  PM  PM
  E E E E E E E E    E  E E E E E E E    E  E E E E E E E    E  E E E E E E E
|-----------------|-----------------5-|-------------------|-------------------|
|---------6p5---5-|-----6-----6p5-----|-----6-----6p5---5-|-----6---8---6---5-|
|-7-7-7-7-----7---|--7----7-7-----7---|--7----7-7-----7---|--7----7---7---7---|
|-----------------|-------------------|-------------------|-------------------|
|-----------------|-------------------|-------------------|-------------------|
|-----------------|-------------------|-------------------|-------------------|
|
| PM----------|               PM--|               PM--|               PM----|
| E E E E E E E E   +H        E E E E   +H        E E E E   +H        E E E E
|-----------------|-------------------|-------------------|-------------------|
|-----------------|-------------------|-------------------|-------------------|
|-----------------|-------------------|-------------------|-------------------|
|-----------------|-------------------|-------------------|-------------------|
|-8-8-8-8-8-8-8-8-|-(8)-------8-8-8-8-|-(8)-------8-8-8-8-|-(8)-------8-8-8-8-|
|-8-8-8-8-8-8-8-8-|-(8)-------8-8-8-8-|-(8)-------8-8-8-8-|-(8)-------8-8-8-8-|


  PM----|            PM   PM|            PM   PM|           PM  PM  PM  PM
  E E E E E E E E    E  E E E E E E E    E  E E E E E E E   E E E E E E E E
|-----------------|-----------------5-|-------------------|-----------------|
|---------6p5---5-|-----6-----6p5-----|-----6-----6p5---5-|---6---8---6---5-|
|-7-7-7-7-----7---|--7----7-7-----7---|--7----7-7-----7---|-7---7---7---7---|
|-----------------|-------------------|-------------------|-----------------|
|-----------------|-------------------|-------------------|-----------------|
|-----------------|-------------------|-------------------|-----------------|
|
| PM----------|               PM--|               PM----------------------|
| E E E E E E E E   +H        E E E E   +H        E E E E   E E E E E E E E
|-----------------|-------------------|-------------------|-----------------|
|-----------------|-------------------|-------------------|-----------------|
|-----------------|-------------------|-------------------|-----------------|
|-----------------|-------------------|-------------------|-----------------|
|-5-5-5-5-5-5-5-5-|-(5)-------5-5-5-5-|-(5)-------5-5-5-5-|-5-5-5-5-5-5-5-5-|
|-5-5-5-5-5-5-5-5-|-(5)-------5-5-5-5-|-(5)-------5-5-5-5-|-5-5-5-5-5-5-5-5-|


  E E E E E E E E   E E E E E E E E   E E E E E E E E   E E E E E E E E
|-----------------|-----------------|-----------------|-------------------|
|-----------------|-----------------|-----------------|-------------------|
|-----------------|-----------------|-----------------|-------------------|
|-----0-----0---0-|-----0-----------|-----0-----0---0-|-----0-------------|
|-------------0---|---------5p0-----|-------------0---|---------5p0-------|
|-0h7---0h7-------|-0h7---0-----8p5-|-0h7---0h7-------|-0h7---0-----8p5---|
|
| E E E E E E E E   E E E E E E E E   E E E E E E E E   E E E E E E E E
|-----------------|-----------------|-----------------|-------------------|
|-----------------|-----------------|-----------------|-------------------|
|-----------------|-----------------|-----------------|-------------------|
|-----0-----0---0-|-----0-----------|-----0-----0---0-|-----0-------------|
|-------------0---|---------5p0-----|-------------0---|---------5p0-------|
|-0h7---0h7-------|-0h7---0-----8p5-|-0h7---0h7-------|-0h7---0-----8p5---|


                                                                PM----|
  E E E E E E E E   E E E E E E E E   E E E E E E E E   E E E E E E E E
|-----------------|-----------------|-----------------|-------------------|
|-----------------|-----------------|-----------------|-------------------|
|-----------------|-----------------|-----------------|-------------------|
|-----0-----0---0-|-----0-----------|-----0-----0---0-|-----0-------------|
|-------------0---|---------5p0-----|-------------0---|---------0-0-0-0---|
|-0h7---0h7-------|-0h7---0-----8p5-|-0h7---0h7-------|-0h7---0-0-0-0-0---|
|
|                                                               PM----|
| E E E E E E E E   E E E E E E E E   E E E E E E E E   E E E E E E E E
|-----------------|-----------------|-----------------|-------------------|
|-----------------|-----------------|-----------------|-------------------|
|-----------------|-----------------|-----------------|-------------------|
|-----0-----0---0-|-----0-----------|-----0-----0---0-|-----0-------------|
|-------------0---|---------5p0-----|-------------0---|---------0-0-0-0---|
|-0h7---0h7-------|-0h7---0-----8p5-|-0h7---0h7-------|-0h7---0-0-0-0-0---|




--------------------------------------------------------------------------------


Duration Legend
---------------
W - whole; H - half; Q - quarter; E - 8th; S - 16th; T - 32nd; X - 64th; a - acciaccatura
+ - note tied to previous; . - note dotted; .. - note double dotted
Uncapitalized letters represent notes that are staccato (1/2 duration)
Irregular groupings are notated above the duration line
Duration letters will always appear directly above the note/fret number it represents the
duration for.  Duration letters with no fret number below them represent rests.  Multi-
bar rests are notated in the form Wxn, where n is the number of bars to rest for.  Low
melody durations appear below the staff

Tablature Legend
----------------
 h   - hammer-on
 p   - pull-off
 b   - bend
 pb  - pre-bend
 r   - bend release (if no number after the r, then release immediately)
 /\  - slide into or out of (from/to "nowhere")
 s   - legato slide
 S   - shift slide
 - natural harmonic
[n]  - artificial harmonic
n(n) - tapped harmonic
 ~   - vibrato
 tr  - trill
 T   - tap
 TP  - trem. picking
 PM  - palm muting
\n/  - tremolo bar dip; n = amount to dip
 \n  - tremolo bar down
 n/  - tremolo bar up
/n\  - tremolo bar inverted dip
 =   - hold bend; also acts as connecting device for hammers/pulls
 <> - volume swell (louder/softer)
 x   - on rhythm slash represents muted slash
 o   - on rhythm slash represents single note slash

Misc Legend
-----------
 |  - bar
||  - double bar
||o - repeat start
o|| - repeat end
*|  - double bar (ending)
 :  - bar (freetime)
 $  - Segno
 &  - Coda
Tempo markers -  = BPM(8/16=s8/s16), where s8 = swing 8ths, s16 = swing 16ths



--------------------------------------------------------------------------------

** Generated using Power Tab Editor by Brad Larsen: The Official Power Tab Web Site
17 comments total. Showing first comments.
0 reply
basspunk709 wrote on August 5 2007, 11:57 am

thank you

0 reply
nubtub wrote on August 7 2007, 01:30 pm

awesome looked through most of it and looks really good and done really quickly, i really want the cd now and i pm'd you for the power tab

0 reply
shmitty2345 wrote on August 7 2007, 11:09 pm

haha the cd isnt even out yet, good job

I want to post or [tab]
guest
You may want to rate the tab now too:
select rating
Please do not post tabs as comments. Select "correction" instead!