Oops, an error
Loading. Please wait.

An Ocean Between Us Tab

ver3
ver3

Album

Whole song

More versions @911Tabs.com
6,158 views 10 this week
2 commentsread comments
1 2 3 4 5
excellent!
x 3
Autoscroll
+/-
esc
set tempo
stop
Contributor
Difficulty
Tuning
advanced
C G C F A D
WARNING: You are trying to view
                                    content from Ultimate-Guitar.com
                                    in an unauthorized application,
                                    which is prohibited.

                                    Please use an official Ultimate
                                    Guitar Tabs application for iPhone,
                                    iPad or Android to access legitimate
                                    chords, guitar, bass, and drum tabs
                                    from Ultimate-Guitar.com database.

                                    Type "ultimate guitar tabs" in Apple
                                    App Store's or Android Market's
                                    search to find the application.
-------------------------------------------------------------------------------
			     An Ocean Between Us – As I Lay Dying
-------------------------------------------------------------------------------
Tabbed by: tengauged, too see my cover of this song and more head to my YouTube page 
YouTube: http://www.youtube.com/user/tengauged

Tuning: Drop C - CGCFAD

D|---------------------------------------------------------------------------|
A|---------------------------------------------------------------------------|
F|---------------------------------------------------------------------------|
C|---------------------------------------------------------------------------|
G|---------------------------------------------------------------------------|
C|-0h7h12-0h7h12-0h12-0h7h12-0h12-0h8p5—0h7h12-0h7h12-0h12-0h7h12-0h12-0h8p5-|

D|---------------------------------------------------------------------------|
A|---------------------------------------------------------------------------|
F|---------------------------------------------------------------------------|
C|---------------------------------------------------------------------------|
G|---------------------------------------------------------12\0--------------|
C|-0h7h12-0h7h12-0h12-0h7h12-0h12-0h8p5—0h7h12-0h7h12-0h12-12\0--------------|

D|---------------------------------------------------------------------------|
A|---------------------------------------------------------------------------|
F|---------------------------------------------------------------------------|
C|---------------------------------------------------------------------------|
G|---------------------------------------------------------------------------|
C|-0h7h12-0h7h12-0h12-0h7h12-0h12-0h8p5—0h7h12-0h7h12-0h12-0h7h12-0h12-0h8p5-|

D|---------------------------------------------------------------------------|
A|---------------------------------------------------------------------------|
F|---------------------------------------------------------------------------|
C|---------------------------------------------------------------------------|
G|---------------------------------------------------------------------------|
C|-0h7h12-0h7h12-0h12-0h7h12-0h12-0h8p5—0h7h12-0h7h12-0h12-0h7h12-0h12-0h8p5-|

D|---------------------------------------------------------------------------|
A|---------------------------------------------------------------------------|
F|---------------------------------------------------------------------------|
C|---------------------------------------------------------------------------|
G|---------------------------------------------------------------------------|
C|-0h7h12-0h7h12-0h12-0h7h12-0h12-0h8p5—0h7h12-0h7h12-0h12-0h7h12-0h12-0h8p5-|

D|---------------------------------------------------------------------------|
A|---------------------------------------------------------------------------|
F|---------------------------------------------------------------------------|
C|-----------------------------------------------------------2h3p2p0h2p0-----|
G|----------------------------------------------5---7---8--------------------|
C|-0h7h12-0h7h12-0h12-0h7h12-0h12-0h8p5—5h7-5-8---5---5---5------------------|
			        [palm mute]  .     .   .   .

D|---------------------------------------------------------------------------|
A|---------------------------------------------------------------------------|
F|---------------------------------------------------------------------------|
C|-------------2h3p2p0h2h3--------------2h3p2p0h2p0--------------2h3p2p0-----|
G|-0000000000---------------0000000000---------------0000000000--------------|
C|-0000000000---------------0000000000---------------0000000000--------------|
   ..........               ..........               ..........

D|---------------------------------------------------------------------------|
A|---------------------------------------------------------------------------|
F|---------------------------------------------------------------------------|
C|---------------------2h3p2p0h2p0--------------2h3p2p0h2h3------------------|
G|---------5---7---8----------------0000000000---------------0000000000------|
C|-5h7-5-8---5---5---5--------------0000000000---------------0000000000------|
       .     .   .   .              ..........               ..........

D|---------------------------------------------------------------------------|
A|---------------------------------------------------------------------------|
F|---------------------------------------------------------------------------|
C|-2h3p2p0h2p0---------------2h3p2p0-----------------------2h3p2p0h2p0-------|
G|--------------0000000000--------------------5---7---8----------------------|
C|--------------0000000000------------5h7-5-8---5---5---5--------------------|
                ..........                .     .   .   .

D|---------------------------------------------------------------------------|
A|---------------------------------------------------------------------------|
F|---------------------------------------------------------------------------|
C|-------------2h3p2p0h2h3--------------2h3p2p0h2p0--------------2h3p2p0-----|
G|-0000000000---------------0000000000---------------0000000000--------------|
C|-0000000000---------------0000000000---------------0000000000--------------|
   ..........               ..........               ..........

D|---------------------------------------------------------------------------|
A|---------------------------------------------------------------------------|
F|---------------------------------------------------------------------------|
C|---------------------2h3p2p0h2p0--------------2h3p2p0h2h3------------------|
G|---------5---7---8----------------0000000000---------------0000000000------|
C|-5h7-5-8---5---5---5--------------0000000000---------------0000000000------|
       .     .   .   .              ..........               ..........

D|---------------------------------------------------------------------------|
A|---------------------------------------------------------------------------|
F|---------------------------------------------------------------------------|
C|-2h3p2p0h2p0---------------2h3p2p0-----------------------2h3p2p0-----------|
G|--------------0000000000--------------------5---7---8----------------------|
C|--------------0000000000------------5h7-5-8---5---5---5--------------------|
                ..........                .     .   .   .

D|---------------------------------------------------------------------------|
A|---------------------------------------------------------------------------|
F|--------------------------7777777777777777777777777777777777777777---------|
C|--------------------------xxxxxxxxxxxxxxxxxxxxxxxxxxxxxxxxxxxxxxxx---------|
G|-000000000000000000000000-5555555555555555555555555555555555555555---------|
C|-000000000000000000000000--------------------------------------------------|
   ........................


D|---------------------------------------------------------------------------|
A|-------------------------------------10------------------------------------|
F|-------------10p9----9----10-10p9----------10-10p9----9----10----12----10--|
C|-12-12-12-12------12---12---------12----12---------12---12----12----12-----|
G|---------------------------------------------------------------------------|
C|---------------------------------------------------------------------------|
   .  .  .  .       .    .          .     .          .    .     .     .

D|---------------------------------------------------------------------------|
A|---------------------------------------------------------------------------|
F|----9-----[repeat chorus riff 4 times]-------------------------------------|
C|-12------------------------------------------------------------------------|
G|---------------------------------------------------------------------------|
C|---------------------------------------------------------------------------|
   .

D|---------------------------------------------------------------------------|
A|---------------------------------------------------------------------------|
F|---------------------------------------------------------------------------|
C|---------------------------------------------------------------------------|
G|---------------------------------------------------------------------------|
C|-0h7h12-0h7h12-0h12-0h7h12-0h12-0h8p5—0h7h12-0h7h12-0h12-0h7h12-0h12-0h8p5-|

D|---------------------------------------------------------------------------|
A|---------------------------------------------------------------------------|
F|---------------------------------------------------------------------------|
C|---------------------------------------------------------------------------|
G|---------------------------------------------------------------------------|
C|-0h7h12-0h7h12-0h12-0h7h12-0h12-0h8p5—0h7h12-0h7h12-0h12-0h7h12-0h12-0h8p5-|

D|---------------------------------------------------------------------------|
A|---------------------------------------------------------------------------|
F|---------------------------------------------------------------------------|
C|---------------------------------------------------------------------------|
G|---------------------------------------------------------------------------|
C|-0h7h12-0h7h12-0h12-0h7h12-0h12-0h8p5—0h7h12-0h7h12-0h12-0h7h12-0h12-0h8p5-|

D|---------------------------------------------------------------------------|
A|---------------------------------------------------------------------------|
F|---------------------------------------------------------------------------|
C|-----------------------------------------------------------2h3p2p0h2p0-----|
G|----------------------------------------------5---7---8--------------------|
C|-0h7h12-0h7h12-0h12-0h7h12-0h12-0h8p5—5h7-5-8---5---5---5------------------|
			        [palm mute]  .     .   .   .

D|---------------------------------------------------------------------------|
A|---------------------------------------------------------------------------|
F|---------------------------------------------------------------------------|
C|-------------2h3p2p0h2h3--------------2h3p2p0h2p0--------------2h3p2p0-----|
G|-0000000000---------------0000000000---------------0000000000--------------|
C|-0000000000---------------0000000000---------------0000000000--------------|
   ..........               ..........               ..........

D|---------------------------------------------------------------------------|
A|---------------------------------------------------------------------------|
F|---------------------------------------------------------------------------|
C|---------------------2h3p2p0h2p0--------------2h3p2p0h2h3------------------|
G|---------5---7---8----------------0000000000---------------0000000000------|
C|-5h7-5-8---5---5---5--------------0000000000---------------0000000000------|
       .     .   .   .              ..........               ..........

D|---------------------------------------------------------------------------|
A|---------------------------------------------------------------------------|
F|---------------------------------------------------------------------------|
C|-2h3p2p0h2p0---------------2h3p2p0-----------------------------------------|
G|--------------0000000000--------------------5---7---8----------------------|
C|--------------0000000000------------5h7-5-8---5---5---5--------------------|
                ..........                .     .   .   .

D|---------------------------------------------------------------------------|
A|---------------------------------------------------------------------------|
F|--------------------------7777777777777777777777777777777777777777---------|
C|--------------------------xxxxxxxxxxxxxxxxxxxxxxxxxxxxxxxxxxxxxxxx---------|
G|-000000000000000000000000-5555555555555555555555555555555555555555---------|
C|-000000000000000000000000--------------------------------------------------|
   ........................

D|---------------------------------------------------------------------------|
A|-------------------------------------10------------------------------------|
F|-------------10p9----9----10-10p9----------10-10p9----9----10----12----10--|
C|-12-12-12-12------12---12---------12----12---------12---12----12----12-----|
G|---------------------------------------------------------------------------|
C|---------------------------------------------------------------------------|
   .  .  .  .       .    .          .     .          .    .     .     .

D|---------------------------------------------------------------------------|
A|---------------------------------------------------------------------------|
F|----9-----[repeat chorus riff 8times]--------------------------------------|
C|-12--------------------------------------0-----------------0---------------|
G|-----------------------------------------0-----------------0---------------|
C|-----------------------------------------0-----------------0------------3*-|
   .

D|---------------------------------------------------------------------------|
A|---------------------------------------------------------------------------|
F|---------------------------------------------------------------------------|
C|---------------------------------------------------------------------------|
G|-000000000-0-000000000000000-0-000000000000000-0-00000000-0000001111111111-|
C|-000000000-0-000000000000000-0-000000000000000-0-00000000-3333330055555555-|
   .........   ...............   ...............   ........

D|---------------------------------------------------------------------------|
A|---------------------------------------------------------------------------|
F|---------------------------------------------------------------------------|
C|---------------------------------------------------------------------------|
G|-000000000-0-000000000000000-0-000000000000000-0-00000000-0000001111111111-|
C|-000000000-0-000000000000000-0-000000000000000-0-00000000-3333330055555555-|
   .........   ...............   ...............   ........

D|---------------------------------------------------------------------------|
A|---------------------------------------------------------------------------|
F|---------------------------------------------------------------------------|
C|----------------[triplets]-------[triplets]--------------------------------|
G|-000000000-0-000000000000000-0-000000000000000-0-00000000-0000001111111111-|
C|-000000000-0-000000000000000-0-000000000000000-0-00000000-3333330055555555-|
   .........   ...............   ...............   ........

D|---------------------------------------------------------------------------|
A|---------------------------------------------------------------------------|
F|---------------------------------------------------------------------------|
C|-----------------[triplets]------------------------------------------------|
G|-000000000-0-000000000000000-0-00000-00000000000000001111111111111111------|
C|-000000000-0-000000000000000-0-00000-33333333333333335555555555555555------|
   .........   ...............   .....

D|---------------------------------------------------------------------------|
A|-------------------------------------10------------------------------------|
F|-------------10p9----9----10-10p9----------10-10p9----9----10----12----10--|
C|-12-12-12-12------12---12---------12----12---------12---12----12----12-----|
G|---------------------------------------------------------------------------|
C|---------------------------------------------------------------------------|
   .  .  .  .       .    .          .     .          .    .     .     .

D|---------------------------------------------------------------------------|
A|---------------------------------------------------------------------------|
F|----9-----[repeat chorus riff 8 times]-------------------------------------|
C|-12------------------------------------------------------------------------|
G|---------------------------------------------------------------------------|
C|---------------------------------------------------------------------------|
   .

D|---------------------------------------------------------------------------|
A|---------------------------------------------------------------------------|
F|---------------------------------------------------------------------------|
C|---------------------------------------------------------------------------|
G|---------------------------------------------------------------------------|
C|-0h7h12-0h7h12-0h12-0h7h12-0h12-0h8p5—0h7h12-0h7h12-0h12-0h7h12-0h12-0h8p5-|

D|---------------------------------------------------------------------------|
A|---------------------------------------------------------------------------|
F|---------------------------------------------------------------------------|
C|---------------------------------------------------------------------------|
G|---------------------------------------------------------------------00----|
C|-0h7h12-0h7h12-0h12-0h7h12-0h12-0h8p5—0h7h12-0h7h12-0h12-0h7h12-0h12-00----|
                                                                       ..

| .  palm mute
| /  slide up
| \  slide down
| h  hammer-on
| p  pull-off
| ~  vibrato
| +  harmonic
| x  Mute note
===============================================================================

comments
We did not receive enough feedback on this tab! Please rate:
print report bad tab
1 2 3 4 5
2 comments total.
0 reply
FIGJAMpAnAnAz wrote on May 24 2011, 01:57 am

very good cover man, but i believe the power chord leading into the verse is this
D|------------|
A|-10-10-10-10|
F|-7- 7- 7-7 |
C|-0- 0- 0- 0|
G|------------|
C|------------|
Obviously you would play it for longer, but this just sounds more correct in my opinion

0 reply
FIGJAMpAnAnAz wrote on May 24 2011, 01:58 am

Shit this is a correction for my correction, i mean thats the power chord leading into the CHORUS sorry =3

I want to post or [tab]
guest
You may want to rate the tab now too:
select rating
Please do not post tabs as comments. Select "correction" instead!