Oops, an error
Loading. Please wait.

Collision Bass Tab

864 views 3 this week
no commentswrite comment
1 2 3 4 5
please rate
Autoscroll
+/-
esc
set tempo
stop
Contributor
Difficulty
Tuning
novice
C G C F A D
WARNING: You are trying to view
                                    content from Ultimate-Guitar.com
                                    in an unauthorized application,
                                    which is prohibited.

                                    Please use an official Ultimate
                                    Guitar Tabs application for iPhone,
                                    iPad or Android to access legitimate
                                    chords, guitar, bass, and drum tabs
                                    from Ultimate-Guitar.com database.

                                    Type "ultimate guitar tabs" in Apple
                                    App Store's or Android Market's
                                    search to find the application.
                                  Collision                                     


                                As I Lay Dying

Tabbed by-Trevor Winchenbaugh
Email-ZeroSkater7286@aol.com
AIM-AoA Avenge SOB




     Q    E  E  E  E  E  E     E  E  E  E  E  E  E  E   
F||-------------------------|--------------------------|
C||-------------------------|--------------------------|
G||-------------------------|--------------------------|
C||--0----0--0--0--0--0--0--|--0--0--0--0--5--5--7--8--|


  E  E  E  E  E  E  E  E     E  E  E  E  E  E  E  E   
--------------------------|--------------------------|
--------------------------|--------------------------|
--------------------------|--------------------------|
--L--8--8--8--8--8--8--8--|--8--8--8--8--8--8--8--0--|


  E  E  E  E  E  E  E  E     E  E  E  E  E  E  E  E   
--------------------------|--------------------------|
--------------------------|--------------------------|
--------------------------|--------------------------|
--L--0--0--0--0--0--0--0--|--0--0--0--0--5--5--7--8--|


  E  E  E  E  E  E  E  E     E  E  E  E  E  E  E  E   
--------------------------|--------------------------|
--------------------------|--------------------------|
--------------------------|--------------------------|
--L--8--8--8--8--8--8--8--|--8--8--8--8--8--8--8--0--|


  E  E  E  E  E  E  E  E     E  E  E  E  E  E  E  E   
--------------------------|--------------------------|
--------------------------|--------------------------|
--------------------------|--------------------------|
--L--0--0--0--0--0--0--0--|--0--0--0--0--5--5--7--8--|


  E  E  E  E  E  E  E  E     E  E  E  E  E  E  E  E   
--------------------------|--------------------------|
--------------------------|--------------------------|
--------------------------|--------------------------|
--L--8--8--8--8--8--8--8--|--8--8--8--8--8--8--8--0--|


  E  E  E  E  E  E  E  E     E  E  E  E  E  E  E  E   
--------------------------|--------------------------|
--------------------------|--------------------------|
--------------------------|--------------------------|
--L--0--0--0--0--0--0--0--|--0--0--0--0--5--5--7--8--|


  E  E  E  E  E  E  E  E     E  E  E  E  E  E  Q       E  E  E  Q    E  E  E   
--------------------------|-------------------------|-------------------------|
--------------------------|-------------------------|-------------------------|
--------------------------|-------------------------|-------------------------|
--L--8--8--8--8--8--8--8--|--8--8--8--8--8--8--8----|--0--0--0-------0-----0--|


  E  E  E  E  E  E  E  E     E  E  E  Q    E  E  E   
--------------------------|-------------------------|
--------------------------|-------------------------|
--------------------------|-------------------------|
--L--0--0-----------------|--0--0--0-------0-----8--|


  E  E  E  E   S  S  S  S  S  S  S  S    E  E  E  E  E  E  E  E   
--------------------------------------|--------------------------|
--------------------------------------|--------------------------|
--------------------------------------|--------------------------|
--L--8--8-----10-10-10-10-10-10-10-10-|--0--0--0--0--0--0--0--0--|


  E  E  E  E  E  E  E  E     E  E  E  E  E  E  E  E   
--------------------------|--------------------------|
--------------------------|--------------------------|
--------------------------|--------------------------|
--L--0--0--0--0--0--0--0--|--0--0--0--0--0--0--0--8--|


  E  E  Q     S  S  S  S  S  S  S  S    E  E  E  E  E  E  E  E   
-------------------------------------|--------------------------|
-------------------------------------|--------------------------|
-------------------------------------|--------------------------|
--L--8--8----10-10-10-10-10-10-10-10-|--0--0--0--0--0--0--0--0--|


  E  E  E  E  E  E  E  E     E  E  E  E  E  E  E  E   
--------------------------|--------------------------|
--------------------------|--------------------------|
--------------------------|--------------------------|
--L--0--0--0--0--0--0--0--|--0--0--0--0--0--0--0--8--|


  E  E  Q    S S S S S S S S    E  E  E  E  E  E  E  E   
-----------------------------|--------------------------|
-----------------------------|--------------------------|
-----------------------------|--------------------------|
--L--8--8----5-5-5-5-5-5-5-5-|--0--0--0--0--0--0--0--0--|


  E  E  E  E  E  E  E  E     E  E  E  E  E  E  E  E   
--------------------------|--------------------------|
--------------------------|--------------------------|
--------------------------|--------------------------|
--L--0--0--0--0--0--0--0--|--0--0--0--0--0--0--0--8--|


  E  E  Q     S  S  S  S  S  S  S  S    E  E  E  E  E  E  E  E   
-------------------------------------|--------------------------|
-------------------------------------|--------------------------|
-------------------------------------|--------------------------|
--L--8--8----10-10-10-10-10-10-10-10-|--0--0--0--0--0--0--0--0--|


  E  E  E  E  E  E  E  E     E  E  E  E  E  E  E  E   
--------------------------|--------------------------|
--------------------------|--------------------------|
--------------------------|--------------------------|
--L--0--0--0--0--0--0--0--|--0--0--0--0--0--0--0--8--|


  E  E  Q    S S S S S S S S    E  E  E  E  E  E  E  E   
-----------------------------|--------------------------|
-----------------------------|--------------------------|
-----------------------------|--------------------------|
--L--8--8----5-5-5-5-5-5-5-5-|--0--0--0--0--0--0--0--8--|


  E  E  E  E  E  E  E  E     E  E  E  E  E  E  E  E   
--------------------------|--------------------------|
--------------------------|--------------------------|
--------------------------|--------------------------|
--L--8--8--8--5--5--5--5--|--0--0--0--0--0--0--0--8--|


  E  E  E  E   E   E   E   E     E  E  E  E  E  E  E  E   
------------------------------|--------------------------|
------------------------------|--------------------------|
------------------------------|--------------------------|
--L--8--8--8--10--10--10--10--|--0--0--0--0--0--0--0--8--|


  E  E  E  E  E  E  E  E     E  E  E  E  E  E  E  E   
--------------------------|--------------------------|
--------------------------|--------------------------|
--------------------------|--------------------------|
--L--8--8--8--5--5--5--5--|--0--0--0--0--0--0--0--8--|


  E  E  E  E   E   E   E   E     E  E  E  E  E  E  E  E   
------------------------------|--------------------------|
------------------------------|--------------------------|
------------------------------|--------------------------|
--L--8--8--8--10--10--10--10--|--0--0--0--0--0--0--0--8--|


  E  E  E  E  E  E  E  E     E  E  E  E  E  E  E  E   
--------------------------|--------------------------|
--------------------------|--------------------------|
--------------------------|--------------------------|
--L--8--8--8--5--5--5--5--|--0--0--0--0--0--0--0--8--|


  E  E  E  E   E   E   E   E     E  E  E  E  E  E  E  E   
------------------------------|--------------------------|
------------------------------|--------------------------|
------------------------------|--------------------------|
--L--8--8--8--10--10--10--10--|--0--0--0--0--0--0--0--8--|


  E  E  E  E  E  E  E  E     E  E  E  E  E  E  E  E   
--------------------------|--------------------------|
--------------------------|--------------------------|
--------------------------|--------------------------|
--L--8--8--8--5--5--5--5--|--0--0--0--0--0--0--0--8--|


  E  E  E  E   E   E   E   E     E  E  E  E  E  E  E  E   
------------------------------|--------------------------|
------------------------------|--------------------------|
------------------------------|--------------------------|
--L--8--8--8--10--10--10--10--|--0--0--0--0--0--0--0--0--|


  E  E  E  E  E  E  E  E     E  E  E  E  E  E  E  E   
--------------------------|--------------------------|
--------------------------|--------------------------|
--------------------------|--------------------------|
--L--0--0--0--0--0--0--0--|--0--0--0--0--0--0--0--8--|


  E  E  Q     S  S  S  S  S  S  S  S    E  E  E  E  E  E  E  E   
-------------------------------------|--------------------------|
-------------------------------------|--------------------------|
-------------------------------------|--------------------------|
--L--8--8----10-10-10-10-10-10-10-10-|--0--0--0--0--0--0--0--0--|


  E  E  E  E  E  E  E  E     E  E  E  E  E  E  E  E   
--------------------------|--------------------------|
--------------------------|--------------------------|
--------------------------|--------------------------|
--L--0--0--0--0--0--0--0--|--0--0--0--0--0--0--0--8--|


  E  E  Q    S S S S S S S S    E  E  E  E  E  E  E  E   
-----------------------------|--------------------------|
-----------------------------|--------------------------|
-----------------------------|--------------------------|
--L--8--8----5-5-5-5-5-5-5-5-|--0--0--0--0--0--0--0--0--|


  E  E  E  E  E  E  E  E     E  E  E  E  E  E  E  E   
--------------------------|--------------------------|
--------------------------|--------------------------|
--------------------------|--------------------------|
--5--5--5--5--7--7--7--7--|--0--0--0--0--0--0--0--0--|


  E  E  E  E  E  E  E  E     E  E  E  E  E  E  E  E   
--------------------------|--------------------------|
--------------------------|--------------------------|
--------------------------|--------------------------|
--8--8--8--8--5--5--5--5--|--0--0--0--0--0--0--0--0--|


  E  E  E  E  E  E  E  E     E  E  E  E  E  E  E  E   
--------------------------|--------------------------|
--------------------------|--------------------------|
--------------------------|--------------------------|
--5--5--5--5--7--7--7--7--|--0--0--0--0--0--0--0--0--|


  E  E  E  E  E  E  E  E     E  E  E  E  E  E  E  E   
--------------------------|--------------------------|
--------------------------|--------------------------|
--------------------------|--------------------------|
--8--8--8--8--5--5--5--5--|--0--0--0--0--0--0--0--0--|


  E  E  E  E  E  E  E  E     E  E  E  E  E  E  E  E   
--------------------------|--------------------------|
--------------------------|--------------------------|
--------------------------|--------------------------|
--5--5--5--5--7--7--7--7--|--0--0--0--0--0--0--0--0--|


  E  E  E  E  E  E  E  E     E  E  E  E  E  E  E  E   
--------------------------|--------------------------|
--------------------------|--------------------------|
--------------------------|--------------------------|
--8--8--8--8--5--5--5--5--|--0--0--0--0--0--0--0--0--|


  E  E  E  E  E  E  E  E     E  E  E  E  E  E  E  E   
--------------------------|--------------------------|
--------------------------|--------------------------|
--------------------------|--------------------------|
--5--5--5--5--7--7--7--7--|--0--0--0--0--0--0--0--0--|


  E  E  E  E  E  E  E  E     E  E  E  E  E  E  S S S S  
--------------------------|----------------------------|
--------------------------|----------------------------|
--------------------------|----------------------------|
--8--8--8--8--5--5--5--5--|--0--0--0-----------0-0-0-0-|


  E  E  E  E  E  E  E  E     E  E  E  E  E  E  S S S S  
--------------------------|----------------------------|
--------------------------|----------------------------|
--------------------------|----------------------------|
--5--5--5-----7--7--7-----|--0--0--0-----------0-0-0-0-|


  E  E  E  E  E  E  E  E     E  E  E  E  E  E  S S S S  
--------------------------|----------------------------|
--------------------------|----------------------------|
--------------------------|----------------------------|
--8--8--8-----5--5--5-----|--0--0--0-----------0-0-0-0-|


  E  E  E  E  E  E  E  E     E  E  E  E  E  E  S S S S  
--------------------------|----------------------------|
--------------------------|----------------------------|
--------------------------|----------------------------|
--5--5--5-----7--7--7-----|--0--0--0-----------0-0-0-0-|


  E  E  E  E  E  E  E  E     E  E  E  E  E  E  S S S S  
--------------------------|----------------------------|
--------------------------|----------------------------|
--------------------------|----------------------------|
--8--8--8-----5--5--5-----|--0--0--0-----------0-0-0-0-|


  E  E  E  E  E  E  E  E     E  E  E  E  E  E  S S S S  
--------------------------|----------------------------|
--------------------------|----------------------------|
--------------------------|----------------------------|
--5--5--5-----7--7--7-----|--0--0--0-----------0-0-0-0-|


  E  E  E  E  E  E  E  E     E  E  E  E  E  E  S S S S  
--------------------------|----------------------------|
--------------------------|----------------------------|
--------------------------|----------------------------|
--8--8--8-----5--5--5-----|--0--0--0-----------0-0-0-0-|


  E  E  E  E  E  E  E  E     E  E  E  E  E  E  S S S S  
--------------------------|----------------------------|
--------------------------|----------------------------|
--------------------------|----------------------------|
--5--5--5-----7--7--7-----|--0--0--0-----------0-0-0-0-|


  E  E  E  E  E  E  E  E     E  E  E  E  E  E  S S S S  
--------------------------|----------------------------|
--------------------------|----------------------------|
--------------------------|----------------------------|
--8--8--8-----5--5--5-----|--0--0--0-----------0-0-0-0-|


  E  E  E  E  E  E  E  E     E  E  E  E  E  E  S S S S  
--------------------------|----------------------------|
--------------------------|----------------------------|
--------------------------|----------------------------|
--5--5--5-----7--7--7-----|--0--0--0-----------0-0-0-0-|


  E  E  E  E  E  E  E  E     E  E  E  E  E  E  E  E   
--------------------------|--------------------------|
--------------------------|--------------------------|
--------------------------|--------------------------|
--8--8--8-----5--5--5-----|--0--0--0--0--0--0--0--0--|


  E  E  E  E  E  E  E  E     E  E  E  E  E  E  E  E   
--------------------------|--------------------------|
--------------------------|--------------------------|
--------------------------|--------------------------|
--5--5--5--5--7--7--7--7--|--0--0--0--0--0--0--0--0--|


  E  E  E  E  E  E  E  E     E  E  E  E  E  E  E  E   
--------------------------|--------------------------|
--------------------------|--------------------------|
--------------------------|--------------------------|
--8--8--8--8--5--5--5--5--|--0--0--0--0--0--0--0--8--|


  E  E  E  E  E  E  E  E     E  E  E  E  E  E  E  E   
--------------------------|--------------------------|
--------------------------|--------------------------|
--------------------------|--------------------------|
--L--8--8--8--5--5--5--5--|--0--0--0--0--0--0--0--8--|


  E  E  E  E   E   E   E   E     E  E  E  E  E  E  E  E   
------------------------------|--------------------------|
------------------------------|--------------------------|
------------------------------|--------------------------|
--L--8--8--8--10--10--10--10--|--0--0--0--0--0--0--0--8--|


  E  E  E  E  E  E  E  E     E  E  E  E  E  E  E  E   
--------------------------|--------------------------|
--------------------------|--------------------------|
--------------------------|--------------------------|
--L--8--8--8--5--5--5--5--|--0--0--0--0--0--0--0--8--|


  E  E  E  E   E   E   E   E     E  E  E  E  E  E  E  E   
------------------------------|--------------------------|
------------------------------|--------------------------|
------------------------------|--------------------------|
--L--8--8--8--10--10--10--10--|--0--0--0--0--0--0--0--8--|


  E  E  E  E  E  E  E  E     E  E  E  E  E  E  E  E   
--------------------------|--------------------------|
--------------------------|--------------------------|
--------------------------|--------------------------|
--L--8--8--8--5--5--5--5--|--0--0--0--0--0--0--0--8--|


  E  E  E  E   E   E   E   E     E  E  E  E  E  E  E  E   
------------------------------|--------------------------|
------------------------------|--------------------------|
------------------------------|--------------------------|
--L--8--8--8--10--10--10--10--|--0--0--0--0--0--0--0--8--|


  E  E  E  E  E  E  E  E     E  E  E  E  E  E  E  E   
--------------------------|--------------------------|
--------------------------|--------------------------|
--------------------------|--------------------------|
--L--8--8--8--5--5--5--5--|--0--0--0--0--0--0--0--8--|


  E  E  E  E   E   E   E   E     Q    E  E  E  E  E  E   
------------------------------|-------------------------|
------------------------------|-------------------------|
------------------------------|-------------------------|
--L--8--8--8--10--10--10--10--|--0----0--0--0--0--0--0--|


  E  E  E  E  E  E  E  E     E  E  E  E  E  E  E  E   
--------------------------|--------------------------|
--------------------------|--------------------------|
--------------------------|--------------------------|
--0--0--0--0--5--5--7--8--|--L--8--8--8--8--8--8--8--|


  E  E  E  E  E  E  E  E     E  E  E  E  E  E  E  E   
--------------------------|--------------------------|
--------------------------|--------------------------|
--------------------------|--------------------------|
--8--8--8--8--8--8--8--0--|--L--0--0--0--0--0--0--0--|


  E  E  E  E  E  E  E  E     E  E  E  E  E  E  E  E   
--------------------------|--------------------------|
--------------------------|--------------------------|
--------------------------|--------------------------|
--0--0--0--0--5--5--7--8--|--L--8--8--8--8--8--8--8--|


  E  E  E  E  E  E  E  E     E  E  E  E  E  E  E  E   
--------------------------|--------------------------|
--------------------------|--------------------------|
--------------------------|--------------------------|
--8--8--8--8--8--8--8--0--|--L--0--0--0--0--0--0--0--|


  E  E  E  E  E  E  E  E     E  E  E  E  E  E  E  E   
--------------------------|--------------------------|
--------------------------|--------------------------|
--------------------------|--------------------------|
--0--0--0--0--5--5--7--8--|--L--8--8--8--8--8--8--8--|


  E  E  E  E  E  E  E  E     E  E  E  E  E  E  E  E   
--------------------------|--------------------------|
--------------------------|--------------------------|
--------------------------|--------------------------|
--8--8--8--8--8--8--8--0--|--L--0--0--0--0--0--0--0--|


  E  E  E  E  E  E  E  E     E  E  E  E  E  E  E  E     E  E  E  E  E  E  Q     
--------------------------|--------------------------|-------------------------|
--------------------------|--------------------------|-------------------------|
--------------------------|--------------------------|-------------------------|
--0--0--0--0--5--5--7--8--|--L--8--8--8--8--8--8--8--|--8--8--8--8--8--8--8----|


  E  E  E  E  E  E  E  E     E  E  E  E  E  E  E  E   
--------------------------|--------------------------|
--------------------------|--------------------------|
--------------------------|--------------------------|
--0--0--0--0--0--0--0--0--|--L--0--0--0--0--0--0--0--|


  E  E  E  E  E  E  E  E     E  E  Q     S  S  S  S  S  S  S  S  
--------------------------|-------------------------------------|
--------------------------|-------------------------------------|
--------------------------|-------------------------------------|
--0--0--0--0--0--0--0--8--|--L--8--8----10-10-10-10-10-10-10-10-|


  E  E  E  E  E  E  E  E     E  E  E  E  E  E  E  E   
--------------------------|--------------------------|
--------------------------|--------------------------|
--------------------------|--------------------------|
--0--0--0--0--0--0--0--0--|--L--0--0--0--0--0--0--0--|


  E  E  E  E  E  E  E  E     E  E  Q    S S S S S S S S  
--------------------------|-----------------------------|
--------------------------|-----------------------------|
--------------------------|-----------------------------|
--0--0--0--0--0--0--0--8--|--L--8--8----5-5-5-5-5-5-5-5-|


  E  E  E  E  E  E  E  E     E  E  E  E  E  E  E  E   
--------------------------|--------------------------|
--------------------------|--------------------------|
--------------------------|--------------------------|
--0--0--0--0--0--0--0--0--|--L--0--0--0--0--0--0--0--|


  E  E  E  E  E  E  E  E     E  E  Q     S  S  S  S  S  S  S  S  
--------------------------|-------------------------------------|
--------------------------|-------------------------------------|
--------------------------|-------------------------------------|
--0--0--0--0--0--0--0--8--|--L--8--8----10-10-10-10-10-10-10-10-|


  E  E  E  E  E  E  E  E     E  E  E  E  E  E  E  E   
--------------------------|--------------------------|
--------------------------|--------------------------|
--------------------------|--------------------------|
--0--0--0--0--0--0--0--0--|--L--0--0--0--0--0--0--0--|


  E  E  E  E  E  E  E  E     E  E  Q    S S S S S S S S  
--------------------------|-----------------------------|
--------------------------|-----------------------------|
--------------------------|-----------------------------|
--0--0--0--0--0--0--0--8--|--L--8--8----5-5-5-5-5-5-5-5-|


  E  E  E  E  E  E  E  E     E  E  E  E  E  E  E  E    
--------------------------|--------------------------||
--------------------------|--------------------------||
--------------------------|--------------------------||
--0--0--0--------0-----0--|--L--0--0-----------------||




Duration Legend
---------------
W - whole
H - half
Q - quarter
E - 8th
S - 16th
T - 32nd
X - 64th
. - note dotted
|-n-|  - n-tuplets


Tablature Legend
----------------
L - tied note
x - dead note
g - grace note
(n) - ghost note
> - accentuded note
NH - natural harmonic
AH - artificial harmonic
TH - tapped harmonic
SH - semi harmonic
PH - pitch harmonic
h - hammer on
p - pull off
b - bend
br - bendRelease
pb - preBend
pbr - preBendRelease
brb - bendReleaseBend
\n/ - tremolo bar dip
\n - tremolo bar dive
-/n - tremolo bar Release up
/n\ - tremolo bar inverted dip
/n - tremolo bar return
-\n - tremolo bar Release down
S - shift slide
s - legato slide
/ -  slide into from below or out of upwards
\ -  slide into from above or out of downwards
~ - vibrato
W - wide vibrato
tr - trill
TP - tremolo picking
T - tapping
S - slap
P - pop
< - fade in
^ - brush up
v - brush down
comments
We did not receive enough feedback on this tab! Please rate:
1 2 3 4 5
I want to post or [tab]
guest
You may want to rate the tab now too:
select rating
Please do not post tabs as comments. Select "correction" instead!