Oops, an error
Loading. Please wait.

Collision Tab

ver3
ver3

Whole song

Interactive

More versions @911Tabs.com
763 views 1 this week
4 commentsread comments
1 2 3 4 5
accurate
x 3
Autoscroll
+/-
esc
set tempo
stop
Contributor
WARNING: You are trying to view
                                    content from Ultimate-Guitar.com
                                    in an unauthorized application,
                                    which is prohibited.

                                    Please use an official Ultimate
                                    Guitar Tabs application for iPhone,
                                    iPad or Android to access legitimate
                                    chords, guitar, bass, and drum tabs
                                    from Ultimate-Guitar.com database.

                                    Type "ultimate guitar tabs" in Apple
                                    App Store's or Android Market's
                                    search to find the application.
I'm Very Sorry about this tab.this is actually Meaning In Tradgedy and if i 
would've been paying close attention i would've noticed that.sorry for the 
inconvienonce (also sorry if i spelled that wrong.lol.)

Tunnings:
Gtr I (C G C F A D) - '1'
Gtr II (C G C F A D) - '2'
Gtr III (C G C F A D) - '3'

 Intro
  Q=177
 4/4
  Gtrs I, II
    PM    PM  PM    PM        PM  PM    PM    PM  PM     PM         PM
|-----------------|-----------------|-----------------|--------------------|
|-----------------|-----------------|-----------------|--------------------|
|-----------------|---------2-------|-----------------|-----------2--------|
|-3---2-----------|---5-3-5-----5---|-3---2-----------|-----3-2-3-----5----|
|-------3---0---1-|-----------------|-------3---0---1-|--------------------|
|---0-----0---0---|-0---------0---0-|---0-----0---0---|--0----------0---0--|
|
| Gtr III
|-----------------|-----------------|-----------------|--------------------|
|-----------------|-----------------|-----------------|--------------------|
|-----------------|-----------------|-----------------|--------------------|
|-3---------7---8-|-----------------|-3---------7---5-|-(5)-------3--------|
|-3---------7---8-|-----------------|-3---------7---5-|-(5)-------3--------|
|-3---------7---8-|-----------------|-3---------7---5-|-(5)-------3--------|


  Gtrs I, II
    PM     PM  PM    PM        PM  PM    PM     PM  PM     PM         PM
|------------------|-----------------|------------------|------------------|
|------------------|-----------------|------------------|------------------|
|------------------|---------2-------|------------------|-----------2------|
|-3---2------------|---5-3-5-----5---|-3---2------------|-----3-2-3-----5--|
|--------3---0---1-|-----------------|--------3---0---1-|------------------|
|---0------0---0---|-0---------0---0-|---0------0---0---|--0----------0---0|
|
| Gtr III
|------------------|-----------------|------------------|------------------|
|------------------|-----------------|------------------|------------------|
|------------------|-----------------|------------------|------------------|
|-3-----10---7---8-|-----------------|-3-----10---7---5-|-(5)-------3------|
|-3-----10---7---8-|-----------------|-3-----10---7---5-|-(5)-------3------|
|-3-----10---7---8-|-----------------|-3-----10---7---5-|-(5)-------3------|


 Verse
  Gtr I
    PM    PM  PM    PM         PM  PM    PM    PM  PM    PM         PM
|-----------------|------------------|-----------------|------------------|
|-----------------|------------------|-----------------|------------------|
|-----------------|----------2-------|-----------------|----------2-------|
|-3---2-----------|---5-3-5------5---|-3---2-----------|---3-2-3------5---|
|-------3---0---1-|------------------|-------3---0---1-|------------------|
|---0-----0---0---|-0----------0---0-|---0-----0---0---|-0----------0---0-|
|
| Gtr II
|   PM    PM  PM    PM         PM  PM    PM    PM  PM    PM         PM
|-----------------|------------------|-----------------|------------------|
|-----------------|------------------|-----------------|------------------|
|-2---------------|------------------|-2---------------|---2-0-2----------|
|-----5-3---------|---2-0-2-/3---2---|-----5-3---------|---------/3---2---|
|-----------3---1-|------------------|-----------3---1-|------------------|
|---0-----0---0---|-0----------0---0-|---0-----0---0---|-0----------0---0-|


  Gtr I
        PM    PM  PM     PM           PM  PM
|---------------------|---------------------|
|---------------------|---------------------|
|---------------------|------------2--------|
|-3-------2-----------|-----5-3-5-------5---|
|-----------3---0---1-|---------------------|
|-------0-----0---0---|--0------------0---0-|
|
| Gtr II
|       PM    PM  PM     PM           PM  PM
|---------------------|---------------------|
|---------------------|---------------------|
|-2-------------------|---------------------|
|---------5-3---------|-----2-0-2-/3----2---|
|---------------3---1-|---------------------|
|-------0-----0---0---|--0------------0---0-|
|
| Gtr III
|---------------------|---------------------|
|-8b10================|=[8]r======(8)-------|
|---------------------|---------------------|
|---------------------|---------------------|
|---------------------|---------------------|
|---------------------|---------------------|


       PM     PM   PM       PM             PM
|-----------------------|------------------------|
|-----------------------|------------------------|
|-----------------------|----------------2-------|
|---3----2--------------|------3---2--3------5---|
|-----------3----0----1-|------------------------|
|------0------0----0----|---0--------------0---0-|
|
|      PM     PM   PM       PM             PM
|-----------------------|------------------------|
|-----------------------|------------------------|
|---2-------------------|------2---0--2----------|
|--------5--3-----------|---------------/3---2---|
|----------------3----1-|------------------------|
|------0------0----0----|---0--------------0---0-|
|
|                     ~~~~~~~~~          ~~
|-----------------------|------------------------|
|-/11-10-8-10-8---------|------------------------|
|---------------10-9-10-|-(10)---/12-10--9-------|
|-----------------------|------------------------|
|-----------------------|------------------------|
|-----------------------|------------------------|


  Gtrs I, II
       PM    PM  PM      PM         PM  PM    PM    PM  PM    PM        PM
|--------------------|--------------------|-----------------|---------------
|--------------------|--------------------|-----------------|---------------
|--------------------|------------2-------|-----------------|---------2-----
|---3----2-----------|------5-3-5-----5---|-3---2-----------|---3-2-3-----5-
|----------3---0---1-|--------------------|-------3---0---1-|---------------
|------0-----0---0---|---0----------0---0-|---0-----0---0---|-0---------0--0
|
| Gtr III
|--------------------|--------------------|-----------------|--------------|
|--------------------|--------------------|-----------------|--------------|
|-[12]---------------|-(12)---------------|-----------------|--------------|
|--------------------|--------------------|-----------------|--------------|
|--------------------|--------------------|-----------------|--------------|
|--------------------|--------------------|-----------------|--------------|


  Gtrs I, II
    PM    PM  PM    PM        PM  PM    PM    PM  PM    PM        PM
|-----------------|-----------------|-----------------|-----------------|
|-----------------|-----------------|-----------------|-----------------|
|-----------------|---------2-------|-----------------|---------2-------|
|-3---2-----------|---5-3-5-----5---|-3---2-----------|---3-2-3-----5---|
|-------3---0---1-|-----------------|-------3---0---1-|-----------------|
|---0-----0---0---|-0---------0---0-|---0-----0---0---|-0---------0---0-|


   Verse
    Gtr I
      PM    PM  PM    PM         PM  PM    PM    PM  PM    PM         PM
||------------------|------------------|-----------------|------------------
||------------------|------------------|-----------------|------------------
||------------------|----------2-------|-----------------|----------2-------
||--3---2-----------|---5-3-5------5---|-3---2-----------|---3-2-3------5---
||--------3---0---1-|------------------|-------3---0---1-|------------------
||----0-----0---0---|-0----------0---0-|---0-----0---0---|-0----------0---0-
|
|   Gtr II
|     PM    PM  PM    PM         PM  PM    PM    PM  PM    PM         PM
||------------------|------------------|-----------------|------------------
||------------------|------------------|-----------------|------------------
||--2---------------|------------------|-2---------------|---2-0-2----------
||------5-3---------|---2-0-2-/3---2---|-----5-3---------|---------/3---2---
||------------3---1-|------------------|-----------3---1-|------------------
||----0-----0---0---|-0----------0---0-|---0-----0---0---|-0----------0---0-


 Bridge
  Gtrs I, II
|-----------------|-----------------|
|-----------------|-----------------|
|-7-7-7-7-7-7-7-7-|-7-7-7-7-7-7-7-7-|
|-----------------|-----------------|
|-5-5-5-5-5-5-5-5-|-5-5-5-5-5-5-5-5-|
|-----------------|-----------------|


|-------------------------|---------------------|
|-------------------------|---------------------|
|-14-14-14-14-14-14-14-14-|-12-12-12-12-9-9-9-9-|
|-------------------------|---------------------|
|-12-12-12-12-12-12-12-12-|-10-10-10-10-7-7-7-7-|
|-------------------------|---------------------|


 Pre-Verse
  Q=172
  Gtr I
  PM--|   PM--|     PM--|   PM--|
|-----------------|------------------|
|-----------------|------------------|
|-----------------|------------------|
|-----------------|------------------|
|-0-0-0-5-0-0-0-8-|-0-0-0-7-0-0-0-10-|
|-0-0-0---0-0-0---|-0-0-0---0-0-0----|
|
| Gtr II
| PM--|   PM--|     PM--|   PM--|
|-----------------|------------------|
|-----------------|------------------|
|-----------------|------------------|
|-----------------|------------------|
|-0-0-0---0-0-0---|-0-0-0---0-0-0----|
|-0-0-0---0-0-0---|-0-0-0---0-0-0----|


  PM--|   PM--|     PM--|   PM
|-----------------|--------------------------|
|-----------------|--------------------------|
|-----------------|--------------------------|
|-----------------|--------------------------|
|-0-0-0-5-0-0-0-8-|-0-0-0-7-0---8---7--------|
|-0-0-0---0-0-0---|-0-0-0---0-----------10---|
|
| PM---------------------------------------|
|-----------------|--------------------------|
|-----------------|--------------------------|
|-----------------|--------------------------|
|-----------------|--------------------------|
|-0-0-0-0-0-0-0-0-|-0-0-0-0-0-0-0-0-0-0--0-0-|
|-0-0-0-0-0-0-0-0-|-0-0-0-0-0-0-0-0-0-0--0-0-|


   Verse
    Gtrs I, II
    PM--|   PM------|     PM--|   PM------|
||----------------------|----------------------|
||o---------------------|----------------------|
||----------------------|----------------------|
||----------------------|----------------------|
||o-0-0-0-5-0-0-0-0-0-8-|-0-0-0-7-0-0-0-0-0-10-|
||--0-0-0---0-0-0-0-0---|-0-0-0---0-0-0-0-0----|


  PM--|   PM------|     PM--|   PM
|---------------------|---------------------||
|---------------------|--------------------o||
|---------------------|---------------------||
|---------------------|---------------------||
|-0-0-0-5-0-0-0-0-0-8-|-------7---8-7------o||
|-0-0-0---0-0-0-0-0---|-5-5-5---8-----10----||


  Gtr I
  PM------|   PM--|     PM------|   PM--|
|---------------------|----------------------|
|---------------------|----------------------|
|---------------------|----------------------|
|---------------------|----------------------|
|-0-0-0-0-0-5-0-0-0-8-|-0-0-0-0-0-7-0-0-0-10-|
|-0-0-0-0-0---0-0-0---|-0-0-0-0-0---0-0-0----|
|
| Gtr II
| PM------|   PM--|     PM------|   PM--|
|---------------------|----------------------|
|---------------------|----------------------|
|---------------------|----------------------|
|---------------------|----------------------|
|-0-0-0-0-0-5-0-0-0-8-|-0-0-0-0-0-7-0-0-0-10-|
|-0-0-0-0-0---0-0-0---|-0-0-0-0-0---0-0-0----|


  PM------|   PM--|     PM--|   PM
|---------------------|------------------|
|---------------------|------------------|
|---------------------|------------------|
|---------------------|------------------|
|-0-0-0-0-0-5-0-0-0-8-|-------7---8-7----|
|-0-0-0-0-0---0-0-0---|-5-5-5---8-----10-|
|
| PM------|   PM--|     PM--|   PM
|---------------------|------------------|
|---------------------|------------------|
|---------------------|------------------|
|---------------------|-----------7-5----|
|-0-0-0-0-0-5-0-0-0-8-|-------7--------7-|
|-0-0-0-0-0---0-0-0---|-5-5-5---8--------|


  Gtr I
  PM--|   PM--|   PM    PM--|   PM--|   PM
|---------------------|----------------------|
|---------------------|----------------------|
|---------------------|----------------------|
|---------------------|----------------------|
|-0-0-0-5-0-0-0-0-0-8-|-0-0-0-7-0-0-0-0-0-10-|
|-0-0-0---0-0-0-0-0---|-0-0-0---0-0-0-0-0----|
|
| Gtr II
| PM--|   PM--|   PM    PM--|   PM--|   PM
|---------------------|----------------------|
|---------------------|----------------------|
|---------------------|----------------------|
|---------------------|----------------------|
|-0-0-0-5-0-0-0-0-0-8-|-0-0-0-7-0-0-0-0-0-10-|
|-0-0-0---0-0-0-0-0---|-0-0-0---0-0-0-0-0----|


  PM--|   PM--|   PM    PM--|   PM
|---------------------|------------------|
|---------------------|------------------|
|---------------------|------------------|
|---------------------|------------------|
|-0-0-0-5-0-0-0-0-0-8-|-------7---8-7----|
|-0-0-0---0-0-0-0-0---|-5-5-5---8-----10-|
|
| PM--|   PM--|   PM
|---------------------|------------------|
|---------------------|------------------|
|---------------------|------------------|
|---------------------|-5-------8--------|
|-0-0-0-5-0-0-0-0-0-8-|-5-------8--------|
|-0-0-0---0-0-0-0-0---|-5-------8--------|


   Verse
    Q=177
    Gtrs I, II
      PM    PM  PM    PM        PM  PM    PM    PM  PM    PM        PM
||------------------|-----------------|-----------------|------------------
||o-----------------|-----------------|-----------------|------------------
||------------------|---------2-------|-----------------|---------2--------
||--3---2-----------|---5-3-5-----5---|-3---2-----------|---3-2-3-----5----
||o-------3---0---1-|-----------------|-------3---0---1-|------------------
||----0-----0---0---|-0---------0---0-|---0-----0---0---|-0---------0---0--


    Gtr I
      PM    PM  PM    PM         PM  PM    PM    PM  PM    PM         PM
||------------------|------------------|-----------------|------------------
||------------------|------------------|-----------------|------------------
||------------------|----------2-------|-----------------|----------2-------
||--3---2-----------|---5-3-5------5---|-3---2-----------|---3-2-3------5---
||--------3---0---1-|------------------|-------3---0---1-|------------------
||----0-----0---0---|-0----------0---0-|---0-----0---0---|-0----------0---0-

   Gtr II
     PM    PM  PM    PM         PM  PM    PM    PM  PM    PM         PM
||------------------|------------------|-----------------|------------------
||------------------|------------------|-----------------|------------------
||--2---------------|------------------|-2---------------|---2-0-2----------
||------5-3---------|---2-0-2-/3---2---|-----5-3---------|---------/3---2---
||------------3---1-|------------------|-----------3---1-|------------------
||----0-----0---0---|-0----------0---0-|---0-----0---0---|-0----------0---0-


 Interlude
  Q=172
  Gtrs I, II
|-------------------------|-----------------|
|-------------------------|-----------------|
|-10-10-10-10-10-10-10-10-|-7-7-7-7-7-7-7-7-|
|-------------------------|-----------------|
|--8--8--8--8--8--8--8--8-|-5-5-5-5-5-5-5-5-|
|-------------------------|-----------------|


|-------------------------|-----------------|
|-------------------------|-----------------|
|-10-10-10-10-10-10-10-10-|-9-9-9-9-9-9-9-9-|
|-------------------------|-----------------|
|--8--8--8--8--8--8--8--8-|-7-7-7-7-7-7-7-7-|
|-------------------------|-----------------|


  Gtrs I, II
|-------------------------|-------------------------|
|-------------------------|-------------------------|
|-12-12-12-12-12-12-12-12-|-10-10-10-10-10-10-10-10-|
|-------------------------|-------------------------|
|-10-10-10-10-10-10-10-10-|--8--8--8--8--8--8--8--8-|
|-------------------------|-------------------------|


|-------------------------|-------------------------|
|-------------------------|-------------------------|
|-14-14-14-14-14-14-14-14-|-15-15-15-15-15-15-15-15-|
|-------------------------|-------------------------|
|-12-12-12-12-12-12-12-12-|-13-13-13-13-13-13-13-13-|
|-------------------------|-------------------------|


  Gtrs I, II
|-------------------------|-----------------|
|-------------------------|-----------------|
|-10-10-10-10-10-10-10-10-|-7-7-7-7-7-7-7-7-|
|-------------------------|-----------------|
|--8--8--8--8--8--8--8--8-|-5-5-5-5-5-5-5-5-|
|-------------------------|-----------------|


|-------------------------|-----------------|
|-------------------------|-----------------|
|-10-10-10-10-10-10-10-10-|-9-9-9-9-9-9-9-9-|
|-------------------------|-----------------|
|--8--8--8--8--8--8--8--8-|-7-7-7-7-7-7-7-7-|
|-------------------------|-----------------|


  Gtrs I, II
|-------------------------|-------------------------|
|-------------------------|-------------------------|
|-12-12-12-12-12-12-12-12-|-10-10-10-10-10-10-10-10-|
|-------------------------|-------------------------|
|-10-10-10-10-10-10-10-10-|--8--8--8--8--8--8--8--8-|
|-------------------------|-------------------------|
|
| Gtr III
|-------------------------|-------------------------|
|-------------------------|-------------------------|
|-------------------------|-------------------------|
|-------------------------|-------------------------|
|-------------------------|-------------------------|
|-------------------------|-------------------------|


|-------------------------|-------------------------|
|-------------------------|-------------------------|
|-14-14-14-14-14-14-14-14-|-15-15-15-15-15-15-15-15-|
|-------------------------|-------------------------|
|-12-12-12-12-12-12-12-12-|-13-13-13-13-13-13-13-13-|
|-------------------------|-------------------------|
|
|-------------------------|-------------------------|
|-------------------------|-------------------------|
|-------------------------|--------------9-----9-10-|
|-------------------------|--8--7--8-10----12-------|
|-------------------------|-------------------------|
|-------------------------|-------------------------|


 Verse
  Q=177
  Gtrs I, II
|-------------------------|-------------------------|
|-------------------------|-------------------------|
|-10-10-10-10-10-10-10-10-|-10-10-10-10-10-10-10-10-|
|-------------------------|-------------------------|
|--8--8--8--8--8--8--8--8-|--8--8--8--8--8--8--8--8-|
|-------------------------|-------------------------|
|
| Gtr III
|-------------------------|-------------------------|
|-------------------------|-------------------------|
|--0--0-12p=0--0-10p=0--0-|--9--7p=0-10p=0--0--9--5-|
|-------------------------|-------------------------|
|-------------------------|-------------------------|
|-------------------------|-------------------------|


|-------------------------|-------------------------|
|-------------------------|-------------------------|
|-12-12-12-12-12-12-12-12-|-12-12-12-12-12-12-12-12-|
|-------------------------|-------------------------|
|-10-10-10-10-10-10-10-10-|-10-10-10-10-10-10-10-10-|
|-------------------------|-------------------------|
|
|-------------------------|-------------------------|
|-------------------------|-------------------------|
|--0--0-12p=0--0-10p=0--0-|--9--7p=0-10p=0--0--9--5-|
|-------------------------|-------------------------|
|-------------------------|-------------------------|
|-------------------------|-------------------------|


  Gtrs I, II
|-------------------------|-------------------------|
|-------------------------|-------------------------|
|-15-15-15-15-15-15-15-15-|-15-15-15-15-15-15-15-15-|
|-------------------------|-------------------------|
|-13-13-13-13-13-13-13-13-|-13-13-13-13-13-13-13-13-|
|-------------------------|-------------------------|
|
| Gtr III
|-------------------------|-------------------------|
|-------------------------|-------------------------|
|--0--0-12p=0--0-10p=0--0-|--9--7p=0-10p=0--0--9--5-|
|-------------------------|-------------------------|
|-------------------------|-------------------------|
|-------------------------|-------------------------|


|-------------------------|-------------------------|
|-------------------------|-------------------------|
|-14-14-14-14-14-14-14-14-|-14-14-14-14-14-14-14-14-|
|-------------------------|-------------------------|
|-12-12-12-12-12-12-12-12-|-12-12-12-12-12-12-12-12-|
|-------------------------|-------------------------|
|
|-------------------------|-------------------------|
|-------------------------|-------------------------|
|--0--0-12p=0--0-10p=0--0-|--9--7p=0-10p=0--0--9--5-|
|-------------------------|-------------------------|
|-------------------------|-------------------------|
|-------------------------|-------------------------|


  Gtrs I, II
|-------------------------|-------------------------|
|-------------------------|-------------------------|
|-10-10-10-10-10-10-10-10-|-10-10-10-10-10-10-10-10-|
|-------------------------|-------------------------|
|--8--8--8--8--8--8--8--8-|--8--8--8--8--8--8--8--8-|
|-------------------------|-------------------------|
|
| Gtr III
|-------------------------|-------------------------|
|-------------------------|-------------------------|
|--0--0-12p=0--0-10p=0--0-|--9--7p=0-10p=0--0--9--5-|
|-------------------------|-------------------------|
|-------------------------|-------------------------|
|-------------------------|-------------------------|


|-------------------------|-------------------------|
|-------------------------|-------------------------|
|-12-12-12-12-12-12-12-12-|-12-12-12-12-12-12-12-12-|
|-------------------------|-------------------------|
|-10-10-10-10-10-10-10-10-|-10-10-10-10-10-10-10-10-|
|-------------------------|-------------------------|
|
|-------------------------|-------------------------|
|-------------------------|-------------------------|
|--0--0-12p=0--0-10p=0--0-|--9--7p=0-10p=0--0--9--5-|
|-------------------------|-------------------------|
|-------------------------|-------------------------|
|-------------------------|-------------------------|


  Gtrs I, II
|-------------------------|-------------------------|
|-------------------------|-------------------------|
|-15-15-15-15-15-15-15-15-|-15-15-15-15-15-15-15-15-|
|-------------------------|-------------------------|
|-13-13-13-13-13-13-13-13-|-13-13-13-13-13-13-13-13-|
|-------------------------|-------------------------|
|
| Gtr III
|-------------------------|-------------------------|
|-------------------------|-------------------------|
|--0--0-12p=0--0-10p=0--0-|--9--7p=0-10p=0--0--9--5-|
|-------------------------|-------------------------|
|-------------------------|-------------------------|
|-------------------------|-------------------------|


|-------------------------|-------------------------|
|-------------------------|-------------------------|
|-14-14-14-14-14-14-14-14-|-14-14-14-14-14-14-14-14-|
|-------------------------|-------------------------|
|-12-12-12-12-12-12-12-12-|-12-12-12-12-12-12-12-12-|
|-------------------------|-------------------------|
|
|-------------------------|-------------------------|
|-------------------------|-------------------------|
|--0--0-12p=0--0-10p=0--0-|--------------9-----9-10-|
|-------------------------|--8--7--8-10----12-------|
|-------------------------|-------------------------|
|-------------------------|-------------------------|


   Breakdown
    Q=172
    Gtr I
||----------------------|-----------------------|
||o---------------------|-----------------------|
||----------------------|-----------------------|
||----------------------|-----------------------|
||o-------------------5-|---------------------5-|
||--0-0-0-0-0-0-0-0-0---|--0--0-0-0-0-0-0-0-0---|
|
|   Gtr II
||----------------------|-----------------------|
||o---------------------|-----------------------|
||----------------------|-----------------------|
||--0-------------------|-(0)-------------------|
||o-0-------------------|-(0)-------------------|
||--0-------------------|-(0)-------------------|


|-----------------------|-----------------------||
|-----------------------|----------------------o||
|-----------------------|-----------------------||
|-----------------------|-----------------------||
|---------------------5-|-----8---7---8-7------o||
|--0--0-0-0-0-0-0-0-0---|--0----0---0-----10----||
|
|-----------------------|-----------------------||
|-----------------------|----------------------o||
|-----------------------|-----------------------||
|-(0)-------------------|-(0)-------------------||
|-(0)-------------------|-(0)------------------o||
|-(0)-------------------|-(0)-------------------||


    Gtrs I, II
||----------------------|---------------------|
||o---------------------|---------------------|
||----------------------|---------------------|
||----------------------|---------------------|
||o-------------------5-|-------------------5-|
||--0-0-0-0-0-0-0-0-0---|-0-0-0-0-0-0-0-0-0---|


|---------------------|---------------------||
|---------------------|--------------------o||
|---------------------|---------------------||
|---------------------|---------------------||
|-------------------5-|---8---7---8-7------o||
|-0-0-0-0-0-0-0-0-0---|-0---0---0-----10----||


 Outro
  Gtr I
  PM|               PM    PM|               PM
|-----------------------|-----------------------|
|-----------------------|-----------------------|
|-----10p7p0-10p7p0---7-|-----10p7p0-10p7p0---7-|
|-----------------------|-----------------------|
|-----------------------|-----------------------|
|-0-0---------------0---|-0-0---------------0---|
|
| Gtr II
| PM|               PM    PM|               PM
|-----------------------|-----------------------|
|-----------------------|-----------------------|
|------7p5p0--7p5p0-----|------7p5p0--7p5p0-----|
|---------------------7-|---------------------7-|
|-----------------------|-----------------------|
|-0-0---------------0---|-0-0---------------0---|


  PM|               PM    PM   PM  PM
|-----------------------|--------------------|
|-----------------------|--------------------|
|-----10p7p0-10p7p0---7-|---10---9---10-9----|
|-----------------------|-----------------10-|
|-----------------------|--------------------|
|-0-0---------------0---|-0----0---0---------|
|
| PM|               PM    PM   PM  PM
|-----------------------|--------------------|
|-----------------------|--------------------|
|------7p5p0--7p5p0-----|----7---5----7-5----|
|---------------------7-|------------------7-|
|-----------------------|--------------------|
|-0-0---------------0---|-0----0---0---------|


  Gtr I
|-----------------------|-----------------------|
|-----------------------|-----------------------|
|-----10p7p0-10p7p0---7-|-----10p7p0-10p7p0---7-|
|-----------------------|-----------------------|
|-----------------------|-----------------------|
|-0-0---------------0---|-0-0---------------0---|
|
| Gtr II
|-----------------------|-----------------------|
|-----------------------|-----------------------|
|-----------------------|-----------------------|
|------7p5p0--7p5p0-----|------7p5p0--7p5p0-----|
|---------------------5-|---------------------5-|
|-0-0---------------0---|-0-0---------------0---|


|-----------------------|--------------------|
|-----------------------|--------------------|
|-----10p7p0-10p7p0---7-|---10---9---10-9----|
|-----------------------|-----------------10-|
|-----------------------|--------------------|
|-0-0---------------0---|-0----0---0---------|
|
|-----------------------|--------------------|
|-----------------------|--------------------|
|-----------------------|--------------------|
|------7p5p0--7p5p0-----|----7---5----7-5----|
|---------------------5-|------------------5-|
|-0-0---------------0---|-0----0---0---------|


  Gtrs I, II
|----------|------------|------------|--------*|
|----------|------------|------------|--------*|
|----------|------------|------------|--------*|
|-0--------|-(0)--------|-(0)--------|-(0)----*|
|-0--------|-(0)--------|-(0)--------|-(0)----*|
|-0--------|-(0)--------|-(0)--------|-(0)----*|
comments
We did not receive enough feedback on this tab! Please rate:
print report bad tab
1 2 3 4 5
4 comments total. Showing first comments.
+1 reply
yoda7337 wrote on December 24 2008, 12:08 pm

this song is "meaning in tragedy"

+1 reply
yoda7337 wrote on December 24 2008, 12:09 pm

this song is "meaning in tragedy"

+1 reply
yoda7337 wrote on December 24 2008, 12:09 pm

this song is "meaning in tragedy"

I want to post or [tab]
guest
You may want to rate the tab now too:
select rating
Please do not post tabs as comments. Select "correction" instead!