Oops, an error
Loading. Please wait.

Comfort Betrays Tab

ver3
ver3

Solo

Whole song

Interactive

More versions @911Tabs.com
2,346 views 6 this week
1 commentread comment
1 2 3 4 5
accurate
x 1
Autoscroll
+/-
esc
set tempo
stop
Contributor
Tuning
C# G# C# F# A# D#
Hey! There's an official Ultimate Guitar app which is ideal
for learning songs when you're away from computer. Get the app
WARNING: You are trying to view
                                    content from Ultimate-Guitar.com
                                    in an unauthorized application,
                                    which is prohibited.

                                    Please use an official Ultimate
                                    Guitar Tabs application for iPhone,
                                    iPad or Android to access legitimate
                                    chords, guitar, bass, and drum tabs
                                    from Ultimate-Guitar.com database.

                                    Type "ultimate guitar tabs" in Apple
                                    App Store's or Android Market's
                                    search to find the application.
Comfort Betrays


()Legend()

p = Pulloff
\ = Slide down
/ = Slide up
~ = Vibrato
* = Palm mute
b = Bend
r = Release
< = Pick slide

All guitars - Drop C# tuning



Guitar 1 - 0:00 (comes in with some feedback notes)

Guitar 2 - 0:05
|-------------------------------------------|
|-------------------------------------------|
|-------------------------------------------|
|-----------------------------------8-5-8-7-|
|------9p6p0-8p5p0------9p6p0-8p5p0-6-3-6-5-|
|-0000-------------0000---------------------|
  ****             ****
|-----------------------------------|
|-----------------------------------|
|-----------------------------------|
|-----------------------------------|
|------9p6p0-8p5p0------9p6p0-8p5p0-|
|-0000-------------0000-------------|
  ****             ****


Both Guitars - 0:10
|--------|
|--------|
|--------|
|-11-8-5-|
|--9-6-3-|
|--------|



Both Guitars - 0:11
|-------------------------------------------|
|-------------------------------------------|
|-------------------------------------------|
|-----------------------------------8-5-8-7-|
|------9p6p0-8p5p0------9p6p0-8p5p0-6-3-6-5-|
|-0000-------------0000---------------------|
  ****             ****
|--------------------------------------------|
|--------------------------------------------|
|--------------------------------------------|
|-----------------------------------11-8-5-7-|
|------9p6p0-8p5p0------9p6p0-8p5p0--9-6-3-5-|
|-0000-------------0000----------------------|
  ****              ****
|-------------------------------------------|
|-------------------------------------------|
|-------------------------------------------|
|-----------------------------------8-5-8-7-|
|------9p6p0-8p5p0------9p6p0-8p5p0-6-3-6-5-|
|-0000-------------0000---------------------|
  ****             ****
|--------------------------------------------|
|--------------------------------------------|
|--------------------------------------------|
|-----------------------------------11-8-5-7-|
|------9p6p0-8p5p0------9p6p0-8p5p0--9-6-3-5-|
|-0000-------------0000----------------------|
  ****             ****



Both Guitars - 0:23
|--------------------------------------|
|--------------------------------------|
|--------------------------------------|
|------------------------------8-5-8-7-|
|----------9-6-0-----8-5-0-----6-3-6-5-|
|-00000000-------000-------000---------|
  ********       ***       ***
|---------------------------------------|
|---------------------------------------|
|---------------------------------------|
|------------------------------11-8-5-7-|
|----------9-6-0-----8-5-0------9-6-3-5-|
|-00000000-------000-------000----------|
  ********       ***       ***
|--------------------------------------|
|--------------------------------------|
|--------------------------------------|
|------------------------------8-5-8-7-|
|----------9-6-0-----8-5-0-----6-3-6-5-|
|-00000000-------000-------000---------|
  ********       ***       ***
|---------------------------------------|
|---------------------------------------|
|---------------------------------------|
|------------------------------11-8-5-7-|
|----------9-6-0-----8-5-0------9-6-3-5-|
|-00000000-------000-------000----------|
  ********       ***       ***



Both Guitars - 0:33
|-------------------------------------------|
|-------------------------------------------|
|-------------------------------------------|
|-----------------------------------8-5-8-7-|
|------9p6p0-8p5p0------9p6p0-8p5p0-6-3-6-5-|
|-0000-------------0000---------------------|
  ****             ****
|--------------------------------------------|
|--------------------------------------------|
|--------------------------------------------|
|-----------------------------------11-8-5-7-|
|------9p6p0-8p5p0------9p6p0-8p5p0--9-6-3-5-|
|-0000-------------0000----------------------|
  ****              ****
|-------------------------------------------|
|-------------------------------------------|
|-------------------------------------------|
|-----------------------------------8-5-8-7-|
|------9p6p0-8p5p0------9p6p0-8p5p0-6-3-6-5-|
|-0000-------------0000---------------------|
  ****             ****
|--------------------------------------------|
|--------------------------------------------|
|--------------------------------------------|
|-----------------------------------11-8-5-7-|
|------9p6p0-8p5p0------9p6p0-8p5p0--9-6-3-5-|
|-0000-------------0000----------------------|
  ****             ****


Guitar 1 - 0:44
|---------------------------------|
|---------------------------------|
|---------------------------------|
|---------------------------------|
|---------------------------------|
|-000-0-000-000-000-0-000-000-000-|
  *** * *** *** *** * *** *** ***
|----------------------------------|
|----------------------------------|
|----------------------------------|
|----------------------------------|
|----------------------------------|
|-000-0-000-000-000-0-000-000-0000-|
  *** * *** *** *** * *** *** ****
|----------------------------------|
|----------------------------------|
|----------------------------------|
|----------------------------------|
|----------------------------------|
|-000-0-000-000-000-0-000-000-0000-|
  *** * *** *** *** * *** *** ****
|----------------------------------|
|----------------------------------|
|----------------------------------|
|----------------------------------|
|----------------------------------|
|-000-0-000-000-000-0-000-000-0000-|
  *** * *** *** *** * *** *** ****


Guitar 2 - 0:44
|---------------------------------|
|---------------------------------|
|---------------------------------|
|-0~------------------------------|
|-0~------------------------------|
|-0~--------------------------000-|
                              ***
|----------------------------------|
|----------------------------------|
|----------------------------------|
|----------------------------------|
|----------------------------------|
|-000-------------------------0000-|
  ***                         ****
|----------------------------------|
|----------------------------------|
|----------------------------------|
|-0~-------------------------------|
|-0~-------------------------------|
|-0~-------------------------------|

|----------------------------------|
|----------------------------------|
|----------------------------------|
|----------------------------------|
|----------------------------------|
|-000-0-000-000-000-0-000-000-0000-|
  *** * *** *** *** * *** *** ****


Both Guitars - 0:55
|----------------------------------|
|----------------------------------|
|----------------------------------|
|----------------------------------|
|----------------------------------|
|-000-0-000-000-000-0-000-000-0000-|
  *** * *** *** *** * *** *** ****
|----------------------------------|
|----------------------------------|
|----------------------------------|
|----------------------------------|
|----------------------------------|
|-000-0-000-000-000-0-000-000-0000-|
  *** * *** *** *** * *** *** ****
|----------------------------------|
|----------------------------------|
|----------------------------------|
|----------------------------------|
|----------------------------------|
|-000-0-000-000-000-0-000-000-0000-|
  *** * *** *** *** * *** *** ****
|----------------------------------|
|----------------------------------|
|----------------------------------|
|----------------------------------|
|----------------------------------|
|-000-0-000-000-000-0-000-000-0000-|
  *** * *** *** *** * *** *** ****


Guitar 1 - 1:06
|----------------------------------|
|----------------------------------|
|----------------------------------|
|----------------------------------|
|----------------------------------|
|-000-0-000-000-000-0-000-000-0000-|
  *** * *** *** *** * *** *** ****
|----------------------------------|
|----------------------------------|
|----------------------------------|
|----------------------------------|
|----------------------------------|
|-000-0-000-000-000-0-000-000-0000-|
  *** * *** *** *** * *** *** ****
|----------------------------------|
|----------------------------------|
|----------------------------------|
|----------------------------------|
|----------------------------------|
|-000-0-000-000-000-0-000-000-0000-|
  *** * *** *** *** * *** *** ****
|----------------------------------|
|----------------------------------|
|----------------------------------|
|----------------------------------|
|----------------------------------|
|-000-0-000-000-000-0-000-000-0000-|
  *** * *** *** *** * *** *** ****


Guitar 2 - 1:06

|-------------------------------12~-------------|
|-----6~------------------------11~-------------|
|--9~----9~-7~-----10~-9~-9~~~~--9~-------------|
|--------------12~------------------------------|
|-----------------------------------------------|
|-----------------------------------------------|



Guitar 1 - 1:17
|-------------------------------------------------------------|
|-------------------------------------------------------------|
|-------------------------------------------------------------|
|----------------------------------------------------44-------|
|------9-6-5-----6-3-5-----3-5------9-6-5----55335566--663355-|
|-000--------000-------000-----000--------000-----------------|
  ***        ***       ***     ***        *******************
|--------------------------------------------------------------|
|--------------------------------------------------------------|
|--------------------------------------------------------------|
|-----------------------------------------------------44-------|
|------9-6-5-----6-3-5-----3-5------9-6-5----55-3-5-6----6-5-3-|
|-000--------000-------000-----000--------000------------------|
  ***        ***       ***     ***        ***** * * * ** * * *


Guitar 2 - 1:17
|-------------------------------------------------------------|
|-------------------------------------------------------------|
|-------------------------------------------------------------|
|-------------------------------------------------------------|
|-------------------------------------------------------------|
|-------------------------------------------------------------|

|-------------------------------------------------------------|
|-------------------------------------------------------------|
|-------------------------------------------------------------|
|-0~----------------------------------------------------------|
|-0~----------------------------------------------------------|
|-0~--------------------------------------<<<<<<<<<<<<<<<<<<<-|



Guitar 1 - 1:28
|-----------------------------------------------------------------|
|-----------------------------------------------------------------|
|-----------------------------------------------------------------|
|--------------------------------------------------------44-------|
|-----9-6-5-------6-3-5-------3-5-----9-6-5------55335566--663355-|
|-0-0-------0-0-0-------0-0-0-----0-0-------0-0-0-----------------|
  * *       * * *       * * *     * *       * * *****************
|------------------------------------------------------------------|
|------------------------------------------------------------------|
|------------------------------------------------------------------|
|---------------------------------------------------------44-------|
|-----9-6-5-------6-3-5-------3-5-----9-6-5------55-3-5-6----6-5-3-|
|-0-0-------0-0-0-------0-0-0-----0-0-------0-0-0------------------|
  * *       * * *       * * *     * *       * * *** * * * ** * * *


Guitar 2 - 1:28
|-------------------------------------------------------------------|
|-------------------------------------------------------------------|
|-------------------------------------------------------------------|
|-----11-8-7-------8-5-7-------5-7-----11-8-7--------------44-------|
|--------------------------------------------------55335566--663355-|
|-0-0--------0-0-0-------0-0-0-----0-0--------0-0-0-----------------|
  * *        * * *       * * *     * *        * * *****************
|-------------------------------------------------------------------|
|-------------------------------------------------------------------|
|----------------------------------------------------------55-------|
|-----11-8-7-------8-5-7-------5-7-----11-8-7-----88-5-7-8----8-7-5-|
|-------------------------------------------------------------------|
|-0-0--------0-0-0-------0-0-0-----0-0-------0-0-0------------------|
  * *        * * *       * * *     * *       * * *** * * * ** * * *





Guitar 1 - 1:39
|--------------------------|
|--------------------------|
|--------------------------|
|------------------8-5-8-7-|
|------------------6-3-6-5-|
|-0000000000000000---------|
  ****************
|---------------------------|
|---------------------------|
|---------------------------|
|------------------11-8-5-7-|
|-------------------9-6-3-5-|
|-0000000000000000----------|
  ****************
|--------------------------|
|--------------------------|
|--------------------------|
|------------------8-5-8-7-|
|------------------6-3-6-5-|
|-0000000000000000---------|
  ****************
|---------------------------|
|---------------------------|
|---------------------------|
|------------------11-8-5-7-|
|-------------------9-6-3-5-|
|-0000000000000000----------|
  ****************
|--------------------------------------|
|--------------------------------------|
|--------------------------------------|
|------------------------------8-5-8-7-|
|----------9-6-0-----8-5-0-----6-3-6-5-|
|-00000000-------000-------000---------|
  ********       ***       ***
|---------------------------------------|
|---------------------------------------|
|---------------------------------------|
|------------------------------11-8-5-7-|
|----------9-6-0-----8-5-0------9-6-3-5-|
|-00000000-------000-------000----------|
  ********       ***       ***
|--------------------------------------|
|--------------------------------------|
|--------------------------------------|
|------------------------------8-5-8-7-|
|----------9-6-0-----8-5-0-----6-3-6-5-|
|-00000000-------000-------000---------|
  ********       ***       ***
|---------------------------------------|
|---------------------------------------|
|---------------------------------------|
|------------------------------11-8-5-7-|
|----------9-6-0-----8-5-0------9-6-3-5-|
|-00000000-------000-------000----------|
  ********       ***       ***

Guitar 2 - 1:39
plays solo



Both Guitars - 2:01
|-----------------------------------|
|-----------------------------------|
|-----------------------------------|
|----------11\8-----8\7-----8\5/8\7-|
|-----------9\6-----6\5-----6\3/6\5-|
|-00000000------000-----000---------|
  ********      ***     ***
|-----------------------------------|
|-----------------------------------|
|-----------------------------------|
|----------11\8-----8\7-----8\5/8\7-|
|-----------9\6-----6\5-----6\3/6\5-|
|-00000000------000-----000---------|
  ********      ***     ***
|-----------------------------------|
|-----------------------------------|
|-----------------------------------|
|----------11\8-----8\7-----8\5/8\7-|
|-----------9\6-----6\5-----6\3/6\5-|
|-00000000------000-----000---------|
  ********      ***     ***
|-----------------------------------|
|-----------------------------------|
|-----------------------------------|
|----------11\8-----8\7-----8\5/8\7-|
|-----------9\6-----6\5-----6\3/6\5-|
|-00000000------000-----000---------|
  ********      ***     ***


Guitar 1 - 2:12
|-----------------------------------------|
|-----------------------------------------|
|-----------------------------------------|
|-0~--------------------------------------|
|-0~--------------------------------------|
|-0~--------------------------------------|

|-----------------------------------------|
|-----------------------------------------|
|-----------------------------------------|
|-0~--------------------------------------|
|-0~--------------------------------------|
|-0~--------------------------------------|



Guitar 2 - 2:12
|------------------------------------------------------------|
|------------------------------------------------------------|
|-7-7-7-7-7-7-7-7-8-8~-8~-8~-7-7-7-7-7-7-7-7-7-7-7-7-7-7-7-7-|
|------------------------------------------------------------|
|------------------------------------------------------------|
|------------------------------------------------------------|

|------------------------------------------------------------|
|----------------------------/10-10-10-10-10b-10b-10b-10b-10-|
|-7-7-7-7-7-7-7-7-8-8~-8~-8~---------------------------------|
|------------------------------------------------------------|
|------------------------------------------------------------|
|------------------------------------------------------------|



Guitar 1 - 2:23
|---------------------------------------------------------------------------|
|---------------------------------------------------------------------------|
|---------------------------------------------------------------------------|
|---------------------------------------------------------------------------|
|---------------------------------------------------------------------------|
|-000~-000~-000000-000~------000000-000~-000-000-000000-000~---------000000-|
  ***  ***  ****** ***       ****** ***  *** *** ****** ***          ******


Guitar 2 - 2:23
|---------------------------------------------------------------------------|
|---------------------------------------------------------------------------|
|---------------------------------------------------------------------------|
|---------------------------------------------------------------------------|
|---------------------------------------------------------------------------|
|-000~------000000-000~-000~-000000-000~---------000000-000~-000-000-000000-|
  ***       ****** ***  ***  ****** ***          ****** ***  *** *** ******


Both Guitars - 2:34
|------------------------------------|
|------------------------------------|
|------------------------------------|
|------------------------------------|
|------------------------------------|
|-000-0-000-000-000-0-000-000-000000-|
  *** * *** *** *** * *** *** ******
|--------------------------------|
|--------------------------------|
|--------------------------------|
|--------------------------------|
|--------------------------------|
|-0-000-000-000-0-000-000-000000-|
  * *** *** *** * *** *** ******
|--------------------------------|
|--------------------------------|
|--------------------------------|
|--------------------------------|
|--------------------------------|
|-0-000-000-000-0-000-000-000000-|
  * *** *** *** * *** *** ******
|-------------------------|
|-------------------------|
|-------------------------|
|-------------------------|
|-------------------------|
|-0-000-000-000-0-000-000-|
  * *** *** *** * *** ***
comments
We did not receive enough feedback on this tab! Please rate:
print report bad tab
1 2 3 4 5
1 comment total.
0 reply
JB95 wrote on June 27 2011, 03:16 pm

Seems alright, but no solo? D:

I want to post or [tab]
guest
You may want to rate the tab now too:
select rating
Please do not post tabs as comments. Select "correction" instead!