Oops, an error
Loading. Please wait.

Confined Tab

ver2
ver2
More versions @911Tabs.com
94,958 views 69 this week
41 commentsread comments
1 2 3 4 5
excellent!
x 37
Autoscroll
+/-
esc
set tempo
stop
Contributor
WARNING: You are trying to view
                                    content from Ultimate-Guitar.com
                                    in an unauthorized application,
                                    which is prohibited.

                                    Please use an official Ultimate
                                    Guitar Tabs application for iPhone,
                                    iPad or Android to access legitimate
                                    chords, guitar, bass, and drum tabs
                                    from Ultimate-Guitar.com database.

                                    Type "ultimate guitar tabs" in Apple
                                    App Store's or Android Market's
                                    search to find the application.
                                    CONFINED
                          As recorded by As I Lay Dying
                   (From the 2005 Album SHADOWS ARE SECURITY)
                        Copyright (c) Metal Blade Records

Transcribed by Daniel de la Rosa (MeloDeath)

Gtr I (C G C F A D) - '1'
Gtr II (C G C F A D) - '2'
Gtr III (C G C F A D) - '3'
Gtr IV (C G C F A D) - '4'

 Intro
  Q=180
 4/4
  Gtr I
  PM---------------------------------------
|---------------------|-------------------|
|---------------------|-------------------|
|---------------------|-------------------|
|---------------------|-------------------|
|---------------------|-------------------|
|-0-0-0-0-0-0-0-0-0-0-|-0-0-0-0-0-0-0-0-0-|
|
| Gtr II
|---------------------|-------------------|
|---------------------|-------------------|
|---------------------|-------------------|
|---------------------|-------------------|
|---------------------|-------------------|
|---------------------|-------------------|


 ---------------------------------------|
|---------------------|---------------------|
|---------------------|---------------------|
|---------------------|---------------------|
|---------------------|---------------------|
|---------------------|---------------------|
|-0-0-0-0-0-0-0-0-0-0-|-0-0-0-0-0-0-0-0-0---|
|
| PM------------------------------------|
|---------------------|---------------------|
|---------------------|---------------------|
|---------------------|---------------------|
|---------------------|---------------------|
|---------------------|---------------------|
|-0-0-0-0-0-0-0-0-0-0-|-0-0-0-0-0-0-0-0-0---|


 Pre-Verse
  Gtr I
|-----------------|--------------------|-----------------|-------------------|
|-----------------|--------------------|-----------------|-------------------|
|-----------------|--------------------|-----------------|-------------------|
|-----------------|--------------------|-----------------|-------------------|
|-----5---7-------|--8----10---8-7-3-5-|-----5---7-------|--8----7---8-7-3-5-|
|-0-0---0---0-0-0-|-----0----0---------|-0-0---0---0-0-0-|-----0---0---------|
|
| Gtr II
|-----------------|--------------------|-----------------|-------------------|
|-----------------|--------------------|-----------------|-------------------|
|-----------------|--------------------|-----------------|-------------------|
|-0---------------|-(0)----------------|-0---------------|-(0)---------------|
|-0---------------|-(0)----------------|-0---------------|-(0)---------------|
|-0---------------|-(0)----------------|-0---------------|-(0)---------------|


                                                             Q=185
  Gtr I
|-----------------|--------------------|-------------------|------------------|
|-----------------|--------------------|-------------------|------------------|
|-----------------|--------------------|-------------------|------------------|
|-----------------|--------------------|-------------------|------------------|
|-----5---7-------|--8----10---8-7-3-5-|-------5---7-------|-8----7---8-7-3-5-|
|-0-0---0---0-0-0-|-----0----0---------|--0--0---0---0-0-0-|----0---0---------|
|
| Gtr II                                                     Gtr III
|                                                            TP
|-----------------|--------------------|-------------------|------------------|
|-----------------|--------------------|-------------------|------------------|
|-----------------|--------------------|-------------------|------------------|
|-0---------------|-(0)----------------|-(0)---------------|-x\---------------|
|-0---------------|-(0)----------------|-(0)---------------|-x\---------------|
|-0---------------|-(0)----------------|-(0)---------------|-x\---------------|


   Verse
    Q=180
    Gtrs I, II
    PM|   PM  PM--|     PM   PM          PM|   PM  PM--|     PM  PM
||------------------|------------------|-----------------|-------------------||
||o-----------------|------------------|-----------------|------------------o||
||------------------|------------------|-----------------|-------------------||
||------------------|------------------|-----------------|-------------------||
||o-----5---7-------|-8---10---8-7-3-5-|-----5---7-------|-8---7---8-7-3-5--o||
||--0-0---0---0-0-0-|---0----0---------|-0-0---0---0-0-0-|---0---0-----------||


 Verse
  Q=172
  Gtr I
  PM|   PM  PM--|     PM   PM
|-----------------|--------------------------|
|-----------------|--------------------------|
|-----------------|--------------------------|
|-----------------|--------------------------|
|-----5---7-------|-8---10---8---7---3---5---|
|-0-0---0---0-0-0-|---0----0-----------------|
|
| Gtr II
| PM|       PM--|            PM---------------
|-----------------|--------------------------|
|-----------------|--------------------------|
|-----------------|--------------------------|
|-----------------|--------------------------|
|-0-0-------0-0-0-|----------0-0-0-0-0-0-0-0-|
|-0-0-------0-0-0-|----------0-0-0-0-0-0-0-0-|


  PM|   PM  PM--|     PM  PM
|-----------------|--------------------------|
|-----------------|--------------------------|
|-----------------|--------------------------|
|-----------------|--------------------------|
|-----5---7-------|-8---7---8---7---3---5----|
|-0-0---0---0-0-0-|---0---0------------------|
|
|---|       PM--|           PM------------|
|-----------------|--------------------------|
|-----------------|--------------------------|
|-----------------|--------------------------|
|-----------------|--------------------------|
|-0-0-------0-0-0-|---------0-0-0-0-0-0-0-0--|
|-0-0-------0-0-0-|---------0-0-0-0-0-0-0-0--|


  Gtr I
  PM|   PM  PM--|     PM   PM
|-----------------|--------------------------|
|-----------------|--------------------------|
|-----------------|--------------------------|
|-----------------|--------------------------|
|-----5---7-------|-8---10---8---7---3---5---|
|-0-0---0---0-0-0-|---0----0-----------------|
|
| Gtr II
| PM------------------------------------------
|-----------------|--------------------------|
|-----------------|--------------------------|
|-----------------|--------------------------|
|-----------------|--------------------------|
|-0-0-------0-0-0-|----------0-0-0-0-0-0-0-0-|
|-0-0-------0-0-0-|----------0-0-0-0-0-0-0-0-|


  PM|   PM  PM--|       PM    PM ~~~
|-----------------|--------------------|
|-----------------|--------------------|
|-----------------|--------------------|
|-----------------|-------------[7]----|
|-----5---7-------|-8-----7------------|
|-0-0---0---0-0-0-|-----0-----0--------|
|
|-----------------------------|  ~~~
|-----------------|--------------------|
|-----------------|--------------------|
|-----------------|--------------------|
|-----------------|--------------------|
|-0-0-------0-0-0-|-0-0-0-0-0-0-[3]----|
|-0-0-------0-0-0-|-0-0-0-0-0-0--------|


  Gtr I
  PM--|   PM  PM----|     PM   PM
|---------------------|--------------------------|
|---------------------|--------------------------|
|---------------------|--------------------------|
|---------------------|--------------------------|
|-------5---7---------|-8---10---8---7---3---5---|
|-0---0---0---0-0---0-|---0----0-----------------|
|
| Gtr II
|   PM|       PM  PM|            PM------------|
|---------------------|--------------------------|
|---------------------|--------------------------|
|---------------------|--------------------------|
|---------------------|--------------------------|
|-0-0-0-------0-0-0-0-|----------0-0-0-0-0-0-0-0-|
|-0-0-0-------0-0-0-0-|----------0-0-0-0-0-0-0-0-|


  PM--|   PM  PM----|     PM  PM
|---------------------|-------------------------|
|---------------------|-------------------------|
|---------------------|-------------------------|
|---------------------|-------------------------|
|-------5---7---------|-8---7---8---7---3---5---|
|-0---0---0---0-0---0-|---0---0-----------------|
|
|   PM|       PM  PM|           PM------------|
|---------------------|-------------------------|
|---------------------|-------------------------|
|---------------------|-------------------------|
|---------------------|-------------------------|
|-0-0-0-------0-0-0-0-|---------0-0-0-0-0-0-0-0-|
|-0-0-0-------0-0-0-0-|---------0-0-0-0-0-0-0-0-|


  Gtr I
  PM|   PM  PM--|     PM   PM
|-----------------|--------------------------|
|-----------------|--------------------------|
|-----------------|--------------------------|
|-----------------|--------------------------|
|-----5---7-------|-8---10---8---7---3---5---|
|-0-0---0---0-0-0-|---0----0-----------------|
|
| Gtr II
| PM|       PM--|            PM---------------
|-----------------|--------------------------|
|-----------------|--------------------------|
|-----------------|--------------------------|
|-----------------|--------------------------|
|-0-0-------0-0-0-|----------0-0-0-0-0-0-0-0-|
|-0-0-------0-0-0-|----------0-0-0-0-0-0-0-0-|


  PM|   PM  PM--|     PM  PM
|-----------------|--------------------------|
|-----------------|--------------------------|
|-----------------|--------------------------|
|-----------------|---------------------0----|
|-----5---7-------|-8---7---8---7---3---0----|
|-0-0---0---0-0-0-|---0---0-------------0----|
|
|---|       PM--|           PM----------|
|-----------------|--------------------------|
|-----------------|--------------------------|
|-----------------|--------------------------|
|-----------------|--------------------------|
|-0-0-------0-0-0-|---------0-0-0-0-0-0-0-0--|
|-0-0-------0-0-0-|---------0-0-0-0-0-0-0-0--|


 Verse
  Gtr I
      PM------------|           PM------|
|-----------------------|--------------------|
|-----------------------|--------------------|
|-----------------------|--------------------|
|-(0)-------------------|--------------------|
|-(0)-0-0-0-0-0-0-0-0-8-|---7-0-0-0-0-0-0-10-|
|-(0)-0-0-0-0-0-0-0-0---|-0---0-0-0-0-0-0----|
|
| Gtr II
|     PM------------|           PM------|
|-----------------------|--------------------|
|-----------------------|--------------------|
|-----------------------|--------------------|
|-----------------------|--------------------|
|-(0)-0-0-0-0-0-0-0-0-8-|---7-0-0-0-0-0-0-10-|
|-(0)-0-0-0-0-0-0-0-0---|-0---0-0-0-0-0-0----|


        PM------|     PM  PM  PM
|-------------------|-----------------|
|-------------------|-----------------|
|-------------------|-----------------|
|-------------------|-----------------|
|---8-0-0-0-0-0-0-1-|---0-------0-----|
|-0---0-0-0-0-0-0---|-0---0-5-0---5-3-|
|
|       PM------|     PM  PM  PM
|-------------------|-----------------|
|-------------------|-----------------|
|-------------------|-----------------|
|-------------------|-----------------|
|---8-0-0-0-0-0-0-1-|---0-------0-----|
|-0---0-0-0-0-0-0---|-0---0-5-0---5-3-|


  Gtr I
                              PM----|
|---------------------|-------------------|
|---------------------|-------------------|
|---------------------|-------------------|
|---------------------|-------------------|
|-0-0-0-0-0-0-0-0-0-8-|---7-0-0-0-0-0-7-8-|
|-0-0-0-0-0-0-0-0-0---|-0---0-0-0-0-0-----|
|
| Gtr II
|                             PM----|
|---------------------|-------------------|
|---------------------|-------------------|
|---------------------|-------------------|
|---------------------|-------------------|
|-0-0-0-0-0-0-0-0-0-8-|---7-0-0-0-0-0-3-5-|
|-0-0-0-0-0-0-0-0-0---|-0---0-0-0-0-0-----|


        PM----|           PM  PM
|-------------------|-----------------|
|-------------------|-----------------|
|-------------------|-----------------|
|---7---------------|-----------------|
|-5---0-0-0-0-0-0-1-|---0-------0-7-8-|
|-----0-0-0-0-0-0---|-0---0-5-0-------|
|
|       PM----|           PM  PM
|-------------------|-----------------|
|-------------------|-----------------|
|-------------------|-----------------|
|---3---------------|-----------------|
|-1---0-0-0-0-0-0-1-|---0-------0-7-8-|
|-----0-0-0-0-0-0---|-0---0-5-0-------|


  Gtrs I, II
|-----------------------|----------------------|
|-----------------------|----------------------|
|-----------------------|----------------------|
|-----------------------|----------------------|
|-0-0-0-0-0-0-0-0-0-0-8-|---7-0-0-0-0-0-0-0-10-|
|-0-0-0-0-0-0-0-0-0-0---|-0---0-0-0-0-0-0-0----|


                        PM  PM  PM
|---------------------|-------------------|
|---------------------|-------------------|
|---------------------|-------------------|
|---------------------|-------------------|
|---8-0-0-0-0-0-0-0-1-|---0-------0-------|
|-0---0-0-0-0-0-0-0---|-0---0-5-0---5-3---|


  Gtr I
|-----------------------|---------------------|
|-----------------------|---------------------|
|-----------------------|---------------------|
|-----------------------|---------------------|
|-0-0-0-0-0-0-0-0-0-0-8-|---7-0-0-0-0-0-0-7-8-|
|-0-0-0-0-0-0-0-0-0-0---|-0---0-0-0-0-0-0-----|
|
| Gtr II
|-----------------------|---------------------|
|-----------------------|---------------------|
|-----------------------|---------------------|
|-----------------------|---------------------|
|-0-0-0-0-0-0-0-0-0-0-8-|---7-0-0-0-0-0-0-3-5-|
|-0-0-0-0-0-0-0-0-0-0---|-0---0-0-0-0-0-0-----|


                            PM  PM
|---------------------|-------------------|
|---------------------|-------------------|
|---------------------|-------------------|
|---7-----------------|-------------------|
|-5---0-0-0-0-0-0-0-1-|---0-------0-7-8---|
|-----0-0-0-0-0-0-0---|-0---0-5-0---------|
|
|                           PM  PM
|---------------------|-------------------|
|---------------------|-------------------|
|---------------------|-------------------|
|---3-----------------|-------------------|
|-1---0-0-0-0-0-0-0-1-|---0-------0-7-8---|
|-----0-0-0-0-0-0-0---|-0---0-5-0---------|


 Pre-Chorus
  Gtrs I, II
  PM|   PM  PM  PM    PM    PM  PM    PM|   PM  PM  PM    PM    PM  PM
|-----------------|-----------------|-----------------|-----------------|
|-----------------|-----------------|-----------------|-----------------|
|-----------------|-----------------|-----------------|-----------------|
|-------------7---|-5---------5---7-|-------------7---|-5---------5-----|
|-----5---8-------|-----5h8---------|-----5---8-------|-----5h8-------5-|
|-8-8---8---8---8-|---5-----5---5---|-0-0---0---0---0-|---0-----0---0---|


  Gtrs I, II
  PM|   PM  PM  PM    PM    PM  PM    PM|   PM  PM  PM     PM    PM  PM
|-----------------|-----------------|-----------------|------------------|
|-----------------|-----------------|-----------------|------------------|
|-----------------|-----------------|-----------------|------------------|
|-----0---3---7---|-5---------5---7-|-------------7---|-5----------5-----|
|-----------------|-----5h8---------|-----5---8-------|------5h8-------5-|
|-3-3---3---3---3-|---5-----5---5---|-0-0---0---0---0-|----0-----0---0---|
|
|                                                       Gtr III
|                                                       TP
|-----------------|-----------------|-----------------|------------------|
|-----------------|-----------------|-----------------|------------------|
|-----------------|-----------------|-----------------|------------------|
|-----------------|-----------------|-----------------|-x\---------------|
|-----------------|-----------------|-----------------|-x\---------------|
|-----------------|-----------------|-----------------|-x\---------------|


 Chorus
  Gtrs I, II
  PM|   PM  PM  PM    PM    PM  PM    PM|   PM  PM  PM    PM    PM  PM
|-----------------|-----------------|-----------------|-----------------|
|-----------------|-----------------|-----------------|-----------------|
|-----------------|-----------------|-----------------|-----------------|
|-------------7---|-5---------5---7-|-------------7---|-5---------5-----|
|-----5---8-------|-----5h8---------|-----5---8-------|-----5h8-------5-|
|-8-8---8---8---8-|---5-----5---5---|-0-0---0---0---0-|---0-----0---0---|


  Gtrs I, II
  PM|   PM  PM  PM    PM    PM  PM    PM|   PM  PM  PM    PM    PM  PM
|-----------------|-----------------|-----------------|-----------------|
|-----------------|-----------------|-----------------|-----------------|
|-----------------|-----------------|-----------------|-----------------|
|-----0---3---7---|-5---------5---7-|-------------7---|-5---------5-----|
|-----------------|-----5h8---------|-----5---8-------|-----5h8-------5-|
|-3-3---3---3---3-|---5-----5---5---|-0-0---0---0---0-|---0-----0---0---|


 Bridge
  Gtrs I, II
  PM|   PM  PM  PM    PM    PM  PM
|-----------------|-----------------|
|-----------------|-----------------|
|-----------------|-----------------|
|-------------7---|-5---------5-----|
|-----5---8-------|-----5h8-------5-|
|-8-8---8---8---8-|---5-----5---5---|


   Verse
    Gtrs I, II
    PM|   PM  PM--|     PM   PM          PM|   PM  PM--|     PM  PM
||------------------|------------------|-----------------|-------------------||
||o-----------------|------------------|-----------------|------------------o||
||------------------|------------------|-----------------|-------------------||
||------------------|------------------|-----------------|-------------------||
||o-----5---7-------|-8---10---8-7-3-5-|-----5---7-------|-8---7---8-7-3-5--o||
||--0-0---0---0-0-0-|---0----0---------|-0-0---0---0-0-0-|---0---0-----------||


    Gtr I
    PM  PM  PM  PM|   PM    PM   PM
||----------------------|------------------|
||o---------------------|------------------|
||----------------------|------------------|
||----------------------|------------------|
||o-------5---7---------|-8---10---8-7-3-5-|
||--0-0-0---0---0-0-0-0-|---0----0---------|
|
|   Gtr II
|   PM  PM  PM  PM|   PM    PM   PM
||----------------------|------------------|
||o---------------------|------------------|
||----------------------|------------------|
||----------------------|------------------|
||o-------5---7---------|-8---10---8-7-3-5-|
||--0-0-0---0---0-0-0-0-|---0----0---------|


  PM  PM  PM  PM|   PM    PM  PM
|---------------------|-------------------||
|---------------------|------------------o||
|---------------------|-------------------||
|---------------------|-------------------||
|-------5---7---------|-8---7---8-7-3-5--o||
|-0-0-0---0---0-0-0-0-|---0---0-----------||
|
| PM  PM  PM  PM|   PM    PM  PM
|---------------------|-------------------||
|---------------------|------------------o||
|---------------------|-------------------||
|---------------------|-7---5---7-5-2-3---||
|-------5---7---------|------------------o||
|-0-0-0---0---0-0-0-0-|---0---0-----------||


 Pre-Chorus
  Gtrs I, II
  PM|   PM  PM  PM    PM    PM  PM    PM|   PM  PM  PM    PM    PM  PM
|-----------------|-----------------|-----------------|-----------------|
|-----------------|-----------------|-----------------|-----------------|
|-----------------|-----------------|-----------------|-----------------|
|-------------7---|-5---------5---7-|-------------7---|-5---------5-----|
|-----5---8-------|-----5h8---------|-----5---8-------|-----5h8-------5-|
|-8-8---8---8---8-|---5-----5---5---|-0-0---0---0---0-|---0-----0---0---|


  Gtrs I, II
  PM|   PM  PM  PM    PM    PM  PM    PM|   PM  PM  PM     PM    PM  PM
|-----------------|-----------------|-----------------|------------------|
|-----------------|-----------------|-----------------|------------------|
|-----------------|-----------------|-----------------|------------------|
|-----0---3---7---|-5---------5---7-|-------------7---|-5----------5-----|
|-----------------|-----5h8---------|-----5---8-------|------5h8-------5-|
|-3-3---3---3---3-|---5-----5---5---|-0-0---0---0---0-|----0-----0---0---|
|
| Gtr III
|                                                       TP
|-----------------|-----------------|-----------------|------------------|
|-----------------|-----------------|-----------------|------------------|
|-----------------|-----------------|-----------------|------------------|
|-----------------|-----------------|-----------------|-x\---------------|
|-----------------|-----------------|-----------------|-x\---------------|
|-----------------|-----------------|-----------------|-x\---------------|


 Chorus
  Gtrs I, II
  PM|   PM  PM  PM    PM    PM  PM    PM|   PM  PM  PM    PM    PM  PM
|-----------------|-----------------|-----------------|-----------------|
|-----------------|-----------------|-----------------|-----------------|
|-----------------|-----------------|-----------------|-----------------|
|-------------7---|-5---------5---7-|-------------7---|-5---------5-----|
|-----5---8-------|-----5h8---------|-----5---8-------|-----5h8-------5-|
|-8-8---8---8---8-|---5-----5---5---|-0-0---0---0---0-|---0-----0---0---|


  Gtrs I, II
  PM|   PM  PM  PM    PM    PM  PM    PM|   PM  PM  PM    PM    PM  PM
|-----------------|-----------------|-----------------|-----------------|
|-----------------|-----------------|-----------------|-----------------|
|-----------------|-----------------|-----------------|-----------------|
|-----0---3---7---|-5---------5---7-|-------------7---|-5---------5-----|
|-----------------|-----5h8---------|-----5---8-------|-----5h8-------5-|
|-3-3---3---3---3-|---5-----5---5---|-0-0---0---0---0-|---0-----0---0---|


 Bridge
  Gtrs I, II
  PM|   PM  PM  PM    PM    PM  PM
|-----------------|-----------------|
|-----------------|-----------------|
|-----------------|-----------------|
|-------------7---|-5---------5-----|
|-----5---8-------|-----5h8-------5-|
|-8-8---8---8---8-|---5-----5---5---|
|
| Gtr IV
|-----------------|-----------------|
|-----------------|-----------------|
|-----------------|-----------------|
|-8---------------|-5---------------|
|-8---------------|-5---------------|
|-8---------------|-5---------------|


 Verse
  Gtrs I, II
  PM---------------------------------------
|---------------------|-------------------|
|---------------------|-------------------|
|---------------------|-------------------|
|---------------------|-------------------|
|---------------------|-------------------|
|-0-0-0-0-0-0-0-0-0-0-|-0-0-0-0-0-0-0-0-0-|


 -----------------|     PM  PM  PM
|---------------------|------------------|
|---------------------|------------------|
|---------------------|------------------|
|---------------------|------------------|
|-------------------1-|---0-------0------|
|-0-0-0-0-0-0-0-0-0---|-0---0-5-0---5-3--|


  Gtrs I, II
  PM---------------------------------------
|---------------------|-------------------|
|---------------------|-------------------|
|---------------------|-------------------|
|---------------------|-------------------|
|---------------------|-------------------|
|-0-0-0-0-0-0-0-0-0-0-|-0-0-0-0-0-0-0-0-0-|


 -----------------|     PM  PM  PM
|---------------------|------------------|
|---------------------|------------------|
|---------------------|------------------|
|---------------------|------------------|
|-------------------1-|---0-------0-7-8--|
|-0-0-0-0-0-0-0-0-0---|-0---0-5-0--------|


 Outro
  Gtrs I, II
  PM--------------|     PM  PM--------|
|---------------------|--------------------|
|---------------------|--------------------|
|---------------------|--------------------|
|---------------------|--------------------|
|-------------------8-|---7-------------10-|
|-0-0-0-0-0-0-0-0-0---|-0---0-0-0-0-0-0----|


    PM------------|     PM  PM  PM
|---------------------|------------------|
|---------------------|------------------|
|---------------------|------------------|
|---------------------|------------------|
|---8---------------1-|---0-------0------|
|-0---0-0-0-0-0-0-0---|-0---0-5-0---5-3--|


  Gtr I
  PM--------------|     PM  PM----|
|---------------------|-----------------|
|---------------------|-----------------|
|---------------------|-----------------|
|---------------------|-----------------|
|-------------------8-|---7---------3-5-|
|-0-0-0-0-0-0-0-0-0---|-0---0-0-0-0-----|
|
| Gtr II
| PM--------------|     PM  PM----|
|---------------------|-----------------|
|---------------------|-----------------|
|---------------------|-----------------|
|---------------------|-----------------|
|-------------------8-|---7---------3-5-|
|-0-0-0-0-0-0-0-0-0---|-0---0-0-0-0-----|


    PM------------|     PM  PM  PM
|---------------------|-----------------|
|---------------------|-----------------|
|---------------------|-----------------|
|---3-----------------|-----------------|
|-1-----------------1-|---0-------0---8-|
|-----0-0-0-0-0-0-0---|-0---0-5-0---5---|
|
|   PM------------|     PM  PM  PM
|---------------------|-----------------|
|---------------------|-----------------|
|---------------------|-----------------|
|---3-----------------|-----------------|
|-1-----------------1-|---0-------0-----|
|-----0-0-0-0-0-0-0---|-0---0-5-0---5-3-|


  Gtrs I, II
|----------|------------|------------|--------*|
|----------|------------|------------|--------*|
|----------|------------|------------|--------*|
|-0--------|-(0)--------|-(0)--------|-(0)----*|
|-0--------|-(0)--------|-(0)--------|-(0)----*|
|-0--------|-(0)--------|-(0)--------|-(0)----*|

END
comments
print report bad tab
41 comments total. Showing first comments.
+1 reply
stumaster18 wrote on February 27 2006, 07:44 pm

I'm pretty sure the pre-chorus and the chorus are the exact same thing, except for the slide and the singing/screamin****ing awesome tab though

+1 reply
kostkaskater wrote on March 3 2006, 11:09 am

make a wehole album tab..for shadows are security..please..

+1 reply
IbZ373 wrote on March 4 2006, 02:51 pm

this tab is awsome, i agree with kostkaskater, you should make an album tab

I want to post or [tab]
guest
You may want to rate the tab now too:
select rating
Please do not post tabs as comments. Select "correction" instead!