Oops, an error
Loading. Please wait.

Confined Tab

ver4
ver4
More versions @911Tabs.com
14,711 views 9 this week
no commentswrite comment
1 2 3 4 5
please rate
Autoscroll
+/-
esc
set tempo
stop
Contributor
Hey! There's an official Ultimate Guitar app which is ideal
for learning songs when you're away from computer. Get the app
WARNING: You are trying to view
                                    content from Ultimate-Guitar.com
                                    in an unauthorized application,
                                    which is prohibited.

                                    Please use an official Ultimate
                                    Guitar Tabs application for iPhone,
                                    iPad or Android to access legitimate
                                    chords, guitar, bass, and drum tabs
                                    from Ultimate-Guitar.com database.

                                    Type "ultimate guitar tabs" in Apple
                                    App Store's or Android Market's
                                    search to find the application.
KEY
+ = Feadback (with pitch above it)
* = Harmonic (with pitch above it)
~ = hold
. = Palm Mute
F = Full Rest
H = Half Rest
Q = Quarter Rest
E = Eigth Rest
V = Vibrato
/ = Upslide
\\ = Downslide
# = Tremello Picking
|-- --|
|-- --|
|.- -.|
|.- -.| = repeat
|-- --|
|-- --|

|-xx--------------|
|---xx------------|
|-----xx----------|
|-------xx--------| = Pick Scrape
|---------xx------|
|-----------xx----|



Confined - As I Lay Dying
Tabbed by Charlie - carfreak132004@yahoo.com


Tempo = 172
Time = 4/4
Tuning = CGCFAD



Intro (0:00)
    
Guitars 1 and 2
      (0:10)                                x2|
|---||--------------------|-------------------|
|---||--------------------|-------------------|
|-A-||.-------------------|------------------.|
|-+-||.-------------------|------------------.|
|-0-||--------------------|-------------------|
|-0-||--00-0-0-0-0-0-00-0-|-0-0-0-0-00-0-0-0--|
|       .. . . . . . .. .   . . . . .. . . .


|Guitar 1                                                                |
|-----------------|------------------|-----------------|-----------------|
|-----------------|------------------|-----------------|-----------------|
|-----------------|------------------|-----------------|-----------------|
|-----------------|------------------|-----------------|-----------------|
|-----5---7-------|-8---10---8-7-3-5-|-----5---7-------|-8---7---8-7-3-5-|
|-0-0---0---0-0-0-|---0----0---------|-0-0---0---0-0-0-|---0---0---------|
|                 |                  |                 |                 |
|Guitar 2         |                  |                 |                 |
|-----------------|------------------|-----------------|-----------------|
|-----------------|------------------|-----------------|-----------------|
|-----------------|------------------|-----------------|-----------------|
|-----------------|------------------|-----------------|-----------------|
|-0~~~~~~~~~~~~~~-|-~~~~~~~~~~~~~~~~-|-0~~~~~~~~~~~~~~-|-~~~~~~~~~~~~~~~-|
|-0~~~~~~~~~~~~~~-|-~~~~~~~~~~~~~~~~-|-0~~~~~~~~~~~~~~-|-~~~~~~~~~~~~~~~-|
|                                                                        |


|Guitar 1                                                                |
|-----------------|------------------|-----------------|-----------------|
|-----------------|------------------|-----------------|-----------------|
|-----------------|------------------|-----------------|-----------------|
|-----------------|------------------|-----------------|-----------------|
|-----5---7-------|-8---10---8-7-3-5-|-----5---7-------|-8---7---8-7-3-5-|
|-0-0---0---0-0-0-|---0----0---------|-0-0---0---0-0-0-|---0---0---------|
|                 |                  |                 |                 |
|Guitar 2         |                  |                 |                 |
|-----------------|------------------|-----------------|-xx--------------|
|-----------------|------------------|-----------------|---xx------------|
|-----------------|------------------|-----------------|-----xx----------|
|-----------------|------------------|-----------------|-------xx-----Q--|
|-0-0-0-0-0-0-0-0-|--0-0-0-0-0-0-0-0-|-0-0-0-0-0-0-0-0-|---------xx------|
|-0-0-0-0-0-0-0-0-|--0-0-0-0-0-0-0-0-|-0-0-0-0-0-0-0-0-|-----------xx----|
|                                                                        |



Verse 1 (0:26)
|Guitar 1                                                                x2|
|------------------|------------------|-----------------|------------------|
|------------------|------------------|-----------------|------------------|
|.-----------------|------------------|-----------------|-----------------.|
|.-----------------|------------------|-----------------|-3---2-----------.|
|------5---7-------|-8---10---8-7-3-5-|-----5---7-------|---------8-7-3-5--|
|--0-0---0---0-0-0-|---0----0---------|-0-0---0---0-0-0-|---3---3/---------|
| . .   .   . . .  |  .    .          | . .   .   . . . |   .              |
|Guitar 2          |                  |                 |                  |
|------------------|------------------|-----------------|------------------|
|------------------|------------------|-----------------|------------------|
|.-----------------|------------------|-----------------|-----------------.|
|.-----------------|------------------|-----------------|-----------------.|
|--0-0-0-0-0-0-0-0-|--0-0-0-0-0-0-0-0-|-0-0-0-0-0-0-0-0-|------------------|
|--0-0-0-0-0-0-0-0-|--0-0-0-0-0-0-0-0-|-0-0-0-0-0-0-0-0-|-3-3-3-3/7-7-7-7--|
|  . . . . . . . .    . . . . . . . .   . . . . . . . .                    |


|Guitar 1                                                                |
|-----------------|------------------|-----------------|-----------------|
|-----------------|------------------|-----------------|-----------------|
|-----------------|------------------|-----------------|-----------------|
|-----------------|------------------|-----------------|-3---2-----------|
|-----5---7-------|-8---10---8-7-3-5-|-----5---7-------|---------8-7-3-5-|
|-0-0---0---0-0-0-|---0----0---------|-0-0---0---0-0-0-|---3---3/--------|
|. .   .   . . .  |  .    .          | . .   .   . . . |   .             |
|Guitar 2         |                  |                 |                 |
|-----------------|------------------|-----------------|-----------------|
|-----------------|------------------|-----------------|-----------------|
|-----------------|------------------|-----------------|-----------------|
|-----Q---E-------|-H----------------|-----Q---E-------|-H---------------|
|-0-0-------0-0-0-|------------------|-0-0-------0-0-0-|-----------------|
|-0-0-------0-0-0-|---------00000000-|-0-0-------0-0-0-|--------00000000-|
| . .       . . .           ........   . .       . . .          ........ |


|Guitar 1                                                        V           |
|-----------------|------------------|-----------------|---------------------|
|-----------------|------------------|-----------------|---------------------|
|-----------------|------------------|-----------------|---------G-----------|
|-----------------|------------------|-----------------|-3---2---*-----------|
|-----5---7-------|-8---10---8-7-3-5-|-----5---7-------|---------6-----------|
|-0-0---0---0-0-0-|---0----0---------|-0-0---0---0-0-0-|---3---3/------------|
| . .   .   . . . |   .    .         | . .   .   . . . |                     |
|Guitar 2         |                  |                 |                     |
|-----------------|------------------|-----------------|---------------------|
|-----------------|------------------|-----------------|---------------------|
|-----------------|------------------|-----------------|---------------------|
|-H---------------|-H----------------|------Q--E-------|---------------------|
|--------00000000-|---------00000000-|-0-0-------0-0-0-|---------------------|
|--------00000000-|---------00000000-|-0-0-------0-0-0-|-00-0-00-0-00-0-00-0-|
|        ........ |         ........ | . .       . . . | .. . .. . .. . .. . |
|Guitar 3         |                  |                 |         V           |
|-----------------|------------------|-----------------|---------------------|
|-----------------|------------------|-----------------|---------------------|
|-----------------|------------------|-----------------|---------Eb----------|
|-F---------------|-F----------------|-F---------------|-H-------*-----------|
|-----------------|------------------|-----------------|---------6-----------|
|-----------------|------------------|-----------------|---------------------|
|                                                                            |


|Guitar 1                                                                |
|-----------------|------------------|-----------------|-----------------|
|-----------------|------------------|-----------------|-----------------|
|-----------------|------------------|-----------------|-----------------|
|-----------------|------------------|-----------------|-3---2-----------|
|-----5---7-------|-8---10---8-7-3-5-|-----5---7-------|---------8-7-3-5-|
|-0-0---0---0-0-0-|---0----0---------|-0-0---0---0-0-0-|---3---3/--------|
|. .   .   . . .  |  .    .          | . .   .   . . . |   .             |
|Guitar 2         |                  |                 |                 |
|-----------------|------------------|-----------------|-----------------|
|-----------------|------------------|-----------------|-----------------|
|-----------------|------------------|-----------------|-----------------|
|-----Q---E-------|-H----------------|-----Q---E-------|-H---------------|
|-0-0-------0-0-0-|------------------|-0-0-------0-0-0-|-----------------|
|-0-0-------0-0-0-|---------00000000-|-0-0-------0-0-0-|--------00000000-|
| . .       . . .           ........   . .       . . .          ........ |


|Guitar 1                                                                |
|-----------------|------------------|-----------------|-----------------|
|-----------------|------------------|-----------------|-----------------|
|-----------------|------------------|-----------------|-----------------|
|-----------------|------------------|-----------------|-3---2-----------|
|-----5---7-------|-8---10---8-7-3-5-|-----5---7-------|---------8-7-3-0~|
|-0-0---0---0-0-0-|---0----0---------|-0-0---0---0-0-0-|---3---3/------0~|
| . .   .   . . . |   .    .         | . .   .   . . . |                 |
|Guitar 2         |                  |                 |                 |
|-----------------|------------------|-----------------|-----------------|
|-----------------|------------------|-----------------|-----------------|
|-----------------|------------------|-----------------|-----------------|
|-H---------------|-H----------------|------Q--E-------|-H---------------|
|--------00000000-|---------00000000-|-0-0-------0-0-0-|---------------0~|
|--------00000000-|---------00000000-|-0-0-------0-0-0-|--------000000-0~|
|        ........ |         ........ | . .       . . . |        ...... . |



Prechorus (0:59)
|Guitars 1 and 2                                                             |
|-------------------|-------------------|------------------|-----------------|
|-------------------|-------------------|------------------|-----------------|
|-------------------|-------------------|------------------|-----------------|
|-------------------|-------------------|------------------|-----------------|
|~0---------------8-|---7------------10-|---8--------------|-----------------|
|~0-0-00-0-00-0-0---|-0---0-0-00-0-0----|-0---0-0-00-0-0-8-|-0-7-0-5-0-7-5-3-|
|   . .. . .. . .     .   . . .. . .      .   . . .. . .     .   .   .       |


|Guitar 1                                                                   |
|-------------------|------------------|------------------|-----------------|
|-------------------|------------------|------------------|-----------------|
|-------------------|------------------|------------------|-----------------|
|-------------------|--------------2/3-|---7--------------|-----------------|
|-0---------------8-|---7--------------|-5----------------|---------------8-|
|-0-0-00-0-00-0-0---|-0---0-0-00-0-----|-----0-0-00-0-0-8-|-0-7-0-5-0-7-5---|
|   . .. . .. . .   | .   . . .. .     |     . . .. . .   | .   .   .       |
|Guitar 2           |                  |                  |                 |
|-------------------|------------------|------------------|-----------------|
|-------------------|------------------|------------------|-----------------|
|-------------------|------------------|------------------|-----------------|
|-------------------|------------------|------------------|-----------------|
|-0---------------8-|--------------3/5-|---8--------------|---------------8-|
|-0-0-00-0-00-0-0---|-0---0-0-00-0-----|-7---0-0-00-0-0-8-|-0-7-0-5-0-7-5---|
|   . .. . .. . .     .   . . .. .           . . .. . .     .   .   .       |


|Guitars 1 and 2                                                                |
|--------------------|--------------------|-------------------|-----------------|
|--------------------|--------------------|-------------------|-----------------|
|--------------------|--------------------|-------------------|-----------------|
|--------------------|--------------------|-------------------|-----------------|
|------------------8-|---7-------------10-|---8---------------|-----------------|
|-0-00-0-00-0-00-0---|-0---0-00-0-00-0----|-0---0-00-0-00-0-8-|-0-7-0-5-0-7-5-3-|
|   .. . .. . .. .     .   . .. . .. .      .   . .. . .. .     .   .   .       |


|Guitar 1                                                                   |
|-------------------|------------------|------------------|-----------------|
|-------------------|------------------|------------------|-----------------|
|-------------------|------------------|------------------|-----------------|
|-------------------|--------------2/3-|---7--------------|-----------------|
|-0---------------8-|---7--------------|-5----------------|---------------8-|
|-0-0-00-0-00-0-0---|-0---0-0-00-0-----|-----0-0-00-0-0-8-|-0-7-0-5-0-7-5---|
|   . .. . .. . .   | .   . . .. .     |     . . .. . .   | .   .   .       |
|Guitar 2           |                  |                  |                 |
|-------------------|------------------|------------------|-----------------|
|-------------------|------------------|------------------|-----------------|
|-------------------|------------------|------------------|-----------------|
|-------------------|------------------|------------------|-----------------|
|-0---------------8-|--------------3/5-|---8--------------|---------------8-|
|-0-0-00-0-00-0-0---|-0---0-0-00-0-----|-7---0-0-00-0-0-8-|-0-7-0-5-0-7-5---|
|   . .. . .. . .     .   . . .. .           . . .. . .     .   .   .       |



Chorus (1:21)
|Guitar 1                                                               |
|-----------------|-----------------|-----------------|-----------------|
|-----------------|-----------------|-----------------|-----------------|
|-----------------|-----------------|-----------------|-----------------|
|-------------7---|-5---------5---7-|-------------7---|-5---------5---5-|
|-----5---8-------|-----5-8---------|-----5---8-------|-----5-8---------|
|-8-8---8---8---8-|---5-----5---5---|-0-0---0---0---0-|---0-----0---0---|
| . .   .   .   . |   .     .   .   | . .   .   .   . |   .     .   .   |
|Guitar 2         |                 |                 |                 |
|-----------------|-----------------|-----------------|-----------------|
|-----------------|-----------------|-----------------|-----------------|
|-----------------|-----------------|-----------------|-----------------|
|-----------------|-----------------|-----------------|-----------------|
|-8-8-8-8-8-8-7-7-|-5-5-5-5-5-5-5-7-|-0-0-0-0-0-0-0-0-|-0-0-0-0-0-0-0-0-|
|-8-8-8-8-8-8-7-7-|-5-5-5-5-5-5-5-7-|-0-0-0-0-0-0-0-0-|-0-0-0-0-0-0-0-0-|
| . . . . . . . .   . . . . . . . .   . . . . . . . .   . . . . . . . . |


|Guitar 1                                                               |
|-----------------|-----------------|-----------------|-----------------|
|-----------------|-----------------|-----------------|-----------------|
|-----------------|-----------------|-----------------|-----------------|
|---------3---7---|-5---------5---7-|-------------7---|-5---------5-----|
|-----5-----------|-----5-8---------|-----5---8-------|-----5-8-------5-|
|-3-3---3---3---3-|---5-----5---5---|-0-0---0---0---0-|---0-----0---0---|
| . .   .   .   . |   .     .   .   | . .   .   .   . |   .     .   .   |
|Guitar 2         |                 |                 |                 |
|-----------------|-----------------|-----------------|-----------------|
|-----------------|-----------------|-----------------|-----------------|
|-----------------|-----------------|-----------------|-----------------|
|-----------------|-----------------|-----------------|-----------------|
|-3-3-3-3-3-3-3-3-|-5-5-5-5-5-5-5-5-|-0-0-0-0-0-0-0-0-|-0-0-0-0-0-0-0-0-|
|-3-3-3-3-3-3-3-3-|-5-5-5-5-5-5-5-5-|-0-0-0-0-0-0-0-0-|-0-0-0-0-0-0-0-0-|
| . . . . . . . . | . . . . . . . . | . . . . . . . . | . . . . . . . . |
|Guitar 3         |                 |                 |                 |
|-----------------|-----------------|-----------------|-xx--------------|      
|-----------------|-----------------|-----------------|---xx------------|
|-----------------|-----------------|-----------------|-----xx----------|
|-----------------|-----------------|-----------------|-------xx--------|
|-----------------|-----------------|-----------------|---------xx------|
|-----------------|-----------------|-----------------|-----------xx----|
|                                                                       |


|Guitar 1                                                               |
|-----------------|-----------------|-----------------|-----------------|
|-----------------|-----------------|-----------------|-----------------|
|-----------------|-----------------|-----------------|-----------------|
|-------------7---|-5---------5---7-|-------------7---|-5---------5---5-|
|-----5---8-------|-----5-8---------|-----5---8-------|-----5-8---------|
|-8-8---8---8---8-|---5-----5---5---|-0-0---0---0---0-|---0-----0---0---|
| . .   .   .   . |   .     .   .   | . .   .   .   . |   .     .   .   |
|Guitar 2         |                 |                 |                 |
|-----------------|-----------------|-----------------|-----------------|
|-----------------|-----------------|-----------------|-----------------|
|-----------------|-----------------|-----------------|-----------------|
|-----------------|-----------------|-----------------|-----------------|
|-8-8-8-8-8-8-7-7-|-5-5-5-5-5-5-5-7-|-0-0-0-0-0-0-0-0-|-0-0-0-0-0-0-0-0-|
|-8-8-8-8-8-8-7-7-|-5-5-5-5-5-5-5-7-|-0-0-0-0-0-0-0-0-|-0-0-0-0-0-0-0-0-|
| . . . . . . . . | . . . . . . . . | . . . . . . . . | . . . . . . . . |
|Guitar 3         |                 |                 |                 |
|-----------------|-----------------|-----------------|-----------------|
|-----------------|-----------------|-----------------|-----------------|
|-----------------|-----------------|-----------------|-----------------|
|-#---#---#---#---|-#---#---#---#---|-----------------|-----------------|
|-5---5---5---3---|-1---1---1---3---|-#---#---#---#---|-#---#---#---#---|
|-----------------|-----------------|-0---0---0---0---|-0---0---0---0---|
|                                                                       |


|Guitar 1                                                               |
|-----------------|-----------------|-----------------|-----------------|
|-----------------|-----------------|-----------------|-----------------|
|-----------------|-----------------|-----------------|-----------------|
|---------3---7---|-5---------5---7-|-------------7---|-5---------5-----|
|-----5-----------|-----5-8---------|-----5---8-------|-----5-8-------5-|
|-3-3---3---3---3-|---5-----5---5---|-0-0---0---0---0-|---0-----0---0---|
| . .   .   .   . |   .     .   .   | . .   .   .   . |   .     .   .   |
|Guitar 2         |                 |                 |                 |
|-----------------|-----------------|-----------------|-----------------|
|-----------------|-----------------|-----------------|-----------------|
|-----------------|-----------------|-----------------|-----------------|
|-----------------|-----------------|-----------------|-----------------|
|-3-3-3-3-3-3-3-3-|-5-5-5-5-5-5-5-5-|-0-0-0-0-0-0-0-0-|-0-0-0-0-0-0-0-0-|
|-3-3-3-3-3-3-3-3-|-5-5-5-5-5-5-5-5-|-0-0-0-0-0-0-0-0-|-0-0-0-0-0-0-0-0-|
| . . . . . . . . | . . . . . . . . | . . . . . . . . | . . . . . . . . |
|Guitar 3         |                 |                 |                 |
|-----------------|-----------------|-----------------|-----------------|
|-----------------|-----------------|-----------------|-----------------|
|-----------------|-----------------|-----------------|-----------------|
|-#---#---#---#---|-#---#---#---#---|-----------------|-----------------|
|-0---0---0---0---|-1---1---1---1---|-#---#---#---#---|-#---#---#---#---|
|-----------------|-----------------|-0---0---0---0---|-0---0---0---0---|
|                                                                       |


|Guitar 1                           |
|-----------------|-----------------|
|-----------------|-----------------|
|-----------------|-----------------|
|-----------------|-5---------5-----|
|-----5---8---7---|-----5-8-------5-|
|-8-8---8---8---8-|---5-----5---5---|
| . .   .   .   . |   .     .   .   |
|Guitar 2         |                 |
|-----------------|-----------------|
|-----------------|-----------------|
|-----------------|-----------------|
|-----------------|-----------------|
|-8-8-8-8-8-8-7-7-|-5-5-5-5-5-5-5-7-|
|-8-8-8-8-8-8-7-7-|-5-5-5-5-5-5-5-7-|
|                                   |


|Guitar 1                                                                |
|-----------------|------------------|-----------------|-----------------|
|-----------------|------------------|-----------------|-----------------|
|-----------------|------------------|-----------------|-----------------|
|-----------------|------------------|-----------------|-3---2-----------|
|-----5---7-------|-8---10---8-7-3-5-|-----5---7-------|---------8-7-3-5-|
|-0-0---0---0-0-0-|---0----0---------|-0-0---0---0-0-0-|---3---3/--------|
| . .   .   . . . |   .    .         | . .   .   . . . |   .             |
|Guitar 2         |                  |                 |                 |
|-----------------|------------------|-----------------|-----------------|
|-----------------|------------------|-----------------|-----------------|
|-----------------|------------------|-----------------|-----------------|
|-----------------|------------------|-----------------|-----------------|
|-0-0-0-0-0-0-0-0-|--0-0-0-0-0-0-0-0-|-0-0-0-0-0-0-0-0-|-----------------|
|-0-0-0-0-0-0-0-0-|--0-0-0-0-0-0-0-0-|-0-0-0-0-0-0-0-0-|-3-3-3-3/7-7-7-7-|
| . . . . . . . .    . . . . . . . .   . . . . . . . .                   |


|Guitar 1                                                                |
|-----------------|------------------|-----------------|-----------------|
|-----------------|------------------|-----------------|-----------------|
|-----------------|------------------|-----------------|-----------------|
|-----------------|------------------|-----------------|-3---2-----------|
|-----5---7-------|-8---10---8-7-3-5-|-----5---7-------|---------8-7-3-5-|
|-0-0---0---0-0-0-|---0----0---------|-0-0---0---0-0-0-|---3---3/--------|
| . .   .   . . . |   .    .         | . .   .   . . . |   .             |
|Guitar 2         |                  |                 |                 |
|-----------------|------------------|-----------------|---------xx------|
|-----------------|------------------|-----------------|----------xx-----|
|-----------------|------------------|-----------------|-----------xx----|
|-----------------|------------------|-----------------|------------xx---|
|-0-0-0-0-0-0-0-0-|--0-0-0-0-0-0-0-0-|-0-0-0-0-0-0-0-0-|-------------xx--|
|-0-0-0-0-0-0-0-0-|--0-0-0-0-0-0-0-0-|-0-0-0-0-0-0-0-0-|-3-3-3-3/-----xx-|
| . . . . . . . .    . . . . . . . .   . . . . . . . .                   |



Verse 2 (1:57)
|Guitar 1                                                                    x2|
|--------------------|------------------|-------------------|------------------|
|--------------------|------------------|-------------------|------------------|
|.-------------------|------------------|-------------------|-----------------.|
|.-------------------|------------------|-------------------|-3---2-----------.|
|-------5---7--------|-8---10---8-7-3-5-|------5---7--------|---------8-7-3-5--|
|--00-0---0---0-00-0-|---0----0---------|-00-0---0---0-00-0-|---3---3/---------|
|  .. .   .   . .. . |   .    .         | .. .   .   . .. . |   .   .          |
|Guitar 2            |                  |                   |                  |
|--------------------|------------------|-------------------|------------------|
|--------------------|------------------|-------------------|------------------|
|.-------------------|------------------|-------------------|-----------------.|
|.-------------------|------------------|-------------------|-7---5-----------.|
|-------5---7--------|-8---10---8-7-3-5-|------5---7--------|---0---0-7-5-2-3--|
|--00-0---0---0-00-0-|---0----0---------|-00-0---0---0-00-0-|------------------|
|  .. .   .   . .. .     .    .           .. .   .   . .. .     .   .          |



Chorus (2:08)
|Guitar 1                                                               |
|-----------------|-----------------|-----------------|-----------------|
|-----------------|-----------------|-----------------|-----------------|
|-----------------|-----------------|-----------------|-----------------|
|-------------7---|-5---------5---7-|-------------7---|-5---------5---5-|
|-----5---8-------|-----5-8---------|-----5---8-------|-----5-8---------|
|-8-8---8---8---8-|---5-----5---5---|-0-0---0---0---0-|---0-----0---0---|
| . .   .   .   . |   .     .   .   | . .   .   .   . |   .     .   .   |
|Guitar 2         |                 |                 |                 |
|-----------------|-----------------|-----------------|-----------------|
|-----------------|-----------------|-----------------|-----------------|
|-----------------|-----------------|-----------------|-----------------|
|-----------------|-----------------|-----------------|-----------------|
|-8-8-8-8-8-8-7-7-|-5-5-5-5-5-5-5-7-|-0-0-0-0-0-0-0-0-|-0-0-0-0-0-0-0-0-|
|-8-8-8-8-8-8-7-7-|-5-5-5-5-5-5-5-7-|-0-0-0-0-0-0-0-0-|-0-0-0-0-0-0-0-0-|
| . . . . . . . .   . . . . . . . .   . . . . . . . .   . . . . . . . . |


|Guitar 1                                                               |
|-----------------|-----------------|-----------------|-----------------|
|-----------------|-----------------|-----------------|-----------------|
|-----------------|-----------------|-----------------|-----------------|
|---------3---7---|-5---------5---7-|-------------7---|-5---------5-----|
|-----5-----------|-----5-8---------|-----5---8-------|-----5-8-------5-|
|-3-3---3---3---3-|---5-----5---5---|-0-0---0---0---0-|---0-----0---0---|
| . .   .   .   . |   .     .   .   | . .   .   .   . |   .     .   .   |
|Guitar 2         |                 |                 |                 |
|-----------------|-----------------|-----------------|-----------------|
|-----------------|-----------------|-----------------|-----------------|
|-----------------|-----------------|-----------------|-----------------|
|-----------------|-----------------|-----------------|-----------------|
|-3-3-3-3-3-3-3-3-|-5-5-5-5-5-5-5-5-|-0-0-0-0-0-0-0-0-|-0-0-0-0-0-0-0-0-|
|-3-3-3-3-3-3-3-3-|-5-5-5-5-5-5-5-5-|-0-0-0-0-0-0-0-0-|-0-0-0-0-0-0-0-0-|
| . . . . . . . . | . . . . . . . . | . . . . . . . . | . . . . . . . . |
|Guitar 3         |                 |                 |                 |
|-----------------|-----------------|-----------------|-xx--------------|      
|-----------------|-----------------|-----------------|---xx------------|
|-----------------|-----------------|-----------------|-----xx----------|
|-----------------|-----------------|-----------------|-------xx--------|
|-----------------|-----------------|-----------------|---------xx------|
|-----------------|-----------------|-----------------|-----------xx----|
|                                                                       |


|Guitar 1                                                               |
|-----------------|-----------------|-----------------|-----------------|
|-----------------|-----------------|-----------------|-----------------|
|-----------------|-----------------|-----------------|-----------------|
|-------------7---|-5---------5---7-|-------------7---|-5---------5---5-|
|-----5---8-------|-----5-8---------|-----5---8-------|-----5-8---------|
|-8-8---8---8---8-|---5-----5---5---|-0-0---0---0---0-|---0-----0---0---|
| . .   .   .   . |   .     .   .   | . .   .   .   . |   .     .   .   |
|Guitar 2         |                 |                 |                 |
|-----------------|-----------------|-----------------|-----------------|
|-----------------|-----------------|-----------------|-----------------|
|-----------------|-----------------|-----------------|-----------------|
|-----------------|-----------------|-----------------|-----------------|
|-8-8-8-8-8-8-7-7-|-5-5-5-5-5-5-5-7-|-0-0-0-0-0-0-0-0-|-0-0-0-0-0-0-0-0-|
|-8-8-8-8-8-8-7-7-|-5-5-5-5-5-5-5-7-|-0-0-0-0-0-0-0-0-|-0-0-0-0-0-0-0-0-|
| . . . . . . . . | . . . . . . . . | . . . . . . . . | . . . . . . . . |
|Guitar 3         |                 |                 |                 |
|-----------------|-----------------|-----------------|-----------------|
|-----------------|-----------------|-----------------|-----------------|
|-----------------|-----------------|-----------------|-----------------|
|-#---#---#---#---|-#---#---#---#---|-----------------|-----------------|
|-5---5---5---3---|-1---1---1---3---|-#---#---#---#---|-#---#---#---#---|
|-----------------|-----------------|-0---0---0---0---|-0---0---0---0---|
|                                                                       |


|Guitar 1                                                               |
|-----------------|-----------------|-----------------|-----------------|
|-----------------|-----------------|-----------------|-----------------|
|-----------------|-----------------|-----------------|-----------------|
|---------3---7---|-5---------5---7-|-------------7---|-5---------5-----|
|-----5-----------|-----5-8---------|-----5---8-------|-----5-8-------5-|
|-3-3---3---3---3-|---5-----5---5---|-0-0---0---0---0-|---0-----0---0---|
| . .   .   .   . |   .     .   .   | . .   .   .   . |   .     .   .   |
|Guitar 2         |                 |                 |                 |
|-----------------|-----------------|-----------------|-----------------|
|-----------------|-----------------|-----------------|-----------------|
|-----------------|-----------------|-----------------|-----------------|
|-----------------|-----------------|-----------------|-----------------|
|-3-3-3-3-3-3-3-3-|-5-5-5-5-5-5-5-5-|-0-0-0-0-0-0-0-0-|-0-0-0-0-0-0-0-0-|
|-3-3-3-3-3-3-3-3-|-5-5-5-5-5-5-5-5-|-0-0-0-0-0-0-0-0-|-0-0-0-0-0-0-0-0-|
| . . . . . . . . | . . . . . . . . | . . . . . . . . | . . . . . . . . |
|Guitar 3         |                 |                 |                 |
|-----------------|-----------------|-----------------|-----------------|
|-----------------|-----------------|-----------------|-----------------|
|-----------------|-----------------|-----------------|-----------------|
|-#---#---#---#---|-#---#---#---#---|-----------------|-----------------|
|-0---0---0---0---|-1---1---1---1---|-#---#---#---#---|-#---#---#---#---|
|-----------------|-----------------|-0---0---0---0---|-0---0---0---0---|
|                                                                       |



Outro (2:33)
|Guitars 1, 2, and 3                                                         |
|-------------------|------------------|-------------------|-----------------|
|-------------------|------------------|-------------------|-----------------|
|-------------------|------------------|-------------------|-----------------|
|-------------------|------------------|-------------------|-----------------|
|-0-0-00-0-00-0-0-0-|-0-0-0-0-0-0-00-0-|-0-0-00-0-00-0-0-8-|-----------------|
|-0-0-00-0-00-0-0-0-|-0-0-0-0-0-0-00-0-|-0-0-00-0-00-0-0-8-|-0-7-0-5-0-7-5-3-|
| . . .. . .. . . .   . . . . . . .. .   . . .. . .. . .     .   .   .       |


|Guitars 1, 2, and 3                                                         |
|-------------------|------------------|-------------------|-----------------|
|-------------------|------------------|-------------------|-----------------|
|-------------------|------------------|-------------------|-----------------|
|-------------------|------------------|-------------------|-----------------|
|-0-0-00-0-00-0-0-0-|-0-0-0-0-0-0-00-0-|-0-0-00-0-00-0-0-8-|---------------8-|
|-0-0-00-0-00-0-0-0-|-0-0-0-0-0-0-00-0-|-0-0-00-0-00-0-0-8-|-0-7-0-5-0-7-5---|
| . . .. . .. . . .   . . . . . . .. .   . . .. . .. . .     .   .   .       |


|Guitars 1 and 2                                                             |
|-------------------|------------------|-------------------|-----------------|
|-------------------|------------------|-------------------|-----------------|
|-------------------|------------------|-------------------|-----------------|
|-------------------|------------------|-------------------|-----------------|
|-0-0-00-0-00-0-0-8-|---7-0-0-0-0-0-10-|---8-00-0-00-0-0---|-----------------|
|-0-0-00-0-00-0-0---|-0---0-0-0-0-0----|-0---00-0-00-0-0-8-|-0-7-0-5-0-7-5-3-|
| . . .. . .. . .     .   . . . . .      .   .. . .. . .     .   .   .       |
|Guitar 3                                                                    |
|-------------------|------------------|-------------------|-----------------|
|-------------------|------------------|-------------------|-----------------|
|-------------------|------------------|-------------------|-----------------|
|-------------------|------------------|-------------------|-----------------|
|-0-0-00-0-00-0-0-0-|-0-0-0-0-0-0-00-0-|-0-0-00-0-00-0-0-8-|-----------------|
|-0-0-00-0-00-0-0-0-|-0-0-0-0-0-0-00-0-|-0-0-00-0-00-0-0-8-|-0-7-0-5-0-7-5-3-|
| . . .. . .. . . .   . . . . . . .. .   . . .. . .. . .     .   .   .       |


|Guitar 1                                                                    |   ||
|-------------------|------------------|-------------------|-----------------|---||
|-------------------|------------------|-------------------|-----------------|---||
|-------------------|------------------|-------------------|-----------------|---||
|-------------------|------------------|-------------------|-----------------|---||
|-0-0-00-0-00-0-0-8-|---7-0-0-0-0-3/5--|----8\\0-0-00-0-0---|-----------------|-0-||
|-0-0-00-0-00-0-0---|-0---0-0-0-0------|--7---0-0-00-0-0-8-|-0-7-0-5-0-7-5-3-|-0-||
| . . .. . .. . .   | .   . . . .      |      . . .. . .   | .   .   .       |   ||
|Guitar 2           |                  |                   |                 |   ||
|-------------------|------------------|-------------------|-----------------|---||
|-------------------|------------------|-------------------|-----------------|---||
|-------------------|------------------|-------------------|-----------------|---||
|-------------------|-------------2/3--|----7\\-------------|-----------------|---||
|-0-0-00-0-00-0-0-8-|---7-0-0-0-0------|--5---0-0-00-0-0---|-----------------|-0-||
|-0-0-00-0-00-0-0---|-0---0-0-0-0------|------0-0-00-0-0-8-|-0-7-0-5-0-7-5-3-|-0-||
| . . .. . .. . .   | .   . . . .      |      . . .. . .   | .   .   .       |   ||
|Guitar 3           |                  |                   |                 |   ||
|-------------------|------------------|-------------------|-----------------|---||
|-------------------|------------------|-------------------|-----------------|---||
|-------------------|------------------|-------------------|-----------------|---||
|-------------------|------------------|-------------------|-----------------|---||
|-0-0-00-0-00-0-0-0-|-0-0-0-0-0-0-00-0-|-0-0-00-0-00-0-0-8-|-----------------|-0-||
|-0-0-00-0-00-0-0-0-|-0-0-0-0-0-0-00-0-|-0-0-00-0-00-0-0-8-|-0-7-0-5-0-7-5-8-|-0-||
| . . .. . .. . . .   . . . . . . .. .   . . .. . .. . .     .   .   .       |   ||

comments
We did not receive enough feedback on this tab! Please rate:
print report bad tab
1 2 3 4 5
I want to post or [tab]
guest
You may want to rate the tab now too:
select rating
Please do not post tabs as comments. Select "correction" instead!