Oops, an error
Loading. Please wait.

My Only Home Tab

ver1
ver1

Whole song

Interactive

More versions @911Tabs.com
7,089 views 24 this week
2 commentsread comments
1 2 3 4 5
accurate
x 5
Autoscroll
+/-
esc
set tempo
stop
Contributor
Difficulty
Tuning
intermediate
C G C F A D
Hey! There's an official Ultimate Guitar app which is ideal
for learning songs when you're away from computer. Get the app
WARNING: You are trying to view
                                    content from Ultimate-Guitar.com
                                    in an unauthorized application,
                                    which is prohibited.

                                    Please use an official Ultimate
                                    Guitar Tabs application for iPhone,
                                    iPad or Android to access legitimate
                                    chords, guitar, bass, and drum tabs
                                    from Ultimate-Guitar.com database.

                                    Type "ultimate guitar tabs" in Apple
                                    App Store's or Android Market's
                                    search to find the application.
----------------------------------------------------------------------------
                             My Only Home
                            As I Lay Dying
----------------------------------------------------------------------------

This is just an incredible song and the layout sort of reminds me of “Dead Flowers” by 
Demon Hunter. The guitar solo is very cool in my point of view and it isn’t something you 
can just do in a couple minutes. Enjoy!

Username: dkm817 (same on X box live)
Youtube Cover: http://www.youtube.com/watch?v=ZU20g15KeKM
Email: guitardrums@rockfan.com

Guitar 1 Rhythmic (C G C F A D)
Guitar 2 Lead     (C G C F A D)
Guitar 3 Lead     (C G C F A D)


Tab Guide...
==================================================================
(end of measures)

==================================================================
==================================================================
(end of parts)

==================================================================
==================================================================
==================================================================
(end of song)
(If there is a “continued” it is because the numbers could not
fit on 1 line or connecting times played.)


==================================================================
Guitar 1
==================================================================


Intro

Guitar 1
D-----------------------------------------------------------------|
A-----------------------------------------------------------------|
F-----------------------------------------------------------------|
C-0~~~~~~~~~~~~~~~~~~~~~~~~~~~~~~~~~~~~~~~~~~~~~~~~~~~~~~~~~~~~~~-|
G-0~~~~~~~~~~~~~~~~~~~~~~~~~~~~~~~~~~~~~~~~~~~~~~~~~~~~~~~~~~~~~~-|
C-0~~~~~~~~~~~~~~~~~~~~~~~~~~~~~~~~~~~~~~~~~~~~~~~~~~~~~~~~~~~~~~-|

==================================================================

Guitar 1
D-----------------------------------------------------------------|
A-----------------------------------------------------------------|
F-----------------------------------------------------------------|
C-0~~~~~~~~~~~~~~~~~~~~~~~~~~~~~~~~~~~~~~~~~~~~~~~~~~~~~~~~~~~----|
G-0~~~~~~~~~~~~~~~~~~~~~~~~~~~~~~~~~~~~~~~~~~~~~~~~~~~~~~~~~~~----|
C-0~~~~~~~~~~~~~~~~~~~~~~~~~~~~~~~~~~~~~~~~~~~~~~~~~~~~~~~~~~~----|

==================================================================
==================================================================


Verse 1

(x2)

Guitar 1
D-----------------------------------------------------------------|
A-----------------------------------------------------------------|
F-----------------------------------------------------------------|
C-----------------------------------------------------------------|
G-8---------------0-1-3-------5-----------------------------------|
C-----0---0---0-----------0-------0---0---0---0---5---7---8---3---|
Pm    .       .           .       .       .

==================================================================

Guitar 1
D-----------------------------------------------------------------|
A-----------------------------------------------------------------|
F-----------------------------------------------------------------|
C-----------------------------------------------------------------|
G---------5-------------------5-----------------------------------|
C-0---7-------0---0-5-7---0-------0---0---0---8---5---7---3---5---|
Pm            .           .       .       .

==================================================================

Guitar 1
D-----------------------------------------------------------------|
A-----------------------------------------------------------------|
F-----------------------------------------------------------------|
C-----------------------------------------------------------------|
G-8---------------0-1-3-------5-----------------------------------|
C-----0---0---0-----------0-------0---0---0---0---5---7---8---3---|
Pm    .       .           .       .       .

==================================================================

Guitar 1
D-----------------------------------------------------------------|
A-----------------------------------------------------------------|
F-----------------------------------------------------------------|
C-----------------------------------------------------------------|
G---------5-------------------5-----------------------------------|
C-0---7-------0---0-5-7---0-------0---0---0---8---5---7---7---3---|
Pm            .           .       .       .

==================================================================
==================================================================


Pre Chorus 1

Guitar 1 (x3)
D-----------------------------------------------------------------|
A-----------------------------------------------------------------|
F-----------------------------------------------------------------|
C-0-0-0-0-0---0---0-0-0-0-0---0---0-0-0-0-0-0-3-5-0-5-3-0-0-0-0-2-|
G-0-0-0-0-0-0-0-5-0-0-0-0-0-3-0-5-0-0-0-0-0-0-3-5-0-5-3-0-3-3-0-0-|
C-0-0-0-0-0-3-0-7-0-0-0-0-0-5-0-7-0-0-0-0-0-0-3-5-0-5-3-0-----0---|
Pm. . . . .   .   . . . . .   .   . . . . . .     .     .     .

==================================================================

Guitar 1
D-----------------------------------------------------------------|
A-----------------------------------------------------------------|
F-----------------------------------------------------------------|
C-0-0-0-0-0---0---0-0-0-0-0---0---0-0-0-0-0-0-3-5-0-5-3-0-/12\~~~-|
G-0-0-0-0-0-0-0-5-0-0-0-0-0-3-0-5-0-0-0-0-0-0-3-5-0-5-3-0-/12\~~~-|
C-0-0-0-0-0-3-0-7-0-0-0-0-0-5-0-7-0-0-0-0-0-0-3-5-0-5-3-0-/12\~~~-|
Pm. . . . .   .   . . . . .   .   . . . . . .     .     .     .

==================================================================
==================================================================


Chorus 1

Guitar 1
D-----------------------------------------------------------------|
A-----------------------------------------------------------------|
F-----------------------------------------------------------------|
C-0---0---0---0---0---0---0---0---0---0---0---0---0---0---0---0---|
G-0---0---0---0---0---0---0---0---0---0---0---0---0---0---0---0---|
C-0---0---0---0---0---0---0---0---0---0---0---0---0---0---0---0---|

==================================================================

Guitar 1
D-----------------------------------------------------------------|
A-----------------------------------------------------------------|
F-----------------------------------------------------------------|
C-7---7---7---7---7---7---7---7---7---7---7---7---7---7---7---7---|
G-7---7---7---7---7---7---7---7---7---7---7---7---7---7---7---7---|
C-7---7---7---7---7---7---7---7---7---7---7---7---7---7---7---7---|

==================================================================

Guitar 1
D-----------------------------------------------------------------|
A-----------------------------------------------------------------|
F-----------------------------------------------------------------|
C-3---3---3---3---3---3---3---3---3---3---3---3---3---3---3---3---|
G-3---3---3---3---3---3---3---3---3---3---3---3---3---3---3---3---|
C-3---3---3---3---3---3---3---3---3---3---3---3---3---3---3---3---|

==================================================================

Guitar 1
D-----------------------------------------------------------------|
A-----------------------------------------------------------------|
F-5---5---5---5---5---5---5---5---5---5---5---5---5---5---5---5---|
C-5---5---5---5---5---5---5---5---5---5---5---5---5---5---5---5---|
G-3---3---3---3---3---3---3---3---3---3---3---3---3---3---3---3---|
C-----------------------------------------------------------------|

==================================================================

Guitar 1
D-----------------------------------------------------------------|
A-----------------------------------------------------------------|
F-----------------------------------------------------------------|
C-5---5---5---5---5---5---5---5---5---5---5---5---5---5---5---5---|
G-5---5---5---5---5---5---5---5---5---5---5---5---5---5---5---5---|
C-5---5---5---5---5---5---5---5---5---5---5---5---5---5---5---5---|

==================================================================

Guitar 1
D-----------------------------------------------------------------|
A-----------------------------------------------------------------|
F-----------------------------------------------------------------|
C-0---0---0---0---0---0---0---0---0---0---0---0---0---0---0---0---|
G-0---0---0---0---0---0---0---0---0---0---0---0---0---0---0---0---|
C-0---0---0---0---0---0---0---0---0---0---0---0---0---0---0---0---|

==================================================================

Guitar 1
D-----------------------------------------------------------------|
A-----------------------------------------------------------------|
F-----------------------------------------------------------------|
C-3---3---3---3---3---3---3---3---3---3---3---3---3---3---3---3---|
G-3---3---3---3---3---3---3---3---3---3---3---3---3---3---3---3---|
C-3---3---3---3---3---3---3---3---3---3---3---3---3---3---3---3---|

==================================================================

Guitar 1
D-----------------------------------------------------------------|
A-----------------------------------------------------------------|
F-5---5---5---5---5---5---5---5---5---5---5---5---5---5---5---5---|
C-5---5---5---5---5---5---5---5---5---5---5---5---5---5---5---5---|
G-3---3---3---3---3---3---3---3---3---3---3---3---3---3---3---3---|
C-----------------------------------------------------------------|

==================================================================
==================================================================


Break Off 1

Guitar 1
D-----------------------------------------------------------------|
A-----------------------------------------------------------------|
F-----------------------------------------------------------------|
C-0---7---12--0---7---12--0---7---12--0---7---12--0---7---12--0---|
G-----------------------------------------------------------------|
C-----------------------------------------------------------------|
Pm.   .   .   .   .   .   .   .   .   .   .   .   .   .   .   .

==================================================================
==================================================================


Bridge 1

Guitar 1
D-----------------------------------------------------------------|
A-----------------------------------------------------------------|
F-----------------------------------------------------------------|
C-----------------------------------------------------------------|
G-8---------------0-1-3-------5-----------------------------------|
C-----0---0---0-----------0-------0---0---0---0---5---7---8---3---|
Pm    .       .           .       .       .

==================================================================

Guitar 1
D-----------------------------------------------------------------|
A-----------------------------------------------------------------|
F-----------------------------------------------------------------|
C-----------------------------------------------------------------|
G---------5-------------------5-----------------------------------|
C-0---7-------0---0-5-7---0-------0---0---0---8---5---7---3---5---|
Pm            .           .       .       .

==================================================================

Guitar 1
D-----------------------------------------------------------------|
A-----------------------------------------------------------------|
F-----------------------------------------------------------------|
C-----------------------------------------------------------------|
G-8---------------0-1-3-------5-----------------------------------|
C-----0---0---0-----------0-------0---0---0---0---5---7---8---3---|
Pm    .       .           .       .       .

==================================================================

Guitar 1
D-----------------------------------------------------------------|
A-----------------------------------------------------------------|
F-----------------------------------------------------------------|
C-----------------------------------------------------------------|
G---------5-------------------5-----------------------------------|
C-0---7-------0---0-5-7---0-------0---0---0---8---5---7---7---3---|
Pm            .           .       .       .

==================================================================
==================================================================


Verse 2

Guitar 1
D-----------------------------------------------------------------|
A-----------------------------------------------------------------|
F-----------------------------------------------------------------|
C-----------------------------------------------------------------|
G-8---------------0-1-3-------5-----------------------------------|
C-----0---0---0-----------0-------0---0---0---0---5---7---8---3---|
Pm    .       .           .       .       .

==================================================================

Guitar 1
D-----------------------------------------------------------------|
A-----------------------------------------------------------------|
F-----------------------------------------------------------------|
C-----------------------------------------------------------------|
G---------5-------------------5-----------------------------------|
C-0---7-------0---0-5-7---0-------0---0---0---8---5---7---3---5---|
Pm            .           .       .       .

==================================================================

Guitar 1
D-----------------------------------------------------------------|
A-----------------------------------------------------------------|
F-----------------------------------------------------------------|
C-----------------------------------------------------------------|
G-8---------------0-1-3-------5-----------------------------------|
C-----0---0---0-----------0-------0---0---0---0---5---7---8---3---|
Pm    .       .           .       .       .

==================================================================

Guitar 1
D-----------------------------------------------------------------|
A-----------------------------------------------------------------|
F-----------------------------------------------------------------|
C-----------------------------------------------------------------|
G---------5-------------------5-----------------------------------|
C-0---7-------0---0-5-7---0-------0---0---0---8---5---7---7---3---|
Pm            .           .       .       .

==================================================================
==================================================================


Pre Chorus 2

Guitar 1 (x3)
D-----------------------------------------------------------------|
A-----------------------------------------------------------------|
F-----------------------------------------------------------------|
C-0-0-0-0-0---0---0-0-0-0-0---0---0-0-0-0-0-0-3-5-0-5-3-0-0-0-0-2-|
G-0-0-0-0-0-0-0-5-0-0-0-0-0-3-0-5-0-0-0-0-0-0-3-5-0-5-3-0-3-3-0-0-|
C-0-0-0-0-0-3-0-7-0-0-0-0-0-5-0-7-0-0-0-0-0-0-3-5-0-5-3-0-----0---|
Pm. . . . .   .   . . . . .   .   . . . . . .     .     .     .

==================================================================

Guitar 1
D-----------------------------------------------------------------|
A-----------------------------------------------------------------|
F-----------------------------------------------------------------|
C-0-0-0-0-0---0---0-0-0-0-0---0---0-0-0-0-0-0---------------------|
G-0-0-0-0-0-0-0-5-0-0-0-0-0-3-0-5-0-0-0-0-0-0---------------------|
C-0-0-0-0-0-3-0-7-0-0-0-0-0-5-0-7-0-0-0-0-0-0---------------------|
Pm. . . . .   .   . . . . .   .   . . . . . .

==================================================================
==================================================================


Chorus 2

(x2)

Guitar 1
D-----------------------------------------------------------------|
A-----------------------------------------------------------------|
F-----------------------------------------------------------------|
C-0---0---0---0---0---0---0---0---0---0---0---0---0---0---0---0---|
G-0---0---0---0---0---0---0---0---0---0---0---0---0---0---0---0---|
C-0---0---0---0---0---0---0---0---0---0---0---0---0---0---0---0---|

==================================================================

Guitar 1
D-----------------------------------------------------------------|
A-----------------------------------------------------------------|
F-----------------------------------------------------------------|
C-7---7---7---7---7---7---7---7---7---7---7---7---7---7---7---7---|
G-7---7---7---7---7---7---7---7---7---7---7---7---7---7---7---7---|
C-7---7---7---7---7---7---7---7---7---7---7---7---7---7---7---7---|

==================================================================

Guitar 1
D-----------------------------------------------------------------|
A-----------------------------------------------------------------|
F-----------------------------------------------------------------|
C-3---3---3---3---3---3---3---3---3---3---3---3---3---3---3---3---|
G-3---3---3---3---3---3---3---3---3---3---3---3---3---3---3---3---|
C-3---3---3---3---3---3---3---3---3---3---3---3---3---3---3---3---|

==================================================================

Guitar 1
D-----------------------------------------------------------------|
A-----------------------------------------------------------------|
F-5---5---5---5---5---5---5---5---5---5---5---5---5---5---5---5---|
C-5---5---5---5---5---5---5---5---5---5---5---5---5---5---5---5---|
G-3---3---3---3---3---3---3---3---3---3---3---3---3---3---3---3---|
C-----------------------------------------------------------------|

==================================================================

Guitar 1
D-----------------------------------------------------------------|
A-----------------------------------------------------------------|
F-----------------------------------------------------------------|
C-5---5---5---5---5---5---5---5---5---5---5---5---5---5---5---5---|
G-5---5---5---5---5---5---5---5---5---5---5---5---5---5---5---5---|
C-5---5---5---5---5---5---5---5---5---5---5---5---5---5---5---5---|

==================================================================

Guitar 1
D-----------------------------------------------------------------|
A-----------------------------------------------------------------|
F-----------------------------------------------------------------|
C-0---0---0---0---0---0---0---0---0---0---0---0---0---0---0---0---|
G-0---0---0---0---0---0---0---0---0---0---0---0---0---0---0---0---|
C-0---0---0---0---0---0---0---0---0---0---0---0---0---0---0---0---|

==================================================================

Guitar 1
D-----------------------------------------------------------------|
A-----------------------------------------------------------------|
F-----------------------------------------------------------------|
C-3---3---3---3---3---3---3---3---3---3---3---3---3---3---3---3---|
G-3---3---3---3---3---3---3---3---3---3---3---3---3---3---3---3---|
C-3---3---3---3---3---3---3---3---3---3---3---3---3---3---3---3---|

==================================================================

Guitar 1
D-----------------------------------------------------------------|
A-----------------------------------------------------------------|
F-5---5---5---5---5---5---5---5---5---5---5---5---5---5---5---5---|
C-5---5---5---5---5---5---5---5---5---5---5---5---5---5---5---5---|
G-3---3---3---3---3---3---3---3---3---3---3---3---3---3---3---3---|
C-----------------------------------------------------------------|

==================================================================
==================================================================


Break Off 1

Guitar 1
D-----------------------------------------------------------------|
A-----------------------------------------------------------------|
F-----------------------------------------------------------------|
C-0---7---12--0---7---12--0---7---12--0---7---12--0---7---12--0---|
G-----------------------------------------------------------------|
C-----------------------------------------------------------------|
Pm.   .   .   .   .   .   .   .   .   .   .   .   .   .   .   .

==================================================================
==================================================================


Breakdown 1

Guitar 1 (x4)
D-----------------------------------------------------------------|
A-----------------------------------------------------------------|
F-----------------------------------------------------------------|
C-----------------------------------------------------------------|
G-----------------------------------------------------------------|
C-0-0-0---0---0---0---0-0-0---0---0---0---0-0-0---0---0-0-0-------|
Pm. . .   .   .   .   . . .   .   .   .   . . .   .   . . .

==================================================================
==================================================================


Guitar Solo Part 1

Guitar 1 (x4)
D-----------------------------------------------------------------|
A-----------------------------------------------------------------|
F-----------------------------------------------------------------|
C-----------------------------------------------------------------|
G-----------------------------------------------------------------|
C-0-0-0---0---0---0---0-0-0---0---0---0---0-0-0---0---0-0-0---0---|
Pm. . .   .   .   .   . . .   .   .   .   . . .   .   . . .   .

==================================================================
==================================================================


Guitar Solo Part 2

Guitar 1
D-----------------------------------------------------------------|
A-------------------------8---11--10--8---------------------------|
F---------------------7-------------------11--7-------------------|
C---------5---7---8-------------------------------8---7---5-------|
G-5---7-------------------------------------------------------7---|
C-----------------------------------------------------------------|

==================================================================

Guitar 1
D-------------------------5---6---5-------------------------------|
A-----------------3/--7---------------7---3-------3---4---3---7---|
F---------------------------------------------5-------------------|
C-----7---5---8---------------------------------------------------|
G-5---------------------------------------------------------------|
C-----------------------------------------------------------------|

==================================================================

Guitar 1
D---------------------8---10--11--10--8---------------------------|
A-8---7---10--11--10----------------------11--10--10--11--10--8---|
F-----------------------------------------------------------------|
C-----------------------------------------------------------------|
G-----------------------------------------------------------------|
C-----------------------------------------------------------------|

==================================================================

Guitar 1
D-----------------------------3---5---6---5-----------------------|
A-7\--3---4---------------3-------------------7---------------7---|
F-------------3---2---5---------------------------8---5---7-------|
C-----------------------------------------------------------------|
G-----------------------------------------------------------------|
C-----------------------------------------------------------------|
Pm                                                .   .   .   .

==================================================================
==================================================================


Breakdown 2

Guitar 1
D-15*~~~~~~~~~~~~~~~~~~~~~~~~~~~~-15*~~~~~~~~~~~~~\~~~~~~---------|
A-----------------------------------------------------------------|
F-----------------------------------------------------------------|
C-----------------------------------------------------------------|
G-----------------------------------------------------------------|
C-----------------------------------------------------------------|

==================================================================

Guitar 1
D-----------------------------------------------------------------|
A-----------------------------------------------------------------|
F-----------------------------------------------------------------|
C-----------------------------------------------------------------|
G-----------------------------------------------------------------|
C-0-0-0---0---0-0-0---0---0---0-----------0-0-0---0---0-0-0---0---|
Pm. . .   .   . . .   .   .   .           . . .   .   . . .   .

==================================================================

Guitar 1
D-----------------------------------------------------------------|
A-----------------------------------------------------------------|
F-----------------------------------------------------------------|
C---------------------------------0---0---0---0---0---0---0---0---|
G---------------------------------0---0---0---0---0---0---0---0---|
C-0-0-0---0---0-0-0---0---0---0---0---0---0---0---0---0---0---0---|
Pm. . .   .   . . .   .   .   .   .   .   .   .   .   .   .   .

==================================================================
==================================================================


Bridge 2

==================================================================
Rest
==================================================================


==================================================================

Guitar 1
D-----------------------------------------------------------------|
A-----------------------------------------------------------------|
F-----------------------------------------------------------------|
C-0~~~~~~~~~~~~~~~~~~~~~~~~~~~~~~~~~~~~~~~~~~~~~~~~~~~~~~~~~~~~~~-
G-0~~~~~~~~~~~~~~~~~~~~~~~~~~~~~~~~~~~~~~~~~~~~~~~~~~~~~~~~~~~~~~-
C-0~~~~~~~~~~~~~~~~~~~~~~~~~~~~~~~~~~~~~~~~~~~~~~~~~~~~~~~~~~~~~~-

==================================================================
==================================================================


Interlude

Guitar 1
D-----------------------------------------------------------------|
A-----------------------------------------------------------------|
F-----------------------------------------------------------------|
C-2---2---2---2---2---2---2---2---2---2---2---2---2---2---2---2---|
G-2---2---2---2---2---2---2---2---2---2---2---2---2---2---2---2---|
C-2---2---2---2---2---2---2---2---2---2---2---2---2---2---2---2---|

==================================================================

Guitar 1
D-----------------------------------------------------------------|
A-----------------------------------------------------------------|
F-4---4---4---4---4---4---4---4---4---4---4---4---4---4---4---4---|
C-4---4---4---4---4---4---4---4---4---4---4---4---4---4---4---4---|
G-2---2---2---2---2---2---2---2---2---2---2---2---2---2---2---2---|
C-----------------------------------------------------------------|

==================================================================

Guitar 1
D-----------------------------------------------------------------|
A-----------------------------------------------------------------|
F-----------------------------------------------------------------|
C-5---5---5---5---5---5---5---5---5---5---5---5---5---5---5---5---|
G-5---5---5---5---5---5---5---5---5---5---5---5---5---5---5---5---|
C-5---5---5---5---5---5---5---5---5---5---5---5---5---5---5---5---|

==================================================================

Guitar 1
D-----------------------------------------------------------------|
A-----------------------------------------------------------------|
F-----------------------------------------------------------------|
C-0---0---0---0---0---0---0---0---0---0---0---0---0---0---0---0---|
G-0---0---0---0---0---0---0---0---0---0---0---0---0---0---0---0---|
C-0---0---0---0---0---0---0---0---0---0---0---0---0---0---0---0---|

==================================================================

Guitar 1
D-----------------------------------------------------------------|
A-----------------------------------------------------------------|
F-----------------------------------------------------------------|
C-7---7---7---7---7---7---7---7---7---7---7---7---7---7---7---7---|
G-7---7---7---7---7---7---7---7---7---7---7---7---7---7---7---7---|
C-7---7---7---7---7---7---7---7---7---7---7---7---7---7---7---7---|

==================================================================

Guitar 1
D-----------------------------------------------------------------|
A-----------------------------------------------------------------|
F-----------------------------------------------------------------|
C-2---2---2---2---2---2---2---2---2---2---2---2---2---2---2---2---|
G-2---2---2---2---2---2---2---2---2---2---2---2---2---2---2---2---|
C-2---2---2---2---2---2---2---2---2---2---2---2---2---2---2---2---|

==================================================================

Guitar 1
D-----------------------------------------------------------------|
A-----------------------------------------------------------------|
F-----------------------------------------------------------------|
C-5---5---5---5---5---5---5---5---5---5---5---5---5---5---5---5---|
G-5---5---5---5---5---5---5---5---5---5---5---5---5---5---5---5---|
C-5---5---5---5---5---5---5---5---5---5---5---5---5---5---5---5---|

==================================================================

Guitar 1
D-----------------------------------------------------------------|
A-----------------------------------------------------------------|
F-----------------------------------------------------------------|
C-0---0---0---0---0---0---0---0---ps\~~~~~~~~~~~~~~~~~~~~~~~~~~~~-|
G-0---0---0---0---0---0---0---0---ps\~~~~~~~~~~~~~~~~~~~~~~~~~~~~-|
C-0---0---0---0---0---0---0---0---ps\~~~~~~~~~~~~~~~~~~~~~~~~~~~~-|

==================================================================
==================================================================


Chorus 3

(x2)

Guitar 1
D-----------------------------------------------------------------|
A-----------------------------------------------------------------|
F-----------------------------------------------------------------|
C-2---2---2---2---2---2---2---2---2---2---2---2---2---2---2---2---|
G-2---2---2---2---2---2---2---2---2---2---2---2---2---2---2---2---|
C-2---2---2---2---2---2---2---2---2---2---2---2---2---2---2---2---|

==================================================================

Guitar 1
D-----------------------------------------------------------------|
A-----------------------------------------------------------------|
F-4---4---4---4---4---4---4---4---4---4---4---4---4---4---4---4---|
C-4---4---4---4---4---4---4---4---4---4---4---4---4---4---4---4---|
G-2---2---2---2---2---2---2---2---2---2---2---2---2---2---2---2---|
C-----------------------------------------------------------------|

==================================================================

Guitar 1
D-----------------------------------------------------------------|
A-----------------------------------------------------------------|
F-----------------------------------------------------------------|
C-5---5---5---5---5---5---5---5---5---5---5---5---5---5---5---5---|
G-5---5---5---5---5---5---5---5---5---5---5---5---5---5---5---5---|
C-5---5---5---5---5---5---5---5---5---5---5---5---5---5---5---5---|

==================================================================

Guitar 1
D-----------------------------------------------------------------|
A-----------------------------------------------------------------|
F-----------------------------------------------------------------|
C-0---0---0---0---0---0---0---0---0---0---0---0---0---0---0---0---|
G-0---0---0---0---0---0---0---0---0---0---0---0---0---0---0---0---|
C-0---0---0---0---0---0---0---0---0---0---0---0---0---0---0---0---|

==================================================================

Guitar 1
D-----------------------------------------------------------------|
A-----------------------------------------------------------------|
F-----------------------------------------------------------------|
C-7---7---7---7---7---7---7---7---7---7---7---7---7---7---7---7---|
G-7---7---7---7---7---7---7---7---7---7---7---7---7---7---7---7---|
C-7---7---7---7---7---7---7---7---7---7---7---7---7---7---7---7---|

==================================================================

Guitar 1
D-----------------------------------------------------------------|
A-----------------------------------------------------------------|
F-----------------------------------------------------------------|
C-2---2---2---2---2---2---2---2---2---2---2---2---2---2---2---2---|
G-2---2---2---2---2---2---2---2---2---2---2---2---2---2---2---2---|
C-2---2---2---2---2---2---2---2---2---2---2---2---2---2---2---2---|

==================================================================

Guitar 1
D-----------------------------------------------------------------|
A-----------------------------------------------------------------|
F-----------------------------------------------------------------|
C-5---5---5---5---5---5---5---5---5---5---5---5---5---5---5---5---|
G-5---5---5---5---5---5---5---5---5---5---5---5---5---5---5---5---|
C-5---5---5---5---5---5---5---5---5---5---5---5---5---5---5---5---|

==================================================================

Guitar 1
D-----------------------------------------------------------------|
A-----------------------------------------------------------------|
F-----------------------------------------------------------------|
C-0---0---0---0---0---0---0---0---0---0---0---0---0---0---0---0---|
G-0---0---0---0---0---0---0---0---0---0---0---0---0---0---0---0---|
C-0---0---0---0---0---0---0---0---0---0---0---0---0---0---0---0---|

==================================================================
==================================================================


Outro

Guitar 1
D-----------------------------------------------------------------|
A-----------------------------------------------------------------|
F-----------------------------------------------------------------|
C-2~~~~~~~~~~~~~~~~~~~~~~~~~~~~~~~~~~~~~~~~~~~~~~~~~~~~~~~~~~~~~~-
G-2~~~~~~~~~~~~~~~~~~~~~~~~~~~~~~~~~~~~~~~~~~~~~~~~~~~~~~~~~~~~~~-
C-2~~~~~~~~~~~~~~~~~~~~~~~~~~~~~~~~~~~~~~~~~~~~~~~~~~~~~~~~~~~~~~-

==================================================================
==================================================================
==================================================================


==================================================================
Guitar 2
==================================================================


Intro

Guitar 2
D-----------------------------------------------------------------|
A-----------------------------------------------------------------|
F-----------------------------------------------------------------|
C-----------------------------------------------------------------|
G-8---------------0-1-3-------5-----------------------------------|
C-----0---0---0-----------0-------0---0---0---0---5---7---8---3---|
Pm    .       .           .       .       .

==================================================================

Guitar 2
D-----------------------------------------------------------------|
A-----------------------------------------------------------------|
F-----------------------------------------------------------------|
C-----------------------------------------------------------------|
G---------5-------------------5-----------------------------------|
C-0---7-------0---0-5-7---0-------0---0---0---8---5---7---3---5---|
Pm            .           .       .       .

==================================================================

Guitar 2
D-----------------------------------------------------------------|
A-----------------------------------------------------------------|
F-----------------------------------------------------------------|
C-----------------------------------------------------------------|
G-8---------------0-1-3-------5-----------------------------------|
C-----0---0---0-----------0-------0---0---0---0---5---7---8---3---|
Pm    .       .           .       .       .

==================================================================

Guitar 2
D-----------------------------------------------------------------|
A-----------------------------------------------------------------|
F-----------------------------------------------------------------|
C-----------------------------------------------------------------|
G---------5-------------------5-----------------------------------|
C-0---7-------0---0-5-7---0-------0---0---0---8---5---7---7-------|
Pm            .           .       .       .

==================================================================
==================================================================


Verse 1

(x2)

Guitar 2
D-----------------------------------------------------------------|
A-----------------------------------------------------------------|
F-----------------------------------------------------------------|
C-----------------------------------------------------------------|
G-8---------------0-1-3-------5-----------------------------------|
C-----0---0---0-----------0-------0---0---0---0---5---7---8---3---|
Pm    .       .           .       .       .

==================================================================

Guitar 2
D-----------------------------------------------------------------|
A-----------------------------------------------------------------|
F-----------------------------------------------------------------|
C-----------------------------------------------------------------|
G---------5-------------------5-----------------------------------|
C-0---7-------0---0-5-7---0-------0---0---0---8---5---7---3---5---|
Pm            .           .       .       .

==================================================================

Guitar 2
D-----------------------------------------------------------------|
A-----------------------------------------------------------------|
F-----------------------------------------------------------------|
C-----------------------------------------------------------------|
G-8---------------0-1-3-------5-----------------------------------|
C-----0---0---0-----------0-------0---0---0---0---5---7---8---3---|
Pm    .       .           .       .       .

==================================================================

Guitar 2
D-----------------------------------------------------------------|
A-----------------------------------------------------------------|
F-----------------------------------------------------------------|
C-----------------------------------------------------------------|
G---------5-------------------5-----------------------------------|
C-0---7-------0---0-5-7---0-------0---0---0---8---5---7---7---3---|
Pm            .           .       .       .

==================================================================
==================================================================


Pre Chorus 1

Guitar 2 (x3)
D-----------------------------------------------------------------|
A-----------------------------------------------------------------|
F-----------------------------------------------------------------|
C-0-0-0-0-0---0---0-0-0-0-0---0---0-0-0-0-0-0-3-5-0-5-3-0-0-0-0-2-|
G-0-0-0-0-0-0-0-5-0-0-0-0-0-3-0-5-0-0-0-0-0-0-3-5-0-5-3-0-3-3-0-0-|
C-0-0-0-0-0-3-0-7-0-0-0-0-0-5-0-7-0-0-0-0-0-0-3-5-0-5-3-0-----0---|
Pm. . . . .   .   . . . . .   .   . . . . . .     .     .     .

==================================================================

Guitar 2
D-----------------------------------------------------------------|
A-----------------------------------------------------------------|
F-----------------------------------------------------------------|
C-0-0-0-0-0---0---0-0-0-0-0---0---0-0-0-0-0-0-3-5-0-5-3-0-/12\~~~-|
G-0-0-0-0-0-0-0-5-0-0-0-0-0-3-0-5-0-0-0-0-0-0-3-5-0-5-3-0-/12\~~~-|
C-0-0-0-0-0-3-0-7-0-0-0-0-0-5-0-7-0-0-0-0-0-0-3-5-0-5-3-0-/12\~~~-|
Pm. . . . .   .   . . . . .   .   . . . . . .     .     .     .

==================================================================
==================================================================


Chorus 1

Guitar 2
D-----------------------------------------------------------------|
A-----------------------------------------------------------------|
F-----------------------------------------------------------------|
C-12~~~~~~~~~~~~~~~~~~~~~~~~~~~~~~~~~~~~~~~~~~~~~-12/~-15~~~~~~~~-|
G-----------------------------------------------------------------|
C-----------------------------------------------------------------|

==================================================================

Guitar 2
D-----------------------------------------------------------------|
A-----------------------------------------------------------------|
F-----------------------------------------------------------------|
C-14~~~~~~~~~~~~~~~~~~~~~~~~~~~~~~~~~~~~~~~~~~~~~-14/~-17~~~~~~~~-|
G-----------------------------------------------------------------|
C-----------------------------------------------------------------|

==================================================================

Guitar 2
D-----------------------------------------------------------------|
A-----------------------------------------------------------------|
F-------------------------------------------------14~~~~~---------|
C-15~~~~~~~~~~~~~~~~~~~~~~~~~~~~~~~~~~~~~~~~~~~~~---------15~~~~~-|
G-----------------------------------------------------------------|
C-----------------------------------------------------------------|

==================================================================

Guitar 2
D-----------------------------------------------------------------|
A-----------------------------------------------------------------|
F-----------------------------------------------------------------|
C-14~~~~~~~~~~~~~~~~~~~~~~~~~~~~~~~~~~~~~~~~~~~~~-15~~~~~-10~~~~~-|
G-----------------------------------------------------------------|
C-----------------------------------------------------------------|

==================================================================

Guitar 2
D-----------------------------------------------------------------|
A-----------------------------------------------------------------|
F-----------------------------------------------------------------|
C-12~~~~~~~~~~~~~~~~~~~~~~~~~~~~~~~~~~~~~~~~~~~~~-14~~~~~-15~~~~~-|
G-----------------------------------------------------------------|
C-----------------------------------------------------------------|

==================================================================

Guitar 2
D-----------------------------------------------------------------|
A-----------------------------------------------------------------|
F-----------------------------------------------------------------|
C-12~~~~~~~~~~~~~~~~~~~~~~~~~~~~~~~~~~~~~~~~~~~~~-14~~~~~-15~~~~~-|
G-----------------------------------------------------------------|
C-----------------------------------------------------------------|

==================================================================

Guitar 2
D-----------------------------------------------------------------|
A-----------------------------------------------------------------|
F-----------------------------------------------------------------|
C-15~~~~~~~~~~~~~~~~~~~~~-10~~~~~~~~~~~~~~~~~~~~~-----------------|
G-------------------------------------------------12~~~~~~~~~~~~~-|
C-----------------------------------------------------------------|

==================================================================

Guitar 2
D-----------------------------------------------------------------|
A-----------------------------------------------------------------|
F-----------------------------------------------------------------|
C-10~~~~~~~~~~~~~~~~~~~~~~~~~~~~~~~~~~~~~~~~~~~~~-15~~~~~-14~~~~~-|
G-----------------------------------------------------------------|
C-----------------------------------------------------------------|

==================================================================
==================================================================


Break Off 1

Guitar 2
D-----------------------------------------------------------------|
A-----------------------------------------------------------------|
F-----------------------------------------------------------------|
C-12~~~~~~~~~~~~~~~~~~~~~~~~~~~~~~b~~~~~~~~~~~~~~~~~~~~~~~~~~~~~~-
G-----------------------------------------------------------------|
C-----------------------------------------------------------------|

==================================================================
==================================================================


Bridge 1

Guitar 2
D-----------------------------------------------------------------|
A-----------------------------------------------------------------|
F-----------------------------------------------------------------|
C-----------------------------------------------------------------|
G-8---------------0-1-3-------5-----------------------------------|
C-----0---0---0-----------0-------0---0---0---0---5---7---8---3---|
Pm    .       .           .       .       .

==================================================================

Guitar 2
D-----------------------------------------------------------------|
A-----------------------------------------------------------------|
F-----------------------------------------------------------------|
C-----------------------------------------------------------------|
G---------5-------------------5-----------------------------------|
C-0---7-------0---0-5-7---0-------0---0---0---8---5---7---3---5---|
Pm            .           .       .       .

==================================================================

Guitar 2
D-----------------------------------------------------------------|
A-----------------------------------------------------------------|
F-----------------------------------------------------------------|
C-----------------------------------------------------------------|
G-8---------------0-1-3-------5-----------------------------------|
C-----0---0---0-----------0-------0---0---0---0---5---7---8---3---|
Pm    .       .           .       .       .

==================================================================

Guitar 2
D-----------------------------------------------------------------|
A-----------------------------------------------------------------|
F-----------------------------------------------------------------|
C-----------------------------------------------------------------|
G---------5-------------------5-----------------------------------|
C-0---7-------0---0-5-7---0-------0---0---0---8---5---7---7---3---|
Pm            .           .       .       .

==================================================================
==================================================================


Verse 2

Guitar 2
D-----------------------------------------------------------------|
A-----------------------------------------------------------------|
F-----------------------------------------------------------------|
C-----------------------------------------------------------------|
G-8---------------0-1-3-------5-----------------------------------|
C-----0---0---0-----------0-------0---0---0---0---5---7---8---3---|
Pm    .       .           .       .       .

==================================================================

Guitar 2
D-----------------------------------------------------------------|
A-----------------------------------------------------------------|
F-----------------------------------------------------------------|
C-----------------------------------------------------------------|
G---------5-------------------5-----------------------------------|
C-0---7-------0---0-5-7---0-------0---0---0---8---5---7---3---5---|
Pm            .           .       .       .

==================================================================

Guitar 2
D-----------------------------------------------------------------|
A-----------------------------------------------------------------|
F-----------------------------------------------------------------|
C-----------------------------------------------------------------|
G-8---------------0-1-3-------5-----------------------------------|
C-----0---0---0-----------0-------0---0---0---0---5---7---8---3---|
Pm    .       .           .       .       .

==================================================================

Guitar 2
D-----------------------------------------------------------------|
A-----------------------------------------------------------------|
F-----------------------------------------------------------------|
C-----------------------------------------------------------------|
G---------5-------------------5-----------------------------------|
C-0---7-------0---0-5-7---0-------0---0---0---8---5---7---7---3---|
Pm            .           .       .       .

==================================================================
==================================================================


Pre Chorus 2

Guitar 2 (x3)
D-----------------------------------------------------------------|
A-----------------------------------------------------------------|
F-----------------------------------------------------------------|
C-0-0-0-0-0---0---0-0-0-0-0---0---0-0-0-0-0-0-3-5-0-5-3-0-0-0-0-2-|
G-0-0-0-0-0-0-0-5-0-0-0-0-0-3-0-5-0-0-0-0-0-0-3-5-0-5-3-0-3-3-0-0-|
C-0-0-0-0-0-3-0-7-0-0-0-0-0-5-0-7-0-0-0-0-0-0-3-5-0-5-3-0-----0---|
Pm. . . . .   .   . . . . .   .   . . . . . .     .     .     .

==================================================================

Guitar 2
D-----------------------------------------------------------------|
A-----------------------------------------------------------------|
F-----------------------------------------------------------------|
C-0-0-0-0-0---0---0-0-0-0-0---0---0-0-0-0-0-0---------------------|
G-0-0-0-0-0-0-0-5-0-0-0-0-0-3-0-5-0-0-0-0-0-0---------------------|
C-0-0-0-0-0-3-0-7-0-0-0-0-0-5-0-7-0-0-0-0-0-0---------------------|
Pm. . . . .   .   . . . . .   .   . . . . . .

==================================================================
==================================================================


Chorus 2

(x2)

Guitar 2
D-----------------------------------------------------------------|
A-----------------------------------------------------------------|
F-----------------------------------------------------------------|
C-12~~~~~~~~~~~~~~~~~~~~~~~~~~~~~~~~~~~~~~~~~~~~~-12/~-15~~~~~~~~-|
G-----------------------------------------------------------------|
C-----------------------------------------------------------------|

==================================================================

Guitar 2
D-----------------------------------------------------------------|
A-----------------------------------------------------------------|
F-----------------------------------------------------------------|
C-14~~~~~~~~~~~~~~~~~~~~~~~~~~~~~~~~~~~~~~~~~~~~~-14/~-17~~~~~~~~-|
G-----------------------------------------------------------------|
C-----------------------------------------------------------------|

==================================================================

Guitar 2
D-----------------------------------------------------------------|
A-----------------------------------------------------------------|
F-------------------------------------------------14~~~~~---------|
C-15~~~~~~~~~~~~~~~~~~~~~~~~~~~~~~~~~~~~~~~~~~~~~---------15~~~~~-|
G-----------------------------------------------------------------|
C-----------------------------------------------------------------|

==================================================================

Guitar 2
D-----------------------------------------------------------------|
A-----------------------------------------------------------------|
F-----------------------------------------------------------------|
C-14~~~~~~~~~~~~~~~~~~~~~~~~~~~~~~~~~~~~~~~~~~~~~-15~~~~~-10~~~~~-|
G-----------------------------------------------------------------|
C-----------------------------------------------------------------|

==================================================================

Guitar 2
D-----------------------------------------------------------------|
A-----------------------------------------------------------------|
F-----------------------------------------------------------------|
C-12~~~~~~~~~~~~~~~~~~~~~~~~~~~~~~~~~~~~~~~~~~~~~-14~~~~~-15~~~~~-|
G-----------------------------------------------------------------|
C-----------------------------------------------------------------|

==================================================================

Guitar 2
D-----------------------------------------------------------------|
A-----------------------------------------------------------------|
F-----------------------------------------------------------------|
C-12~~~~~~~~~~~~~~~~~~~~~~~~~~~~~~~~~~~~~~~~~~~~~-14~~~~~-15~~~~~-|
G-----------------------------------------------------------------|
C-----------------------------------------------------------------|

==================================================================

Guitar 2
D-----------------------------------------------------------------|
A-----------------------------------------------------------------|
F-----------------------------------------------------------------|
C-15~~~~~~~~~~~~~~~~~~~~~-10~~~~~~~~~~~~~~~~~~~~~-----------------|
G-------------------------------------------------12~~~~~~~~~~~~~-|
C-----------------------------------------------------------------|

==================================================================

Guitar 2
D-----------------------------------------------------------------|
A-----------------------------------------------------------------|
F-----------------------------------------------------------------|
C-10~~~~~~~~~~~~~~~~~~~~~~~~~~~~~~~~~~~~~~~~~~~~~-15~~~~~-14~~~~~-|
G-----------------------------------------------------------------|
C-----------------------------------------------------------------|

==================================================================
==================================================================


Break Off 1

Guitar 2
D-----------------------------------------------------------------|
A-----------------------------------------------------------------|
F-----------------------------------------------------------------|
C-12~~~~~~~~~~~~~~~~~~~~~~~~~~~~~~b~~~~~~~~~~~~~~~~~~~~~~~~~~~~~~-
G-----------------------------------------------------------------|
C-----------------------------------------------------------------|

==================================================================
==================================================================


Breakdown 1

Guitar 2 (x4)
D-----------------------------------------------------------------|
A-----------------------------------------------------------------|
F-----------------------------------------------------------------|
C-----------------------------------------------------------------|
G-----------------------------------------------------------------|
C-0-0-0---0---0---0---0-0-0---0---0---0---0-0-0---0---0-0-0-------|
Pm. . .   .   .   .   . . .   .   .   .   . . .   .   . . .

==================================================================
==================================================================


Guitar Solo Part 1

Guitar 2
D-22~~~~~~~~~~~~~~~~~~~~~~b~~~~~~~~~~~~~~-20~~b~~~r~~~b~~~r~~~b~~-|
A-----------------------------------------------------------------|
F-----------------------------------------------------------------|
C-----------------------------------------------------------------|
G-----------------------------------------------------------------|
C-----------------------------------------------------------------|

==================================================================

Guitar 2
D-18-20-18-17-18\~-17----------------------------------------------|
A---------------------19-16-19-16-------16-19-16-15-16-15----------|
F---------------------------------17-14-------------------17-15-14-|
C------------------------------------------------------------------|
G------------------------------------------------------------------|
C------------------------------------------------------------------|

==================================================================

Guitar 2
D---------------------------------18b~~~~~~~~r~~~~~~~~b~~~~~~~~~~-|
A-----------------------------------------------------------------|
F-----------------------------------------------------------------|
C-17b~~~~~~~~r~~~~~~~~b~~~~~~~~~~---------------------------------|
G-----------------------------------------------------------------|
C-----------------------------------------------------------------|

==================================================================

Guitar 2
D-------------------------------------------------|
A-15-16-15-13-15-13----13-------------------------|
F-------------------15----15-14-15-14-12-14-12-11-|
C-------------------------------------------------|
G-------------------------------------------------|
C-------------------------------------------------|

Guitar 2 continued
D-------------------------------|
A-------------------------------|
F-12-11----11-------------------|
C-------13----13-12-13-12-10-12-|
G-------------------------------|
C-------------------------------|

==================================================================
==================================================================


Guitar Solo Part 2

Guitar 2
D-----------------------------------------------------------------|
A-----------------------------------------------------------------|
F-----------------------------------------------------------------|
C-10~~~~~~~~~~~~~~b~~~~~~~~~~~~~~~~~~~~~~~~~~~~~~~~~~~~~~~~~~~~~~-
G-----------------------------------------------------------------|
C-----------------------------------------------------------------|

==================================================================

Guitar 2 (x3)
D-----------------------------------------------------------------|
A-----------------------------------------------------------------|
F-----------------------------------------------------------------|
C-----------------------------------------------------------------|
G-----------------------------------------------------------------|
C-0-0-0---0---0---0---0-0-0---0---0---0---0-0-0---0---0-0-0---0---|
Pm. . .   .   .   .   . . .   .   .   .   . . .   .   . . .   .

==================================================================
==================================================================


Breakdown 2

Guitar 2 (x3)
D-----------------------------------------------------------------|
A-----------------------------------------------------------------|
F-----------------------------------------------------------------|
C-----------------------------------------------------------------|
G-----------------------------------------------------------------|
C-0-0-0---0---0-0-0---0---0---0-----------0-0-0---0---0-0-0---0---|
Pm. . .   .   . . .   .   .   .           . . .   .   . . .   .

==================================================================

Guitar 2
D-----------------------------------------------------------------|
A-----------------------------------------------------------------|
F-----------------------------------------------------------------|
C---------------------------------0---0---0---0---0---0---0---0---|
G---------------------------------0---0---0---0---0---0---0---0---|
C-0-0-0---0---0-0-0---0---0---0---0---0---0---0---0---0---0---0---|
Pm. . .   .   . . .   .   .   .   .   .   .   .   .   .   .   .

==================================================================
==================================================================


Bridge 2

Guitar 2
D-----------------------------------------------------------------|
A-----------------------------------------------------------------|
F-----------------------------------------------------------------|
C-14~~~~~~~~~~~~~~~~~~~~~~~~~~~~~~~~~~~~~~~~~~~~~-14/~-17~~~~~~~~-|
G-----------------------------------------------------------------|
C-----------------------------------------------------------------|

==================================================================

Guitar 2
D-----------------------------------------------------------------|
A-----------------------------------------------------------------|
F-----------------------------------------------------------------|
C-16~~~~~~~~~~~~~~~~~~~~~~~~~~~~~~~~~~~~~~~~~~~~~-16/~-19~~~~~~~~-|
G-----------------------------------------------------------------|
C-----------------------------------------------------------------|

==================================================================

Guitar 2
D-----------------------------------------------------------------|
A-----------------------------------------------------------------|
F-------------------------------------------------16~~~~~---------|
C-17~~~~~~~~~~~~~~~~~~~~~~~~~~~~~~~~~~~~~~~~~~~~~---------17~~~~~-|
G-----------------------------------------------------------------|
C-----------------------------------------------------------------|

==================================================================

Guitar 2
D-----------------------------------------------------------------|
A-----------------------------------------------------------------|
F-----------------------------------------------------------------|
C-16~~~~~~~~~~~~~~~~~~~~~~~~~~~~~~~~~~~~~~~~~~~~~-17~~~~~-12~~~~~-|
G-----------------------------------------------------------------|
C-----------------------------------------------------------------|

==================================================================

Guitar 2
D-----------------------------------------------------------------|
A-----------------------------------------------------------------|
F-----------------------------------------------------------------|
C-14~~~~~~~~~~~~~~~~~~~~~~~~~~~~~~~~~~~~~~~~~~~~~-16~~~~~-17~~~~~-|
G-----------------------------------------------------------------|
C-----------------------------------------------------------------|

==================================================================

Guitar 2
D-----------------------------------------------------------------|
A-----------------------------------------------------------------|
F-----------------------------------------------------------------|
C-14~~~~~~~~~~~~~~~~~~~~~~~~~~~~~~~~~~~~~~~~~~~~~-16~~~~~-17~~~~~-|
G-----------------------------------------------------------------|
C-----------------------------------------------------------------|

==================================================================

Guitar 2
D-----------------------------------------------------------------|
A-----------------------------------------------------------------|
F-----------------------------------------------------------------|
C-17~~~~~~~~~~~~~~~~~~~~~-12~~~~~~~~~~~~~~~~~~~~~-----------------|
G-------------------------------------------------14~~~~~~~~~~~~~-|
C-----------------------------------------------------------------|

==================================================================

Guitar 2
D-----------------------------------------------------------------|
A-----------------------------------------------------------------|
F-----------------------------------------------------------------|
C-12~~~~~~~~~~~~~~~~~~~~~~~~~~~~~~~~~~~~~~~~~~~~~-17~~~~~-16~~~~~-|
G-----------------------------------------------------------------|
C-----------------------------------------------------------------|

==================================================================
==================================================================


Interlude

Guitar 2
D-----------------------------------------------------------------|
A-----------------------------------------------------------------|
F-----------------------------------------------------------------|
C-14~~~~~~~~~~~~~~~~~~~~~~~~~~~~~~~~~~~~~~~~~~~~~-14/~-17~~~~~~~~-|
G-----------------------------------------------------------------|
C-----------------------------------------------------------------|

==================================================================

Guitar 2
D-----------------------------------------------------------------|
A-----------------------------------------------------------------|
F-----------------------------------------------------------------|
C-16~~~~~~~~~~~~~~~~~~~~~~~~~~~~~~~~~~~~~~~~~~~~~-16/~-19~~~~~~~~-|
G-----------------------------------------------------------------|
C-----------------------------------------------------------------|

==================================================================

Guitar 2
D-----------------------------------------------------------------|
A-----------------------------------------------------------------|
F-------------------------------------------------16~~~~~---------|
C-17~~~~~~~~~~~~~~~~~~~~~~~~~~~~~~~~~~~~~~~~~~~~~---------17~~~~~-|
G-----------------------------------------------------------------|
C-----------------------------------------------------------------|

==================================================================

Guitar 2
D-----------------------------------------------------------------|
A-----------------------------------------------------------------|
F-----------------------------------------------------------------|
C-16~~~~~~~~~~~~~~~~~~~~~~~~~~~~~~~~~~~~~~~~~~~~~-17~~~~~-12~~~~~-|
G-----------------------------------------------------------------|
C-----------------------------------------------------------------|

==================================================================

Guitar 2
D-----------------------------------------------------------------|
A-----------------------------------------------------------------|
F-----------------------------------------------------------------|
C-14~~~~~~~~~~~~~~~~~~~~~~~~~~~~~~~~~~~~~~~~~~~~~-16~~~~~-17~~~~~-|
G-----------------------------------------------------------------|
C-----------------------------------------------------------------|

==================================================================

Guitar 2
D-----------------------------------------------------------------|
A-----------------------------------------------------------------|
F-----------------------------------------------------------------|
C-14~~~~~~~~~~~~~~~~~~~~~~~~~~~~~~~~~~~~~~~~~~~~~-16~~~~~-17~~~~~-|
G-----------------------------------------------------------------|
C-----------------------------------------------------------------|

==================================================================

Guitar 2
D-----------------------------------------------------------------|
A-----------------------------------------------------------------|
F-----------------------------------------------------------------|
C-17~~~~~~~~~~~~~~~~~~~~~-12~~~~~~~~~~~~~~~~~~~~~-----------------|
G-------------------------------------------------14~~~~~~~~~~~~~-|
C-----------------------------------------------------------------|

==================================================================

Guitar 2
D-----------------------------------------------------------------|
A-----------------------------------------------------------------|
F-----------------------------------------------------------------|
C-12~~~~~~~~~~~~~~~~~~~~~~~~~~~~~~~~~~~~~~~~~~~~~-17~~~~~-16~~~~~-|
G-----------------------------------------------------------------|
C-----------------------------------------------------------------|

==================================================================
==================================================================


Chorus 3

(x2)

Guitar 2
D-----------------------------------------------------------------|
A-----------------------------------------------------------------|
F-----------------------------------------------------------------|
C-14~~~~~~~~~~~~~~~~~~~~~~~~~~~~~~~~~~~~~~~~~~~~~-14/~-17~~~~~~~~-|
G-----------------------------------------------------------------|
C-----------------------------------------------------------------|

==================================================================

Guitar 2
D-----------------------------------------------------------------|
A-----------------------------------------------------------------|
F-----------------------------------------------------------------|
C-16~~~~~~~~~~~~~~~~~~~~~~~~~~~~~~~~~~~~~~~~~~~~~-16/~-19~~~~~~~~-|
G-----------------------------------------------------------------|
C-----------------------------------------------------------------|

==================================================================

Guitar 2
D-----------------------------------------------------------------|
A-----------------------------------------------------------------|
F-------------------------------------------------16~~~~~---------|
C-17~~~~~~~~~~~~~~~~~~~~~~~~~~~~~~~~~~~~~~~~~~~~~---------17~~~~~-|
G-----------------------------------------------------------------|
C-----------------------------------------------------------------|

==================================================================

Guitar 2
D-----------------------------------------------------------------|
A-----------------------------------------------------------------|
F-----------------------------------------------------------------|
C-16~~~~~~~~~~~~~~~~~~~~~~~~~~~~~~~~~~~~~~~~~~~~~-17~~~~~-12~~~~~-|
G-----------------------------------------------------------------|
C-----------------------------------------------------------------|

==================================================================

Guitar 2
D-----------------------------------------------------------------|
A-----------------------------------------------------------------|
F-----------------------------------------------------------------|
C-14~~~~~~~~~~~~~~~~~~~~~~~~~~~~~~~~~~~~~~~~~~~~~-16~~~~~-17~~~~~-|
G-----------------------------------------------------------------|
C-----------------------------------------------------------------|

==================================================================

Guitar 2
D-----------------------------------------------------------------|
A-----------------------------------------------------------------|
F-----------------------------------------------------------------|
C-14~~~~~~~~~~~~~~~~~~~~~~~~~~~~~~~~~~~~~~~~~~~~~-16~~~~~-17~~~~~-|
G-----------------------------------------------------------------|
C-----------------------------------------------------------------|

==================================================================

Guitar 2
D-----------------------------------------------------------------|
A-----------------------------------------------------------------|
F-----------------------------------------------------------------|
C-17~~~~~~~~~~~~~~~~~~~~~-12~~~~~~~~~~~~~~~~~~~~~-----------------|
G-------------------------------------------------14~~~~~~~~~~~~~-|
C-----------------------------------------------------------------|

==================================================================

Guitar 2
D-----------------------------------------------------------------|
A-----------------------------------------------------------------|
F-----------------------------------------------------------------|
C-12~~~~~~~~~~~~~~~~~~~~~~~~~~~~~~~~~~~~~~~~~~~~~-17~~~~~-16~~~~~-|
G-----------------------------------------------------------------|
C-----------------------------------------------------------------|

==================================================================
==================================================================


Outro

Guitar 2
D-----------------------------------------------------------------|
A-----------------------------------------------------------------|
F-----------------------------------------------------------------|
C-14~~~~~~~~~~~~~~~~~~~~~~~~~~~~~~~~~~~~~~~~~~~~~~~~~~~~~~~~~~~~~-
G-----------------------------------------------------------------|
C-----------------------------------------------------------------|

==================================================================
==================================================================
==================================================================


==================================================================
Guitar 3
==================================================================


Chorus 1

Guitar 3
D-----------------------------------------------------------------|
A-----------------------------------------------------------------|
F-----------------------------------------------------------------|
C-0---7---12--0---7---12--0---7---12--0---7---12--0---7---12--0---|
G-----------------------------------------------------------------|
C-----------------------------------------------------------------|
Pm.   .   .   .   .   .   .   .   .   .   .   .   .   .   .   .

==================================================================

Guitar 3
D-----------------------------------------------------------------|
A-----------------------------------------------------------------|
F-----------------------------------------------------------------|
C-0---3---7---0---3---7---0---3---7---0---3---7---0---3---7---0---|
G-----------------------------------------------------------------|
C-----------------------------------------------------------------|
Pm.   .   .   .   .   .   .   .   .   .   .   .   .   .   .   .

==================================================================

Guitar 3
D-----------------------------------------------------------------|
A-----------------------------------------------------------------|
F-----------------------------------------------------------------|
C-0---10--15--0---10--15--0---10--15--0---10--15--0---10--15--0---|
G-----------------------------------------------------------------|
C-----------------------------------------------------------------|
Pm.   .   .   .   .   .   .   .   .   .   .   .   .   .   .   .

==================================================================

Guitar 3
D-----------------------------------------------------------------|
A-----------------------------------------------------------------|
F-----------------------------------------------------------------|
C-0---7---10--0---7---10--0---7---10--0---7---10--0---7---10--0---|
G-----------------------------------------------------------------|
C-----------------------------------------------------------------|
Pm.   .   .   .   .   .   .   .   .   .   .   .   .   .   .   .

==================================================================

Guitar 3
D-----------------------------------------------------------------|
A-----------------------------------------------------------------|
F-----12--15------12--15------12--15------12--15------12--15------|
C-0-----------0-----------0-----------0-----------0-----------0---|
G-----------------------------------------------------------------|
C-----------------------------------------------------------------|
Pm.   .   .   .   .   .   .   .   .   .   .   .   .   .   .   .

==================================================================

Guitar 3
D-----------------------------------------------------------------|
A-----------------------------------------------------------------|
F-----7---10------7---10------7---10------7---10------7---10------|
C-0-----------0-----------0-----------0-----------0-----------0---|
G-----------------------------------------------------------------|
C-----------------------------------------------------------------|
Pm.   .   .   .   .   .   .   .   .   .   .   .   .   .   .   .

==================================================================

Guitar 3
D-----------------------------------------------------------------|
A-----------------------------------------------------------------|
F-----10--14------10--14------10--14------10--14------10--14------|
C-0-----------0-----------0-----------0-----------0-----------0---|
G-----------------------------------------------------------------|
C-----------------------------------------------------------------|
Pm.   .   .   .   .   .   .   .   .   .   .   .   .   .   .   .

==================================================================

Guitar 3
D-----------------------------------------------------------------|
A-----------------------------------------------------------------|
F-----5---9-------5---9-------5---9-------5---9-------5---9-------|
C-0-----------0-----------0-----------0-----------0-----------0---|
G-----------------------------------------------------------------|
C-----------------------------------------------------------------|
Pm.   .   .   .   .   .   .   .   .   .   .   .   .   .   .   .

==================================================================
==================================================================


Break Off 1

Guitar 3
D-----------------------------------------------------------------|
A-----------------------------------------------------------------|
F-----7---10------7---10------7---10------7---10------7---10------|
C-0-----------0-----------0-----------0-----------0-----------0---|
G-----------------------------------------------------------------|
C-----------------------------------------------------------------|
Pm.   .   .   .   .   .   .   .   .   .   .   .   .   .   .   .

==================================================================
==================================================================


Chorus 2

(x2)

Guitar 3
D-----------------------------------------------------------------|
A-----------------------------------------------------------------|
F-----------------------------------------------------------------|
C-0---7---12--0---7---12--0---7---12--0---7---12--0---7---12--0---|
G-----------------------------------------------------------------|
C-----------------------------------------------------------------|
Pm.   .   .   .   .   .   .   .   .   .   .   .   .   .   .   .

==================================================================

Guitar 3
D-----------------------------------------------------------------|
A-----------------------------------------------------------------|
F-----------------------------------------------------------------|
C-0---3---7---0---3---7---0---3---7---0---3---7---0---3---7---0---|
G-----------------------------------------------------------------|
C-----------------------------------------------------------------|
Pm.   .   .   .   .   .   .   .   .   .   .   .   .   .   .   .

==================================================================

Guitar 3
D-----------------------------------------------------------------|
A-----------------------------------------------------------------|
F-----------------------------------------------------------------|
C-0---10--15--0---10--15--0---10--15--0---10--15--0---10--15--0---|
G-----------------------------------------------------------------|
C-----------------------------------------------------------------|
Pm.   .   .   .   .   .   .   .   .   .   .   .   .   .   .   .

==================================================================

Guitar 3
D-----------------------------------------------------------------|
A-----------------------------------------------------------------|
F-----------------------------------------------------------------|
C-0---7---10--0---7---10--0---7---10--0---7---10--0---7---10--0---|
G-----------------------------------------------------------------|
C-----------------------------------------------------------------|
Pm.   .   .   .   .   .   .   .   .   .   .   .   .   .   .   .

==================================================================

Guitar 3
D-----------------------------------------------------------------|
A-----------------------------------------------------------------|
F-----12--15------12--15------12--15------12--15------12--15------|
C-0-----------0-----------0-----------0-----------0-----------0---|
G-----------------------------------------------------------------|
C-----------------------------------------------------------------|
Pm.   .   .   .   .   .   .   .   .   .   .   .   .   .   .   .

==================================================================

Guitar 3
D-----------------------------------------------------------------|
A-----------------------------------------------------------------|
F-----7---10------7---10------7---10------7---10------7---10------|
C-0-----------0-----------0-----------0-----------0-----------0---|
G-----------------------------------------------------------------|
C-----------------------------------------------------------------|
Pm.   .   .   .   .   .   .   .   .   .   .   .   .   .   .   .

==================================================================

Guitar 3
D-----------------------------------------------------------------|
A-----------------------------------------------------------------|
F-----10--14------10--14------10--14------10--14------10--14------|
C-0-----------0-----------0-----------0-----------0-----------0---|
G-----------------------------------------------------------------|
C-----------------------------------------------------------------|
Pm.   .   .   .   .   .   .   .   .   .   .   .   .   .   .   .

==================================================================

Guitar 3
D-----------------------------------------------------------------|
A-----------------------------------------------------------------|
F-----5---9-------5---9-------5---9-------5---9-------5---9-------|
C-0-----------0-----------0-----------0-----------0-----------0---|
G-----------------------------------------------------------------|
C-----------------------------------------------------------------|
Pm.   .   .   .   .   .   .   .   .   .   .   .   .   .   .   .

==================================================================
==================================================================


Break Off 1

Guitar 3
D-----------------------------------------------------------------|
A-----------------------------------------------------------------|
F-----7---10------7---10------7---10------7---10------7---10------|
C-0-----------0-----------0-----------0-----------0-----------0---|
G-----------------------------------------------------------------|
C-----------------------------------------------------------------|
Pm.   .   .   .   .   .   .   .   .   .   .   .   .   .   .   .

==================================================================
==================================================================


Interlude

(x2)

Guitar 3
D-----------------------------------------------------------------|
A-----0---5-------0---5-------0---5-------0---5-------0---5-------|
F-----------------------------------------------------------------|
C-2-----------2-----------2-----------2-----------2-----------2---|
G-----------------------------------------------------------------|
C-----------------------------------------------------------------|
Pm.   .   .   .   .   .   .   .   .   .   .   .   .   .   .   .

==================================================================

Guitar 3
D-----------------------------------------------------------------|
A-----------------------------------------------------------------|
F-----0---4-------0---4-------0---4-------0---4-------0---4-------|
C-2-----------2-----------2-----------2-----------2-----------2---|
G-----------------------------------------------------------------|
C-----------------------------------------------------------------|
Pm.   .   .   .   .   .   .   .   .   .   .   .   .   .   .   .

==================================================================

Guitar 3
D-----------------------------------------------------------------|
A-----------------------------------------------------------------|
F-----------------------------------------------------------------|
C-2---0---7---2---0---7---2---0---7---2---0---7---2---0---7---2---|
G-----------------------------------------------------------------|
C-----------------------------------------------------------------|
Pm.   .   .   .   .   .   .   .   .   .   .   .   .   .   .   .

==================================================================

Guitar 3
D-----------------------------------------------------------------|
A-----0---3-------0---3-------0---3-------0---3-------0---3-------|
F-----------------------------------------------------------------|
C-2-----------2-----------2-----------2-----------2-----------2---|
G-----------------------------------------------------------------|
C-----------------------------------------------------------------|
Pm.   .   .   .   .   .   .   .   .   .   .   .   .   .   .   .

==================================================================
==================================================================


Chorus 3

(x4)

Guitar 3
D-----------------------------------------------------------------|
A-----0---5-------0---5-------0---5-------0---5-------0---5-------|
F-----------------------------------------------------------------|
C-2-----------2-----------2-----------2-----------2-----------2---|
G-----------------------------------------------------------------|
C-----------------------------------------------------------------|
Pm.   .   .   .   .   .   .   .   .   .   .   .   .   .   .   .

==================================================================

Guitar 3
D-----------------------------------------------------------------|
A-----------------------------------------------------------------|
F-----0---4-------0---4-------0---4-------0---4-------0---4-------|
C-2-----------2-----------2-----------2-----------2-----------2---|
G-----------------------------------------------------------------|
C-----------------------------------------------------------------|
Pm.   .   .   .   .   .   .   .   .   .   .   .   .   .   .   .

==================================================================

Guitar 3
D-----------------------------------------------------------------|
A-----------------------------------------------------------------|
F-----------------------------------------------------------------|
C-2---0---7---2---0---7---2---0---7---2---0---7---2---0---7---2---|
G-----------------------------------------------------------------|
C-----------------------------------------------------------------|
Pm.   .   .   .   .   .   .   .   .   .   .   .   .   .   .   .

==================================================================

Guitar 3
D-----------------------------------------------------------------|
A-----0---3-------0---3-------0---3-------0---3-------0---3-------|
F-----------------------------------------------------------------|
C-2-----------2-----------2-----------2-----------2-----------2---|
G-----------------------------------------------------------------|
C-----------------------------------------------------------------|
Pm.   .   .   .   .   .   .   .   .   .   .   .   .   .   .   .

==================================================================
==================================================================


Outro

Guitar 3
D-----------------------------------------------------------------|
A-----------------------------------------------------------------|
F-----------------------------------------------------------------|
C-2~~~~~~~~~~~~~~~~~~~~~~~~~~~~~~~~~~~~~~~~~~~~~~~~~~~~~~~~~~~~~~-|
G-----------------------------------------------------------------|
C-----------------------------------------------------------------|

==================================================================
==================================================================
==================================================================


Tab Legend
h  - hammer-on
p  - pull-off
/  - slide up
\  - slide down
ps/- pickslide up
ps\- pickslide down
~  - let ring
pm.- palm mute
b  - bend
r  - return from bend
t  - finger tapping
*  - harmonic
x  - dead note
^  - Whammy bar
^\ - Whammy bar (hold down)

That is all! I hope this helped, and be sure to check out my cover if you are
having problems with the tab. Thanks, oh and one last thing... ROCK OUT!!!!
comments
print report bad tab
2 comments total.
+1 reply
tffan92 wrote on October 16 2012, 03:12 pm

This tab is really good. Can you do guitar pro version of this please?

0 reply
cslink wrote on October 21 2012, 01:52 pm

AGREED!
this tab is ****ing huge, it can be hard to follow, especially when I wanna look at both guitars at the same time.
thanks love you

I want to post or [tab]
guest
You may want to rate the tab now too:
select rating
Please do not post tabs as comments. Select "correction" instead!