Oops, an error
Loading. Please wait.

Parallels Tab

ver3
ver3

Intro

Whole song

Interactive

More versions @911Tabs.com
8,259 views 60 this week
no commentswrite comment
1 2 3 4 5
excellent!
x 4
Autoscroll
+/-
esc
set tempo
stop
Contributor
Difficulty
Tuning
intermediate
D A D G B E
Hey! There's an official Ultimate Guitar app which is ideal
for learning songs when you're away from computer. Get the app
WARNING: You are trying to view
                                    content from Ultimate-Guitar.com
                                    in an unauthorized application,
                                    which is prohibited.

                                    Please use an official Ultimate
                                    Guitar Tabs application for iPhone,
                                    iPad or Android to access legitimate
                                    chords, guitar, bass, and drum tabs
                                    from Ultimate-Guitar.com database.

                                    Type "ultimate guitar tabs" in Apple
                                    App Store's or Android Market's
                                    search to find the application.
                                              Parallels


                                                                         As I Lay Dying
Guitar 1

     Press F5
                                                      PM PM       PM    PM    PM
     Q        Q    Q    E   S  S     S  S  S  S  S  S S  S   S  S S   S S   S S   S
E||------------------------------|--------------------------------------------------|
B||------------------------------|--------------------------------------------------|
G||------------------------------|--------------------------14----------------------|
D||------------------------14-15-|--14-12----12-12-12-0--0-----12-0--12-0--12-0--12-|
A||------------------------------|--------15----------------------------------------|
D||------------------------------|--------------------------------------------------|


  PM PM    PM       PM PM             PM PM                            PM PM       PM    PM   PM
  S  S   S S   S  S S  S   S  S  S  S S  S   S  S     S  S  S  S  S  S S  S   S  S S   S S  S S   S
--------------------------------------------------|--------------------------------------------------|
--------------------------------------------------|--------------------------------------------------|
--------------------------------------------------|--------------------------14----------------------|
--0--0--12-0--12-12-0--0--12-12-12-12-0--0--14-15-|--14-12----12-12-12-0--0-----12-0--12-0--12-0--12-|
--------------------------------------------------|--------15----------------------------------------|
--------------------------------------------------|--------------------------------------------------|


  PM PM    PM       PM PM             PM PM                            PM PM       PM    PM   PM
  S  S   S S   S  S S  S   S  S  S  S S  S   S  S     S  S  S  S  S  S S  S   S  S S   S S  S S   S
--------------------------------------------------|--------------------------------------------------|
--------------------------------------------------|--------------------------------------------------|
--------------------------------------------------|--------------------------14----------------------|
--0--0--12-0--12-12-0--0--12-12-12-12-0--0--14-15-|--14-12----12-12-12-0--0-----12-0--12-0--12-0--12-|
--------------------------------------------------|--------15----------------------------------------|
--------------------------------------------------|--------------------------------------------------|


  PM PM    PM       PM PM             PM PM                            PM PM       PM    PM   PM
  S  S   S S   S  S S  S   S  S  S  S S  S   S  S     S  S  S  S  S  S S  S   S  S S   S S  S S   S
--------------------------------------------------|--------------------------------------------------|
--------------------------------------------------|--------------------------------------------------|
--------------------------------------------------|--------------------------14----------------------|
--0--0--12-0--12-12-0--0--12-12-12-12-0--0--14-15-|--14-12----12-12-12-0--0-----12-0--12-0--12-0--12-|
--------------------------------------------------|--------15----------------------------------------|
--------------------------------------------------|--------------------------------------------------|


  PM PM    PM       PM PM             PM PM                            PM PM       PM    PM   PM
  S  S   S S   S  S S  S   S  S  S  S S  S   S  S     S  S  S  S  S  S S  S   S  S S   S S  S S   S
--------------------------------------------------|--------------------------------------------------|
--------------------------------------------------|--------------------------------------------------|
--------------------------------------------------|--------------------------14----------------------|
--0--0--12-0--12-12-0--0--12-12-12-12-0--0--14-15-|--14-12----12-12-12-0--0-----12-0--12-0--12-0--12-|
--------------------------------------------------|--------15----------------------------------------|
--------------------------------------------------|--------------------------------------------------|


  PM PM    PM       PM PM                          PM PM       PM    PM    PM       PM   
PM    PM
  S  S   S S   S  S S  S   S  S  S  S  Q        E  E  E  E  E  E  E  E     E  E  E  E  E 
E  E  E
---------------------------------------------|--------------------------|--------------------------|
---------------------------------------------|--------------------------|--------------------------|
---------------------------------------------|--------------------------|--------------------------|
--0--0--12-0--12-12-0--0--12-12-12-12--------|-----------7--------------|--------------------5-----|
--------------------------------------12\----|--5-----------5-----5-----|-----5--7-----8-----------|
--------------------------------------12\----|-----0--0--------0-----0--|--0--------0-----0-----0--|


     PM PM       PM    PM    PM       PM    PM             PM PM       PM    PM
  E  E  E  E  E  E  E  E     E  E  E  E  E  E  E  E     E  E  E  E  E  E  E  E
--------------------------|--------------------------|--------------------------|
--------------------------|--------------------------|--------------------------|
--------------------------|--------------------------|--------------------------|
-----------7--------------|--------------------------|-----------7--------------|
--5-----------5-----5-----|-----5--7-----8-----3--7--|--5-----------5-----5-----|
-----0--0--------0-----0--|--0--------0-----0--------|-----0--0--------0-----0--|


  PM       PM    PM    PM       PM       PM       PM
  E  E  E  E  E  E  E  E     E  E  E  E  E  E  E  E     E  E  E  E  E  E  E  E
--------------------------|--------------------------|--------------------------|
--------------------------|--------------------------|--------------------------|
--------------------------|--------------------------|--------------------------|
--------------------5-----|--7-----7-----------------|--------------8--7--------|
-----5--7-----8-----------|-----------8-----8--5-----|--0--4--7--4--------7--8--|
--0--------0-----0-----0--|-----8--------8--------8--|--------------------------|


     PM PM       PM    PM    PM       PM    PM    PM       PM PM       PM    PM
  E  E  E  E  E  E  E  E     E  E  E  E  E  E  E  E     E  E  E  E  E  E  E  E
--------------------------|--------------------------|--------------------------|
--------------------------|--------------------------|--------------------------|
--------------------------|--------------------------|--------------------------|
-----------7--------------|--------------------5-----|-----------7--------------|
--5-----------5-----5-----|-----5--7-----8-----------|--5-----------5-----5-----|
-----0--0--------0-----0--|--0--------0-----0-----0--|-----0--0--------0-----0--|


  PM       PM    PM             PM PM       PM    PM    PM       PM    PM    PM
  E  E  E  E  E  E  E  E     E  E  E  E  E  E  E  E     E  E  E  E  E  E  E  E
--------------------------|--------------------------|--------------------------|
--------------------------|--------------------------|--------------------------|
--------------------------|--------------------------|--------------------------|
--------------------------|-----------7--------------|--------------------5-----|
-----5--7-----8-----3--7--|--5-----------5-----5-----|-----5--7-----8-----------|
--0--------0-----0--------|-----0--0--------0-----0--|--0--------0-----0-----0--|


     PM       PM       PM
  E  E  E  E  E  E  E  E     E  E  E  E  E  E  E  E
--------------------------|--------------------------|
--------------------------|--------------------------|
--------------------------|--------------------------|
--7-----7-----------------|--------------8--7--------|
-----------8-----8--5-----|--0--4--7--4--------7--8--|
-----8--------8--------8--|--------------------------|


  half time
  PM        PM PM   PM PM PM   PM PM PM PM   PM PM PM      PM PM   PM PM PM   PM PM PM PM  PM PM PM
  S         S  S  S S  S  S  S S  S  S  S  S S  S  S     S S  S  S S  S  S  S S  S  S  S 
S S  S  S
------------------------------------------------------|----------------------------------------------|
------------------------------------------------------|----------------------------------------------|
------------------------------------------------------|----------------------------------------------|
------------------------------------------------------|----------------------------------------------|
--0---------0--0----0--0--0----0--0--0--0----0--0--0--|----0--0----0--0--0----0--0--0--0----0--0--0--|
--0---------0--0----0--0--0----0--0--0--0----0--0--0--|----0--0----0--0--0----0--0--0--0----0--0--0--|


    PM PM   PM PM PM   PM PM PM PM   PM PM PM      PM PM   PM PM PM   PM PM PM PM   PM PMPM
  S S  S  S S  S  S  S S  S  S  S  S S  S  S     S S  S  S S  S  S  S S  S  S  S  S S  S 
S
----------------------------------------------|----------------------------------------------|
----------------------------------------------|----------------------------------------------|
----------------------------------------------|----------------------------------------------|
----------------------------------------------|----------------------------------------------|
----0--0----0--0--0----0--0--0--0----0--0--0--|----0--0----0--0--0----0--0--0--0----0--0--0--|
----0--0----0--0--0----0--0--0--0----0--0--0--|----0--0----0--0--0----0--0--0--0----0--0--0--|


  PM PM PM   PM PM PM   PM PM PM PM   PM PM PM      PM PM   PM PM PM   PM PM PM PM   PM PMPM
  S  S  S  S S  S  S  S S  S  S  S  S S  S  S     S S  S  S S  S  S  S S  S  S  S  S S  S S
-----------------------------------------------|----------------------------------------------|
-----------------------------------------------|----------------------------------------------|
-----------------------------------------------|----------------------------------------------|
-----------------------------------------------|----------------------------------------------|
--0--0--0----0--0--0----0--0--0--0----0--0--0--|----0--0----0--0--0----0--0--0--0----0--0--0--|
--0--0--0----0--0--0----0--0--0--0----0--0--0--|----0--0----0--0--0----0--0--0--0----0--0--0--|


    PM PM   PM PM PM   PM PM PM PM   PM PM PM      PM PM   PM PM PM   PM PM PM PM   PM PMPM
  S S  S  S S  S  S  S S  S  S  S  S S  S  S     S S  S  S S  S  S  S S  S  S  S  S S  S 
S
----------------------------------------------|----------------------------------------------|
----------------------------------------------|----------------------------------------------|
----------------------------------------------|----------------------------------------------|
----------------------------------------------|----------------------------------------------|
----0--0----0--0--0----0--0--0--0----0--0--0--|----0--0----0--0--0----0--0--0--0----0--0--0--|
----0--0----0--0--0----0--0--0--0----0--0--0--|----0--0----0--0--0----0--0--0--0----0--0--0--|


     PM PM       PM    PM    PM       PM    PM    PM       PM PM       PM    PM
  E  E  E  E  E  E  E  E     E  E  E  E  E  E  E  E     E  E  E  E  E  E  E  E
--------------------------|--------------------------|--------------------------|
--------------------------|--------------------------|--------------------------|
--------------------------|--------------------------|--------------------------|
-----------7--------------|--------------------5-----|-----------7--------------|
--5-----------5-----5-----|-----5--7-----8-----------|--5-----------5-----5-----|
-----0--0--------0-----0--|--0--------0-----0-----0--|-----0--0--------0-----0--|


  PM       PM    PM             PM PM       PM    PM    PM       PM    PM    PM
  E  E  E  E  E  E  E  E     E  E  E  E  E  E  E  E     E  E  E  E  E  E  E  E
--------------------------|--------------------------|--------------------------|
--------------------------|--------------------------|--------------------------|
--------------------------|--------------------------|--------------------------|
--------------------------|-----------7--------------|--------------------5-----|
-----5--7-----8-----3--7--|--5-----------5-----5-----|-----5--7-----8-----------|
--0--------0-----0--------|-----0--0--------0-----0--|--0--------0-----0-----0--|


     PM       PM       PM
  E  E  E  E  E  E  E  E     E  E  E  E  E  E  E  E     E  E  E  E  E  E  E  E
--------------------------|--------------------------|--------------------------|
--------------------------|--------------------------|--------------------------|
--------------------------|--------------------------|--------------------------|
--7-----7-----------------|--------------8--7--------|--------------------------|
-----------8-----8--5-----|--0--4--7--4--------7--8--|--8--5-----8--5-----8--5--|
-----8--------8--------8--|--------------------------|--------0--------0--------|


  E  E  E  E  E   E  E   E     E  E  E  E  E  E  E  E     E  E  E  E  E  E  E  E
----------------------------|--------------------------|--------------------------|
----------------------------|--------------------------|--------------------------|
----------------------------|--------------------------|--------------------------|
----------------------------|--------------------------|--------------------------|
-----8--5-----8--10--x--10--|--8--5-----8--5-----8--5--|-----8--5-----8--7--7--8--|
--0--------0----------------|--------0--------0--------|--0--------0--------------|


  E  E  E  E  E  E  E  E     E  E  E  E  E   E  E   E     E  E  E  E  E  E  E  E
--------------------------|----------------------------|--------------------------|
--------------------------|----------------------------|--------------------------|
--------------------------|----------------------------|--------------------------|
--------------------------|----------------------------|--------------------------|
--8--5-----8--5-----8--5--|-----8--5-----8--10--x--10--|--8--5-----8--5-----8--5--|
--------0--------0--------|--0--------0----------------|--------0--------0--------|


                                half time
                                                        PM PM       PM    PM    PM
  E  E  E  E  Q      E   E      S         S  S  S  S  S S  S   S  S S   S S   S S   S
----------------------------|---------------------------------------------------------|
----------------------------|---------------------------------------------------------|
----------------------------|---------------------------------14----------------------|
--------------------14--15--|--14--------12----12-12-12-0--0-----12-0--12-0--12-0--12-|
-----8--5-----8\------------|---------------15----------------------------------------|
--0--------0----------------|---------------------------------------------------------|


  PM PM    PM       PM PM             PM PM                            PM PM       PM    PM   PM
  S  S   S S   S  S S  S   S  S  S  S S  S   S  S     S  S  S  S  S  S S  S   S  S S   S S  S S   S
--------------------------------------------------|--------------------------------------------------|
--------------------------------------------------|--------------------------------------------------|
--------------------------------------------------|--------------------------14----------------------|
--0--0--12-0--12-12-0--0--12-12-12-12-0--0--14-15-|--14-12----12-12-12-0--0-----12-0--12-0--12-0--12-|
--------------------------------------------------|--------15----------------------------------------|
--------------------------------------------------|--------------------------------------------------|


  PM PM    PM       PM PM             PM PM                            PM PM       PM    PM   PM
  S  S   S S   S  S S  S   S  S  S  S S  S   S  S     S  S  S  S  S  S S  S   S  S S   S S  S S   S
--------------------------------------------------|--------------------------------------------------|
--------------------------------------------------|--------------------------------------------------|
--------------------------------------------------|--------------------------14----------------------|
--0--0--12-0--12-12-0--0--12-12-12-12-0--0--14-15-|--14-12----12-12-12-0--0-----12-0--12-0--12-0--12-|
--------------------------------------------------|--------15----------------------------------------|
--------------------------------------------------|--------------------------------------------------|


  PM PM    PM       PM PM             PM PM                            PM PM       PM    PM   PM
  S  S   S S   S  S S  S   S  S  S  S S  S   S  S     S  S  S  S  S  S S  S   S  S S   S S  S S   S
--------------------------------------------------|--------------------------------------------------|
--------------------------------------------------|--------------------------------------------------|
--------------------------------------------------|--------------------------14----------------------|
--0--0--12-0--12-12-0--0--12-12-12-12-0--0--14-15-|--14-12----12-12-12-0--0-----12-0--12-0--12-0--12-|
--------------------------------------------------|--------15----------------------------------------|
--------------------------------------------------|--------------------------------------------------|


  PM PM    PM       PM PM             PM PM                            PM PM       PM    PM   PM
  S  S   S S   S  S S  S   S  S  S  S S  S   S  S     S  S  S  S  S  S S  S   S  S S   S S  S S   S
--------------------------------------------------|--------------------------------------------------|
--------------------------------------------------|--------------------------------------------------|
--------------------------------------------------|--------------------------14----------------------|
--0--0--12-0--12-12-0--0--12-12-12-12-0--0--14-15-|--14-12----12-12-12-0--0-----12-0--12-0--12-0--12-|
--------------------------------------------------|--------15----------------------------------------|
--------------------------------------------------|--------------------------------------------------|


  PM PM    PM       PM PM             PM PM
  S  S   S S   S  S S  S   S  S  S  S S  S   S  S    E  E  E  E  E  E  E  E
--------------------------------------------------|--------------------------|
--------------------------------------------------|--------------------------|
--------------------------------------------------|--------------------------|
--0--0--12-0--12-12-0--0--12-12-12-12-0--0--14-15-|--------------------------|
--------------------------------------------------|--8--5-----8--5-----8--5--|
--------------------------------------------------|--------0--------0--------|


  E  E  E  E  E   E  E   E     E  E  E  E  E  E  E  E     E  E  E  E  E  E  E  E
----------------------------|--------------------------|--------------------------|
----------------------------|--------------------------|--------------------------|
----------------------------|--------------------------|--------------------------|
----------------------------|--------------------------|--------------------------|
-----8--5-----8--10--x--10--|--8--5-----8--5-----8--5--|-----8--5-----8--7--7--8--|
--0--------0----------------|--------0--------0--------|--0--------0--------------|


  E  E  E  E  E  E  E  E     E  E  E  E  E   E  E   E     E  E  E  E  E  E  E  E
--------------------------|----------------------------|--------------------------|
--------------------------|----------------------------|--------------------------|
--------------------------|----------------------------|--------------------------|
--------------------------|----------------------------|--------------------------|
--8--5-----8--5-----8--5--|-----8--5-----8--10--x--10--|--8--5-----8--5-----8--5--|
--------0--------0--------|--0--------0----------------|--------0--------0--------|


  E  E  E  E  E  E  E  E      E  E  E   E  E  E   E  E     E   E  E  E   E   E  E   E
--------------------------|-----------------------------|------------------------------|
--------------------------|-----------------------------|------------------------------|
--------------------------|-----------------------------|------------------------------|
--------------------------|-----------------------------|------------------------------|
-----8--5-----8--7--7--8--|--12--8-----12--8-----12--8--|-----12--8-----12--13--x--13--|
--0--------0--------------|---------0---------0---------|--0---------0-----------------|


   E  E  E   E  E  E   E  E     E   E  E  E   E   E   E   E      E  E  E   E  E  E   E  E
-----------------------------|-------------------------------|-----------------------------|
-----------------------------|-------------------------------|-----------------------------|
-----------------------------|-------------------------------|-----------------------------|
-----------------------------|-------------------------------|-----------------------------|
--12--8-----12--8-----12--8--|-----12--8-----12--10--10--12--|--12--8-----12--8-----12--8--|
---------0---------0---------|--0---------0------------------|---------0---------0---------|


                                                                               PH
  E   E  E  E   E   E  E   E      E  E  E   E  E  E   E  E     E   E  E  E     Q      E  
E
------------------------------|-----------------------------|--------------------------------|
------------------------------|-----------------------------|--------------------------------|
------------------------------|-----------------------------|---------------<>10~------------|
------------------------------|-----------------------------|------------------------14--15--|
-----12--8-----12--13--x--13--|--12--8-----12--8-----12--8--|-----12--8----------------------|
--0---------0-----------------|---------0---------0---------|--0---------0-------------------|


   half time
                           PM PM       PM    PM    PM
   S         S  S  S  S  S S  S   S  S S   S S   S S   S
---------------------------------------------------------|
---------------------------------------------------------|
---------------------------------14----------------------|
--14--------12----12-12-12-0--0-----12-0--12-0--12-0--12-|
---------------15----------------------------------------|
---------------------------------------------------------|


  PM PM    PM       PM PM             PM PM                            PM PM       PM    PM   PM
  S  S   S S   S  S S  S   S  S  S  S S  S   S  S     S  S  S  S  S  S S  S   S  S S   S S  S S   S
--------------------------------------------------|--------------------------------------------------|
--------------------------------------------------|--------------------------------------------------|
--------------------------------------------------|--------------------------14----------------------|
--0--0--12-0--12-12-0--0--12-12-12-12-0--0--14-15-|--14-12----12-12-12-0--0-----12-0--12-0--12-0--12-|
--------------------------------------------------|--------15----------------------------------------|
--------------------------------------------------|--------------------------------------------------|


  PM PM    PM       PM PM             PM PM                            PM PM       PM    PM   PM
  S  S   S S   S  S S  S   S  S  S  S S  S   S  S     S  S  S  S  S  S S  S   S  S S   S S  S S   S
--------------------------------------------------|--------------------------------------------------|
--------------------------------------------------|--------------------------------------------------|
--------------------------------------------------|--------------------------14----------------------|
--0--0--12-0--12-12-0--0--12-12-12-12-0--0--14-15-|--14-12----12-12-12-0--0-----12-0--12-0--12-0--12-|
--------------------------------------------------|--------15----------------------------------------|
--------------------------------------------------|--------------------------------------------------|


  PM PM    PM       PM PM             PM PM                            PM PM       PM    PM   PM
  S  S   S S   S  S S  S   S  S  S  S S  S   S  S     S  S  S  S  S  S S  S   S  S S   S S  S S   S
--------------------------------------------------|--------------------------------------------------|
--------------------------------------------------|--------------------------------------------------|
--------------------------------------------------|--------------------------14----------------------|
--0--0--12-0--12-12-0--0--12-12-12-12-0--0--14-15-|--14-12----12-12-12-0--0-----12-0--12-0--12-0--12-|
--------------------------------------------------|--------15----------------------------------------|
--------------------------------------------------|--------------------------------------------------|


  PM PM    PM       PM PM             PM PM                            PM PM       PM    PM   PM
  S  S   S S   S  S S  S   S  S  S  S S  S   S  S     S  S  S  S  S  S S  S   S  S S   S S  S S   S
--------------------------------------------------|--------------------------------------------------|
--------------------------------------------------|--------------------------------------------------|
--------------------------------------------------|--------------------------14----------------------|
--0--0--12-0--12-12-0--0--12-12-12-12-0--0--14-15-|--14-12----12-12-12-0--0-----12-0--12-0--12-0--12-|
--------------------------------------------------|--------15----------------------------------------|
--------------------------------------------------|--------------------------------------------------|


  PM PM    PM       PM PM             PM PM                            PM PM       PM    PM   PM
  S  S   S S   S  S S  S   S  S  S  S S  S   S  S     S  S  S  S  S  S S  S   S  S S   S S  S S   S
--------------------------------------------------|--------------------------------------------------|
--------------------------------------------------|--------------------------------------------------|
--------------------------------------------------|--------------------------14----------------------|
--0--0--12-0--12-12-0--0--12-12-12-12-0--0--14-15-|--14-12----12-12-12-0--0-----12-0--12-0--12-0--12-|
--------------------------------------------------|--------15----------------------------------------|
--------------------------------------------------|--------------------------------------------------|


  PM PM    PM       PM PM             PM PM                            PM PM       PM    PM   PM
  S  S   S S   S  S S  S   S  S  S  S S  S   S  S     S  S  S  S  S  S S  S   S  S S   S S  S S   S
--------------------------------------------------|--------------------------------------------------|
--------------------------------------------------|--------------------------------------------------|
--------------------------------------------------|--------------------------14----------------------|
--0--0--12-0--12-12-0--0--12-12-12-12-0--0--14-15-|--14-12----12-12-12-0--0-----12-0--12-0--12-0--12-|
--------------------------------------------------|--------15----------------------------------------|
--------------------------------------------------|--------------------------------------------------|


  PM PM    PM       PM PM             PM PM                            PM PM       PM    PM   PM
  S  S   S S   S  S S  S   S  S  S  S S  S   S  S     S  S  S  S  S  S S  S   S  S S   S S  S S   S
--------------------------------------------------|--------------------------------------------------|
--------------------------------------------------|--------------------------------------------------|
--------------------------------------------------|--------------------------14----------------------|
--0--0--12-0--12-12-0--0--12-12-12-12-0--0--14-15-|--14-12----12-12-12-0--0-----12-0--12-0--12-0--12-|
--------------------------------------------------|--------15----------------------------------------|
--------------------------------------------------|--------------------------------------------------|


  W                   W                   S E  S E  S E  S E  S S S S    S E  S E  S E  SE  S S S S
-------------------|-------------------|------------------------------|------------------------------|
-------------------|-------------------|------------------------------|------------------------------|
-------------------|-------------------|------------------------------|------------------------------|
-------------------|-------------------|------------------------------|------------------------------|
--0----------------|--L----------------|--0-0--0-0--0-0--0-0--0-0-0-0-|--7-7--7-7--7-7--7-7--7-7-7-7-|
--0----------------|--L----------------|--0-0--0-0--0-0--0-0--0-0-0-0-|--7-7--7-7--7-7--7-7--7-7-7-7-|


  S E  S E  S E  S E  S S S S    S E  S E  S E  S E  S S S S    S E  S E  S E  S E  S S SS
------------------------------|------------------------------|------------------------------|
------------------------------|------------------------------|------------------------------|
------------------------------|------------------------------|------------------------------|
------------------------------|------------------------------|------------------------------|
--3-3--3-3--3-3--3-3--3-3-3-3-|--5-5--5-5--5-5--5-5--5-5-5-5-|--0-0--0-0--0-0--0-0--0-0-0-0-|
--3-3--3-3--3-3--3-3--3-3-3-3-|--5-5--5-5--5-5--5-5--5-5-5-5-|--0-0--0-0--0-0--0-0--0-0-0-0-|


  S E  S E  S E  S E  S S S S    S E  S E  S E  S E  S S S S    S E  S E  S E  S E  S S SS
------------------------------|------------------------------|------------------------------|
------------------------------|------------------------------|------------------------------|
------------------------------|------------------------------|------------------------------|
------------------------------|------------------------------|------------------------------|
--7-7--7-7--7-7--7-7--7-7-7-7-|--3-3--3-3--3-3--3-3--3-3-3-3-|--5-5--5-5--5-5--5-5--5-5-5-5-|
--7-7--7-7--7-7--7-7--7-7-7-7-|--3-3--3-3--3-3--3-3--3-3-3-3-|--5-5--5-5--5-5--5-5--5-5-5-5-|


  S E  S E  S E  S E  S S S S    S E  S E  S E  S E  S S S S    S E  S E  S E  S E  S S SS
------------------------------|------------------------------|------------------------------|
------------------------------|------------------------------|------------------------------|
------------------------------|------------------------------|------------------------------|
------------------------------|------------------------------|------------------------------|
--0-0--0-0--0-0--0-0--0-0-0-0-|--7-7--7-7--7-7--7-7--7-7-7-7-|--3-3--3-3--3-3--3-3--3-3-3-3-|
--0-0--0-0--0-0--0-0--0-0-0-0-|--7-7--7-7--7-7--7-7--7-7-7-7-|--3-3--3-3--3-3--3-3--3-3-3-3-|


  S E  S E  S E  S E  S S S S    S E  S E  S E  S E  S S S S    S E  S E  S E  S E  S S SS
------------------------------|------------------------------|------------------------------|
------------------------------|------------------------------|------------------------------|
------------------------------|------------------------------|------------------------------|
------------------------------|------------------------------|------------------------------|
--5-5--5-5--5-5--5-5--5-5-5-5-|--0-0--0-0--0-0--0-0--0-0-0-0-|--7-7--7-7--7-7--7-7--7-7-7-7-|
--5-5--5-5--5-5--5-5--5-5-5-5-|--0-0--0-0--0-0--0-0--0-0-0-0-|--7-7--7-7--7-7--7-7--7-7-7-7-|


  S E  S E  S E  S E  S S S S    S E  S E  S E  S E  S S S S    E.  S E  E.  E  S E  E
------------------------------|------------------------------|--------------------------|
------------------------------|------------------------------|--------------------------|
------------------------------|------------------------------|--------------------------|
------------------------------|------------------------------|--------------------------|
--3-3--3-3--3-3--3-3--3-3-3-3-|--5-5--5-5--5-5--5-5--5-5-5-5-|--0---0-0--0---0--0-0--0--|
--3-3--3-3--3-3--3-3--3-3-3-3-|--5-5--5-5--5-5--5-5--5-5-5-5-|--0---0-0--0---0--0-0--0--|


  E.  S E  E.  E  S E  E     E.  S E  E.  E  S E  E     E.  S E  E.  E  S E  E
--------------------------|--------------------------|--------------------------|
--------------------------|--------------------------|--------------------------|
--------------------------|--------------------------|--------------------------|
--------------------------|--------------------------|--------------------------|
--7---7-7--7---7--7-7--7--|--3---3-3--3---3--3-3--3--|--5---5-5--5---5--5-5--5--|
--7---7-7--7---7--7-7--7--|--3---3-3--3---3--3-3--3--|--5---5-5--5---5--5-5--5--|


  E.  S E  E.  E  S E  E     E.  S E  E.  E  S E  E     E.  S E  E.  E  S E  E
--------------------------|--------------------------|--------------------------|
--------------------------|--------------------------|--------------------------|
--------------------------|--------------------------|--------------------------|
--------------------------|--------------------------|--------------------------|
--0---0-0--0---0--0-0--0--|--7---7-7--7---7--7-7--7--|--3---3-3--3---3--3-3--3--|
--0---0-0--0---0--0-0--0--|--7---7-7--7---7--7-7--7--|--3---3-3--3---3--3-3--3--|


  E.  S E  E.  E  S E  E     E.  S E  E.  E  S E  E     E.  S E  E.  E  S E  E
--------------------------|--------------------------|--------------------------|
--------------------------|--------------------------|--------------------------|
--------------------------|--------------------------|--------------------------|
--------------------------|--------------------------|--------------------------|
--5---5-5--5---5--5-5--5--|--0---0-0--0---0--0-0--0--|--7---7-7--7---7--7-7--7--|
--5---5-5--5---5--5-5--5--|--0---0-0--0---0--0-0--0--|--7---7-7--7---7--7-7--7--|


  E.  S E  E.  E  S E  E     E.  S E  E.  E  S E  E     E.  S E  E.  E  S E  E
--------------------------|--------------------------|--------------------------|
--------------------------|--------------------------|--------------------------|
--------------------------|--------------------------|--------------------------|
--------------------------|--------------------------|--------------------------|
--3---3-3--3---3--3-3--3--|--5---5-5--5---5--5-5--5--|--0---0-0--0---0--0-0--0--|
--3---3-3--3---3--3-3--3--|--5---5-5--5---5--5-5--5--|--0---0-0--0---0--0-0--0--|


  E.  S E  E.  E  S E  E     E.  S E  E.  E  S E  E     E.  S E  E.  E  S E  E
--------------------------|--------------------------|--------------------------|
--------------------------|--------------------------|--------------------------|
--------------------------|--------------------------|--------------------------|
--------------------------|--------------------------|--------------------------|
--7---7-7--7---7--7-7--7--|--3---3-3--3---3--3-3--3--|--5---5-5--5---5--5-5--5--|
--7---7-7--7---7--7-7--7--|--3---3-3--3---3--3-3--3--|--5---5-5--5---5--5-5--5--|


                    PM PM       PM    PM    PM       PM PM    PM       PM PM             PMPM
   S  S  S  S  S  S S  S   S  S S   S S   S S   S    S  S   S S   S  S S  S   S  S  S  S S S   S  S
--------------------------------------------------|--------------------------------------------------|
--------------------------------------------------|--------------------------------------------------|
--------------------------14----------------------|--------------------------------------------------|
--14-12----12-12-12-0--0-----12-0--12-0--12-0--12-|--0--0--12-0--12-12-0--0--12-12-12-12-0--0--14-15-|
--------15----------------------------------------|--------------------------------------------------|
--------------------------------------------------|--------------------------------------------------|


                    PM PM       PM    PM    PM       PM PM    PM       PM PM             PMPM
   S  S  S  S  S  S S  S   S  S S   S S   S S   S    S  S   S S   S  S S  S   S  S  S  S S S   S  S
--------------------------------------------------|--------------------------------------------------|
--------------------------------------------------|--------------------------------------------------|
--------------------------14----------------------|--------------------------------------------------|
--14-12----12-12-12-0--0-----12-0--12-0--12-0--12-|--0--0--12-0--12-12-0--0--12-12-12-12-0--0--14-15-|
--------15----------------------------------------|--------------------------------------------------|
--------------------------------------------------|--------------------------------------------------|


                    PM PM       PM    PM    PM       PM PM    PM       PM PM             PMPM
   S  S  S  S  S  S S  S   S  S S   S S   S S   S    S  S   S S   S  S S  S   S  S  S  S S S   S  S
--------------------------------------------------|--------------------------------------------------|
--------------------------------------------------|--------------------------------------------------|
--------------------------14----------------------|--------------------------------------------------|
--14-12----12-12-12-0--0-----12-0--12-0--12-0--12-|--0--0--12-0--12-12-0--0--12-12-12-12-0--0--14-15-|
--------15----------------------------------------|--------------------------------------------------|
--------------------------------------------------|--------------------------------------------------|


                    PM PM       PM    PM    PM       PM PM    PM       PM PM             PMPM
   S  S  S  S  S  S S  S   S  S S   S S   S S   S    S  S   S S   S  S S  S   S  S  S  S S S   S  S
--------------------------------------------------|--------------------------------------------------|
--------------------------------------------------|--------------------------------------------------|
--------------------------14----------------------|--------------------------------------------------|
--14-12----12-12-12-0--0-----12-0--12-0--12-0--12-|--0--0--12-0--12-12-0--0--12-12-12-12-0--0--14-15-|
--------15----------------------------------------|--------------------------------------------------|
--------------------------------------------------|--------------------------------------------------|


                    PM PM       PM    PM    PM       PM PM    PM       PM PM             PMPM
   S  S  S  S  S  S S  S   S  S S   S S   S S   S    S  S   S S   S  S S  S   S  S  S  S S S   S  S
--------------------------------------------------|--------------------------------------------------|
--------------------------------------------------|--------------------------------------------------|
--------------------------14----------------------|--------------------------------------------------|
--14-12----12-12-12-0--0-----12-0--12-0--12-0--12-|--0--0--12-0--12-12-0--0--12-12-12-12-0--0--14-15-|
--------15----------------------------------------|--------------------------------------------------|
--------------------------------------------------|--------------------------------------------------|


                    PM PM       PM    PM    PM       PM PM    PM       PM PM             PMPM
   S  S  S  S  S  S S  S   S  S S   S S   S S   S    S  S   S S   S  S S  S   S  S  S  S S S   S  S
--------------------------------------------------|--------------------------------------------------|
--------------------------------------------------|--------------------------------------------------|
--------------------------14----------------------|--------------------------------------------------|
--14-12----12-12-12-0--0-----12-0--12-0--12-0--12-|--0--0--12-0--12-12-0--0--12-12-12-12-0--0--14-15-|
--------15----------------------------------------|--------------------------------------------------|
--------------------------------------------------|--------------------------------------------------|


                    PM PM       PM    PM    PM       PM PM    PM       PM PM             PMPM
   S  S  S  S  S  S S  S   S  S S   S S   S S   S    S  S   S S   S  S S  S   S  S  S  S S S   S  S
--------------------------------------------------|--------------------------------------------------|
--------------------------------------------------|--------------------------------------------------|
--------------------------14----------------------|--------------------------------------------------|
--14-12----12-12-12-0--0-----12-0--12-0--12-0--12-|--0--0--12-0--12-12-0--0--12-12-12-12-0--0--14-15-|
--------15----------------------------------------|--------------------------------------------------|
--------------------------------------------------|--------------------------------------------------|


                    PM PM       PM    PM    PM
   S  S  S  S  S  S S  S   S  S S   S S   S S   S    W                   W
--------------------------------------------------|-------------------|-------------------|
--------------------------------------------------|-------------------|-------------------|
--------------------------14----------------------|-------------------|-------------------|
--14-12----12-12-12-0--0-----12-0--12-0--12-0--12-|-------------------|-------------------|
--------15----------------------------------------|--0----------------|--L----------------|
--------------------------------------------------|--0----------------|--L----------------|


  W                   W
-------------------|-------------------||
-------------------|-------------------||
-------------------|-------------------||
-------------------|-------------------||
--L----------------|--L----------------||
--L----------------|--L----------------||


Duration Legend
---------------
W - whole
H - half
Q - quarter
E - 8th
S - 16th
T - 32nd
X - 64th
. - note dotted
|-n-|  - n-tuplets


Tablature Legend
----------------
L - tied note
x - dead note
g - grace note
(n) - ghost note
> - accentuded note
NH - natural harmonic
AH - artificial harmonic
TH - tapped harmonic
SH - semi harmonic
PH - pitch harmonic
h - hammer on
p - pull off
b - bend
br - bendRelease
pb - preBend
pbr - preBendRelease
brb - bendReleaseBend
\n/ - tremolo bar dip
\n - tremolo bar dive
-/n - tremolo bar Release up
/n\ - tremolo bar inverted dip
/n - tremolo bar return
-\n - tremolo bar Release down
S - shift slide
s - legato slide
/ -  slide into from below or out of upwards
\ -  slide into from above or out of downwards
~ - vibrato
W - wide vibrato
tr - trill
TP - tremolo picking
T - tapping
S - slap
P - pop
< - fade in
^ - brush up
v - brush down
comments
print report bad tab
I want to post or [tab]
guest
You may want to rate the tab now too:
select rating
Please do not post tabs as comments. Select "correction" instead!