Oops, an error
Loading. Please wait.

Parallels Tab

ver4
ver4

Intro

Whole song

More versions @911Tabs.com
7,003 views 9 this week
no commentswrite comment
1 2 3 4 5
excellent!
x 1
Autoscroll
+/-
esc
set tempo
stop
Contributor
Difficulty
intermediate
WARNING: You are trying to view
                                    content from Ultimate-Guitar.com
                                    in an unauthorized application,
                                    which is prohibited.

                                    Please use an official Ultimate
                                    Guitar Tabs application for iPhone,
                                    iPad or Android to access legitimate
                                    chords, guitar, bass, and drum tabs
                                    from Ultimate-Guitar.com database.

                                    Type "ultimate guitar tabs" in Apple
                                    App Store's or Android Market's
                                    search to find the application.
Title:     Parallels
Artist:    As I Lay Dying
Tabbed by: Lisa Sørum
Tuning:    Standard D/ 4th string tuned to D




                                Intro Gtr. 1

D|-----------------------------------|-----------------------------------|
A|-----------------------------------|---12------------------------------|
F|--11--12--11---9--------9----------|-------9--------9-------9------9---|
D|-----------------10--12---12--0-0--|------------0-------0-------0------|
G|-----------------------------------|-----------------------------------|
D|-----------------------------------|-----------------------------------|
PM                              * *               *       *       *
D|-----------------------------------|
A|-----------------------------------|
F|-----9----9---------9----9---------|
D|-0-0---0----12-0-0----12---12--0-0-|
G|-----------------------------------|
D|-----------------------------------|
PM * *   *       * *             * *
--------------------------------------------------------------------------------------



                                Intro Gtr. 2

D|-----------------------------------|-----------------------------------|
A|-----------------------------------|-----------------------------------|
F|-----------------------------------|-----------------------------------|
D|-----------------------------------|----5------------------------------|
G|---9--10---9---7---------7---------|--------7-------7-------7------7---|
D|-----------------10---12---12--0-0-|------------0-------0-------0------|
PM                               * *              *       *       *
D|-----------------------------------|
A|-----------------------------------|
F|-----------------------------------|
D|-----------------------------------|
G|-----7----7---------7----7---------|
D|-0-0---0----12-0-0----12---12--0-0-|
PM * *   *       * *             * *
---------------------------------------------------------------------------------------



                                Intro Gtr. 3

(One bar indicates the intro riff x1)

D|-----------------------------------|-----------------------------------|
A|-----------------------------------|-----------------------------------|
F|-----------------------------------|-----------------------------------|
D|-----------0-----------------------|-----------0-----------------------|
G|-----------2-----------------------|-----------2-----------------------|
D|-----------0-----------------------|-----------0-----------------------|
PM           
D|-----------------------------------|-----------------------------------|
A|-----------------------------------|-----------------------------------|
F|-----------------------------------|-----------------------------------|
D|-----------8-------------10--------|-----------0-----------------------|
G|-----------10------------12--------|-----------2-----------------------|
D|-----------8-------------10--------|-----------0-----------------------|
PM           
D|-----------------------------------|
A|-----------------------------------|
F|-----------------------------------|
D|-----------8-------------10------12|
G|-----------10------------12------14|
D|-----------8-------------10------12|
PM           
---------------------------------------------------------------------------------------



                                 Verse Riff 1

D|-----------------------------------|-----------------------------------|
A|-----------------------------------|-----------------------------------|
F|-----------------------------------|-----------------------------------|
D|------7----------------------------|------7----------------------------|
G|7---7-----7---7------7-9---10---12-|7---7-----7---7------7-9---10-----9|
D|--0---------0---0-0-----0----0----0|--0---------0---0-0-----0----0-10--|
PM  * *       *   * *     *    *    *   * *       *   * *     *    *   
D|-----------------------------------|-----------------------------------|
A|-----------------------------------|-----------------------------------|
F|-----------------------------------|-----------------------------------|
D|------7----------------------------|7---7--3---3--------2--3---5--4----|
G|7---7-----7---7------7-9---10---12-|--------------5-----------------2-3|
D|--0---------0---0-0-----0----0----0|--0------0------0-0------0---------|
PM  * *       *   * *     *    *    *   *      *      * *      *
---------------------------------------------------------------------------------------



                                Interlude Gtr. 1

D|-----------------------------------|-----------------------------------|
A|-----------------------------------|-----------------------------------|
F|-------------9-------9-----9--9----|-------------9-------9-----9--9----|
D|-0-0-12-0-12----0-12---0-12-12-0-12|-0-0-12-0-12----0-12---0-12-12-0-12| (x2)
G|-----------------------------------|-----------------------------------|
D|-----------------------------------|-----------------------------------|
PM * * *  * *  *  * *  * * * ** ** *   * * *  * *  *  * *  * * * ** ** *
D|-----------------------------------|-----------------------------------|
A|-----------------------------------|-----------------------------------|
F|-------------9-------9-----9--9----|-------------9-------9-----9--9----|
D|-0-0-12-0-12----0-12---0-12-12-0-12|-0-0-12-0-12----0-12---0-12-12-0-12|
G|-----------------------------------|-----------------------------------|
D|-----------------------------------|-----------------------------------|
PM 
D|-----------------------------------|-----------------------------------|
A|-----------------------------------|-----------------------------------|
F|-------------9-------9-----9--9----|-------------9-------9-----9--9----|
D|-0-0-12-0-12----0-12---0-12-12-0-12|-0-0-12-0-12----0-12---0-12-12-0-12| 
G|-----------------------------------|-----------------------------------|
D|-----------------------------------|-----------------------------------|
PM   *    * *     * *  * * * ** ** *   * * *  * *  *  * *  * * * ** ** *
---------------------------------------------------------------------------------

                                Interlude Gtr. 2

D|-----------------------------------|-----------------------------------|
A|-----------------------------------|-----------------------------------|
F|-----------------------------------|-----------------------------------|
D|-----------------------------------|-----------------------------------|
G|-----7---7--------7-----7----7-----|-----7---7--------7-----7----7-----|
D|-0-0--0---12-0-12--0-12--12---0-12-|-0-0--0---12-0-12--0-12--12---0-12-|
PM * *  *      *     *          *      * *  *      *     *          *
---------------------------------------------------------------------------------

                                Interlude Gtr. 3

D|-----------------------------------|-----------------------------------|
A|-----------------------------------|-----------------------------------|
F|-----------------------------------|-----------------------------------|
D|-0-0-0---0-0-0---0-0-0-0---0-0-0---|-0-0-0---0-0-0---0-0-0-0---0-0-0---|
G|-2-2-2---2-2-2---2-2-2-2---2-2-2---|-2-2-2---2-2-2---2-2-2-2---2-2-2---|
D|-0-0-0---0-0-0---0-0-0-0---0-0-0---|-0-0-0---0-0-0---0-0-0-0---0-0-0---|
PM * * *   * * *   * * * *   * * *     * * *   * * *   * * * *   * * *
----------------------------------------------------------------------------------





                                2nd Verse Gtr. 1

D|-----------------------------------|-----------------------------------|
A|-----------------------------------|-----------------------------------|
F|-----------------------------------|-----------------------------------|
D|-0-----0-----0-----0-----0--2----2-|-0-----0-----0-----0-----0---------|
G|---2-----2-----2-----2---------2---|---2-----2-----2-----2------2--0-5-|
D|-----0-----0-----0-----0-----------|-----0-----0-----0-----0-------5---|
PM     *     *     *     *       *         *     *     *     *

D|-----------------------------------|-----------------------------------|
A|-----------------------------------|-----------------------------------|
F|-----------------------------------|-----------------------------------|
D|-3-----3-----3-----3-----3--5----5-|-3-----3-----3-----3-----3--0----2-|
G|---7-----7-----7-----7---------7---|---7-----7-----7-----7---------6---|
D|-----0-----0-----0-----0-----------|-----0-----0-----0-----0-----------|
PM
       *     *     *     *       *         *     *     *     *       *

--------------------------------------------------------------------------------



                                2nd Verse Gtr. 2


D|-----------------------------------|-----------------------------------|
A|-----------------------------------|-----------------------------------|
F|-----------------------------------|-----------------------------------|
D|-3-----3-----3-----3-----3--5----5-|-3-----3-----3-----3-----3--0----2-|
G|---7-----7-----7-----7---------7---|---7-----7-----7-----7---------6---|
D|-----0-----0-----0-----0-----------|-----0-----0-----0-----0-----------|
PM
       *     *     *     *       *         *     *     *     *       *

D|-----------------------------------|-------------------------------------|
A|-----------------------------------|-------------------------------------|
F|-----------------------------------|-------------------------------------|
D|------------------------------8--8-|----------------------------14-10--12|
G|14-10--14-10--14-10--14-10--14-10--|14-10--14-10--14-10--14-10-------14--|
D|-----12-----12-----12-----12-------|-----12-----12-----12-----12---------|
PM      *      *      *      *    *         *      *      *      *
--------------------------------------------------------------------------------


                                2nd Verse Gtr. 3

D|-----------------------------------|-----------------------------------|
A|-----------------------------------|-----------------------------------|
F|-----------------------------------|-----------------------------------|
D|-----------------------------------|-----------------------------------|
G|-----------------------------------|-----------------------------------|
D|-----------------------------------|-----------------------------------|
PM

D|-----------------------------------|-----------------------------------|
A|-----------------------------------|-----------------------------------|
F|-----------------------------------|-----------------------------------|
D|-0-----0-----0-----0-----0--2----2-|-0-----0-----0-----0-----0---------|
G|---2-----2-----2-----2---------2---|---2-----2-----2-----2------2--0-2-|
D|-----0-----0-----0-----0-----------|-----0-----0-----0-----0-------5---|
PM     *     *     *     *       *         *     *     *     *
--------------------------------------------------------------------------------




Unfortunatly I couldnt find the time to tab the solo. I still hope this was helpful!
comments
We did not receive enough feedback on this tab! Please rate:
1 2 3 4 5
I want to post or [tab]
guest
You may want to rate the tab now too:
select rating
Please do not post tabs as comments. Select "correction" instead!