Oops, an error
Loading. Please wait.

Repeating Yesterday Tab

ver6
ver6
More versions @911Tabs.com
1,335 views 3 this week
no commentswrite comment
1 2 3 4 5
accurate
x 2
Autoscroll
+/-
esc
set tempo
stop
Contributor
WARNING: You are trying to view
                                    content from Ultimate-Guitar.com
                                    in an unauthorized application,
                                    which is prohibited.

                                    Please use an official Ultimate
                                    Guitar Tabs application for iPhone,
                                    iPad or Android to access legitimate
                                    chords, guitar, bass, and drum tabs
                                    from Ultimate-Guitar.com database.

                                    Type "ultimate guitar tabs" in Apple
                                    App Store's or Android Market's
                                    search to find the application.
----------------------------------------------------------------------------
              Repeating Yesterday - As I Lay Dying
----------------------------------------------------------------------------
       


The legend is at the very bottom of the page. Thank you for checking out my tab.



        

Guitar I - (C G C F A D) 'Lead'
Guitar II - (C G C F A D) 'Rhythm'






Guitar I:


             W                   W                   W                 
D||-------|-------------------|-------------------|-------------------|
A||-------|-------------------|-------------------|-------------------|
F||-------|-------------------|-------------------|-------------------|
C||-------|-------------------|-------------------|-------------------|
G||-------|--8----------------|--L----------------|--L----------------|
C||-------|--0----------------|--L----------------|--L----------------|



                         E   E   E   E  E  E  E  E                       
|-------------------||-------------------------------|-------------------|
|-------------------||-------------------------------|-------------------|
|-------------------||*--------------10--L--L--L--L--|-------------------|
|-------------------||*--12--10--12------------------|-------------------|
|-------------------||-------------------------------|-------------------|
|-------------------||-------------------------------|-------------------|


   E   E   E   E  E  E  E  E      E   E   Q     E   E   Q     
|------------------------------|------------------------------|
|------------------------------|------------------------------|
|--------------10--L--L--L--L--|----------10----10------------|
|--12--10--12------------------|--12--10------------12--10----|
|------------------------------|------------------------------|
|------------------------------|------------------------------|


   E   E   E   E  E  E  E  E                       
|------------------------------|-------------------|
|------------------------------|-------------------|
|--------------10--L--L--L--L--|-------------------|
|--12--10--12------------------|-------------------|
|------------------------------|-------------------|
|------------------------------|-------------------|


   E   E   E   E  E  E  E  E      E   E   Q     E   E   Q     3x
|------------------------------|-------------------------------||
|------------------------------|-------------------------------||
|--------------10--L--L--L--L--|----------10----10------------*||
|--12--10--12------------------|--12--10------------12--10----*||
|------------------------------|-------------------------------||
|------------------------------|-------------------------------||


   E   E   E   E  E  E  E  E      E   E   Q     E   E   Q     
|------------------------------|------------------------------|
|------------------------------|------------------------------|
|--------------10--L--L--L--L--|----------10----10------------|
|--12--10--12------------------|--12--10------------12--10----|
|------------------------------|------------------------------|
|------------------------------|------------------------------|


     E   E   E   E   E   E   E   E      E   E   E   E  E  E  E  E   
|-----------------------------------|------------------------------|
|-----------------------------------|------------------------------|
|*--12--12--12--12--12--12--12--12--|--10--10--10--10--9--9--9--9--|
|*----------------------------------|------------------------------|
|---10--10--10--10--10--10--10--10--|---8---8---8---8--7--7--7--7--|
|-----------------------------------|------------------------------|


   E   E   E   E   E   E   E   E     E  E  E  E  E  E  E  E     
|----------------------------------|---------------------------||
|----------------------------------|---------------------------||
|--10--10--10--10--10--10--10--10--|--9--9--9--9--5--5--5--5--*||
|----------------------------------|--------------------------*|
|---8---8---8---8---8---8---8---8--|--7--7--7--7--3--3--3--3---||
|----------------------------------|---------------------------||


  E  E  E  E  E  E  E  E      E   E   E   E   E   E   E   E   
|--------------------------|----------------------------------|
|--------------------------|----------------------------------|
|--9--9--9--9--5--5--5--5--|--15--15--15--15--15--15--15--15--|
|--------------------------|----------------------------------|
|--7--7--7--7--3--3--3--3--|--13--13--13--13--13--13--13--13--|
|--------------------------|----------------------------------|


   E   E   E   E   E   E   E   E      E   E   E   E   E   E   E   E   
|----------------------------------|----------------------------------|
|----------------------------------|----------------------------------|
|--14--14--14--14--10--10--10--10--|--14--14--14--14--14--14--14--14--|
|----------------------------------|----------------------------------|
|--12--12--12--12---8---8---8---8--|--12--12--12--12--12--12--12--12--|
|----------------------------------|----------------------------------|


   E   E   E   E   E   E   E   E      E   E   E   E   E   E   E   E   
|----------------------------------|----------------------------------|
|----------------------------------|----------------------------------|
|--12--12--12--12--12--12--12--12--|--15--15--15--15--15--15--15--15--|
|----------------------------------|----------------------------------|
|--10--10--10--10--10--10--10--10--|--13--13--13--13--13--13--13--13--|
|----------------------------------|----------------------------------|


   E   E   E   E   E   E   E   E      E   E   E   E   E   E   E   E   
|----------------------------------|----------------------------------|
|----------------------------------|----------------------------------|
|--14--14--14--14--10--10--10--10--|--14--14--14--14--14--14--14--14--|
|----------------------------------|----------------------------------|
|--12--12--12--12---8---8---8---8--|--12--12--12--12--12--12--12--12--|
|----------------------------------|----------------------------------|


   E   E   E   E   E   E   E   E        E   E   E   E   E   E   E   E   
|----------------------------------||-----------------------------------|
|----------------------------------||-----------------------------------|
|--12--12--12--12--12--12--12--12--||*--12--12--12--12--12--12--12--12--|
|----------------------------------||*----------------------------------|
|--10--10--10--10--10--10--10--10--||---10--10--10--10--10--10--10--10--|
|----------------------------------||-----------------------------------|


   E   E   E   E  E  E  E  E      E   E   E   E   E   E   E   E   
|------------------------------|----------------------------------|
|------------------------------|----------------------------------|
|--10--10--10--10--9--9--9--9--|--10--10--10--10--10--10--10--10--|
|------------------------------|----------------------------------|
|---8---8---8---8--7--7--7--7--|---8---8---8---8---8---8---8---8--|
|------------------------------|----------------------------------|


  E  E  E  E  E  E  E  E       E  E  E  E  E  E  E  E   
|---------------------------||--------------------------|
|---------------------------||--------------------------|
|--9--9--9--9--5--5--5--5--*||--9--9--9--9--5--5--5--5--|
|--------------------------*||--------------------------|
|--7--7--7--7--3--3--3--3---||--7--7--7--7--3--3--3--3--|
|---------------------------||--------------------------|


   E   E   E   E   E   E   E   E      E   E   E   E   E   E   E   E   
|----------------------------------|----------------------------------|
|----------------------------------|----------------------------------|
|--15--15--15--15--15--15--15--15--|--14--14--14--14--10--10--10--10--|
|----------------------------------|----------------------------------|
|--13--13--13--13--13--13--13--13--|--12--12--12--12---8---8---8---8--|
|----------------------------------|----------------------------------|


   E   E   E   E   E   E   E   E      E   E   E   E   E   E   E   E   
|----------------------------------|----------------------------------|
|----------------------------------|----------------------------------|
|--14--14--14--14--14--14--14--14--|--12--12--12--12--12--12--12--12--|
|----------------------------------|----------------------------------|
|--12--12--12--12--12--12--12--12--|--10--10--10--10--10--10--10--10--|
|----------------------------------|----------------------------------|


   E   E   E   E   E   E   E   E      E   E   E   E   E   E   E   E   
|----------------------------------|----------------------------------|
|----------------------------------|----------------------------------|
|--15--15--15--15--15--15--15--15--|--14--14--14--14--10--10--10--10--|
|----------------------------------|----------------------------------|
|--13--13--13--13--13--13--13--13--|--12--12--12--12---8---8---8---8--|
|----------------------------------|----------------------------------|


   E   E   E   E   E   E   E   E      E   E   E   E   E   E   E   E   
|----------------------------------|----------------------------------|
|----------------------------------|----------------------------------|
|--14--14--14--14--14--14--14--14--|--12--12--12--12--12--12--12--12--|
|----------------------------------|----------------------------------|
|--12--12--12--12--12--12--12--12--|--10--10--10--10--10--10--10--10--|
|----------------------------------|----------------------------------|


  PM PM PM PM                PM PM PM PM                
  E  E  E  E  E  E  E  E     E  E  E  E  E   E   E  E   
|--------------------------|----------------------------|
|--------------------------|----------------------------|
|--------------------------|---------------------10-----|
|--------------7--7--7--7--|--------------7s--8------7--|
|--0--0--0--0--5--5--5--5--|--0--0--0--0----------------|
|--0--0--0--0--------------|--0--0--0--0----------------|


  PM PM PM PM                PM PM PM PM                
  E  E  E  E  E  E  E  E     E  E  E  E  E   E   E  E   
|--------------------------|----------------------------|
|--------------------------|----------------------------|
|--------------------------|---------------------10-----|
|--------------7--7--7--7--|--------------7s--8------7--|
|--0--0--0--0--5--5--5--5--|--0--0--0--0----------------|
|--0--0--0--0--------------|--0--0--0--0----------------|


  PM PM PM PM                PM PM PM PM                
  E  E  E  E  E  E  E  E     E  E  E  E  E   E   E  E   
|--------------------------|----------------------------|
|--------------------------|----------------------------|
|--------------------------|---------------------10-----|
|--------------7--7--7--7--|--------------7s--8------7--|
|--0--0--0--0--5--5--5--5--|--0--0--0--0----------------|
|--0--0--0--0--------------|--0--0--0--0----------------|


  PM PM PM PM                PM PM PM PM                
  E  E  E  E  E  E  E  E     E  E  E  E  E   E   E  E   
|--------------------------|----------------------------|
|--------------------------|----------------------------|
|--------------------------|---------------------10-----|
|--------------7--7--7--7--|--------------7s--8------7--|
|--0--0--0--0--5--5--5--5--|--0--0--0--0----------------|
|--0--0--0--0--------------|--0--0--0--0----------------|


   S  S  S  S  S  S  S  S  S  S  S  S  S  S  S  S  
|--------------------------------------------------|
|--------------------------------------------------|
|--19-19-19-19-19-19-19-19-19-19-19-19-19-19-19-19-|
|--------------------------------------------------|
|--------------------------------------------------|
|--------------------------------------------------|


   S  S  S  S  S  S  S  S  S  S  S  S  S  S  S  S  
|--------------------------------------------------|
|--------------------------------------------------|
|--19-19-19-19-19-19-19-19-19-19-19-19-19-19-19-19-|
|--------------------------------------------------|
|--------------------------------------------------|
|--------------------------------------------------|


   S  S  S  S  S  S  S  S  S  S  S  S  S  S  S  S  
|--------------------------------------------------|
|--------------------------------------------------|
|--19-19-19-19-19-19-19-19-19-19-19-19-19-19-19-19-|
|--------------------------------------------------|
|--------------------------------------------------|
|--------------------------------------------------|


   S  S  S  S  S  S  S  S  S  S  S  S  S  S  S  S  
|--------------------------------------------------|
|--------------------------------------------------|
|--19-19-19-19-19-19-19-19-21-21-21-21-21-21-21-21-|
|--------------------------------------------------|
|--------------------------------------------------|
|--------------------------------------------------|


   S  S  S  S  S  S  S  S  S  S  S  S  S  S  S  S  
|--------------------------------------------------|
|--18-18-18-18-18-18-18-18-18-18-18-18-18-18-18-18-|
|--------------------------------------------------|
|--------------------------------------------------|
|--------------------------------------------------|
|--------------------------------------------------|


   S  S  S  S  S  S  S  S  S  S  S  S  S  S  S  S  
|--------------------------------------------------|
|--18-18-18-18-18-18-18-18-18-18-18-18-18-18-18-18-|
|--------------------------------------------------|
|--------------------------------------------------|
|--------------------------------------------------|
|--------------------------------------------------|


   S  S  S  S  S  S  S  S  S  S  S  S  S  S  S  S  
|--------------------------------------------------|
|--18-18-18-18-18-18-18-18-18-18-18-18-18-18-18-18-|
|--------------------------------------------------|
|--------------------------------------------------|
|--------------------------------------------------|
|--------------------------------------------------|


                                                     PM PM PM PM              
   S  S  S  S  S  S  S  S  S  S  S  S  S  S  S  S    E  E  E  E  E  E E E   
|--------------------------------------------------|-----------------------|
|-18-18-18-18-18-18-18-18-18-18-18-18-18-18-18-18-|------------------------|
|-------------------------------------------------|------------------------|
|-------------------------------------------------|--------------7--7--7--7|
|-------------------------------------------------|--0--0--0--0--5--5--5--5|
|-------------------------------------------------|--0--0--0--0------------|


  PM PM PM PM                  PM PM PM PM              
  E  E  E  E  E   E   E  E     E  E  E  E  E  E  E  E   
|----------------------------|--------------------------|
|----------------------------|--------------------------|
|---------------------10-----|--------------------------|
|--------------7s--8------7--|--------------7--7--7--7--|
|--0--0--0--0----------------|--0--0--0--0--5--5--5--5--|
|--0--0--0--0----------------|--0--0--0--0--------------|


  PM PM PM PM                  PM PM PM PM              
  E  E  E  E  E   E   E  E     E  E  E  E  E  E  E  E   
|----------------------------|--------------------------|
|----------------------------|--------------------------|
|---------------------10-----|--------------------------|
|--------------7s--8------7--|--------------7--7--7--7--|
|--0--0--0--0----------------|--0--0--0--0--5--5--5--5--|
|--0--0--0--0----------------|--0--0--0--0--------------|


  PM PM PM PM                  PM PM PM PM              
  E  E  E  E  E   E   E  E     E  E  E  E  E  E  E  E   
|----------------------------|--------------------------|
|----------------------------|--------------------------|
|---------------------10-----|--------------------------|
|--------------7s--8------7--|--------------7--7--7--7--|
|--0--0--0--0----------------|--0--0--0--0--5--5--5--5--|
|--0--0--0--0----------------|--0--0--0--0--------------|


  E  E  E  E  E  E  E  E        E   E   E   E   E   E   E   E   
|--------------------------||-----------------------------------|
|--------------------------||-----------------------------------|
|--------------------------||*--12--12--12--12--12--12--12--12--|
|--7--7--7--7--7--7--7--7--||*----------------------------------|
|--8--8--8--8--8--8--8--8--||---10--10--10--10--10--10--10--10--|
|--7--7--7--7--7--7--7--7--||-----------------------------------|


   E   E   E   E  E  E  E  E      E   E   E   E   E   E   E   E   
|------------------------------|----------------------------------|
|------------------------------|----------------------------------|
|--10--10--10--10--9--9--9--9--|--10--10--10--10--10--10--10--10--|
|------------------------------|----------------------------------|
|---8---8---8---8--7--7--7--7--|---8---8---8---8---8---8---8---8--|
|------------------------------|----------------------------------|


  E  E  E  E  E  E  E  E       E  E  E  E  E  E  E  E   
|---------------------------||--------------------------|
|---------------------------||--------------------------|
|--9--9--9--9--5--5--5--5--*||--9--9--9--9--5--5--5--5--|
|--------------------------*||--------------------------|
|--7--7--7--7--3--3--3--3---||--7--7--7--7--3--3--3--3--|
|---------------------------||--------------------------|


   E   E   E   E   E   E   E   E      E   E   E   E   E   E   E   E   
|----------------------------------|----------------------------------|
|----------------------------------|----------------------------------|
|--15--15--15--15--15--15--15--15--|--14--14--14--14--10--10--10--10--|
|----------------------------------|----------------------------------|
|--13--13--13--13--13--13--13--13--|--12--12--12--12---8---8---8---8--|
|----------------------------------|----------------------------------|


   E   E   E   E   E   E   E   E      E   E   E   E   E   E   E   E   
|----------------------------------|----------------------------------|
|----------------------------------|----------------------------------|
|--14--14--14--14--14--14--14--14--|--12--12--12--12--12--12--12--12--|
|----------------------------------|----------------------------------|
|--12--12--12--12--12--12--12--12--|--10--10--10--10--10--10--10--10--|
|----------------------------------|----------------------------------|


   E   E   E   E   E   E   E   E      E   E   E   E   E   E   E   E   
|----------------------------------|----------------------------------|
|----------------------------------|----------------------------------|
|--15--15--15--15--15--15--15--15--|--14--14--14--14--10--10--10--10--|
|----------------------------------|----------------------------------|
|--13--13--13--13--13--13--13--13--|--12--12--12--12---8---8---8---8--|
|----------------------------------|----------------------------------|


   E   E   E   E   E   E   E   E      E   E   E   E   E   E   E   E   
|----------------------------------|----------------------------------|
|----------------------------------|----------------------------------|
|--14--14--14--14--14--14--14--14--|--12--12--12--12--12--12--12--12--|
|----------------------------------|----------------------------------|
|--12--12--12--12--12--12--12--12--|--10--10--10--10--10--10--10--10--|
|----------------------------------|----------------------------------|


     E   E   E   E   E   E   E   E      E   E   E   E  E  E  E  E   
|-----------------------------------|------------------------------|
|-----------------------------------|------------------------------|
|*--12--12--12--12--12--12--12--12--|--10--10--10--10--9--9--9--9--|
|*----------------------------------|------------------------------|
|---10--10--10--10--10--10--10--10--|---8---8---8---8--7--7--7--7--|
|-----------------------------------|------------------------------|


   E   E   E   E   E   E   E   E     E  E  E  E  E  E  E  E     
----------------------------------|---------------------------||
----------------------------------|---------------------------||
--10--10--10--10--10--10--10--10--|--9--9--9--9--5--5--5--5--*||
----------------------------------|--------------------------*||
---8---8---8---8---8---8---8---8--|--7--7--7--7--3--3--3--3---||
----------------------------------|---------------------------||


  E  E  E  E  E  E  E  E      E   E   E   E   E   E   E   E   
|--------------------------|----------------------------------|
|--------------------------|----------------------------------|
|--9--9--9--9--5--5--5--5--|--15--15--15--15--15--15--15--15--|
|--------------------------|----------------------------------|
|--7--7--7--7--3--3--3--3--|--13--13--13--13--13--13--13--13--|
|--------------------------|----------------------------------|


   E   E   E   E   E   E   E   E      E   E   E   E   E   E   E   E   
|----------------------------------|----------------------------------|
|----------------------------------|----------------------------------|
|--14--14--14--14--10--10--10--10--|--14--14--14--14--14--14--14--14--|
|----------------------------------|----------------------------------|
|--12--12--12--12---8---8---8---8--|--12--12--12--12--12--12--12--12--|
|----------------------------------|----------------------------------|


   E   E   E   E   E   E   E   E      E   E   E   E   E   E   E   E   
|----------------------------------|----------------------------------|
|----------------------------------|----------------------------------|
|--12--12--12--12--12--12--12--12--|--15--15--15--15--15--15--15--15--|
|----------------------------------|----------------------------------|
|--10--10--10--10--10--10--10--10--|--13--13--13--13--13--13--13--13--|
|----------------------------------|----------------------------------|


   E   E   E   E   E   E   E   E      E   E   E   E   E   E   E   E   
|----------------------------------|----------------------------------|
|----------------------------------|----------------------------------|
|--14--14--14--14--10--10--10--10--|--14--14--14--14--14--14--14--14--|
|----------------------------------|----------------------------------|
|--12--12--12--12---8---8---8---8--|--12--12--12--12--12--12--12--12--|
|----------------------------------|----------------------------------|


   E   E   E   E   E   E   E   E     W                   W                 
|----------------------------------|-------------------|-------------------|
|----------------------------------|-------------------|-------------------|
|--12--12--12--12--12--12--12--12--|-------------------|-------------------|
|----------------------------------|--0----------------|--L----------------|
|--10--10--10--10--10--10--10--10--|--0----------------|--L----------------|
|----------------------------------|--0----------------|--L----------------|


  W                   W                   W                   W                 
|-------------------|-------------------|-------------------|--------------|
|-------------------|-------------------|-------------------|--------------|
|-------------------|-------------------|-------------------|--------------|
|--L----------------|--L----------------|--L----------------|--L-----------|
|--L----------------|--L----------------|--L----------------|--L-----------|
|--L----------------|--L----------------|--L----------------|--L-----------|


  W                   W                   W                   W                 
|-------------------|-------------------|-------------------|--------------|
|-------------------|-------------------|-------------------|--------------|
|-------------------|-------------------|-------------------|--------------|
|--L----------------|--L----------------|--L----------------|--L-----------|
|--L----------------|--L----------------|--L----------------|--L-----------|
|--L----------------|--L----------------|--L----------------|--L-----------|


  W                  
|-------------------||
|-------------------||
|-------------------||
|--L----------------||
|--L----------------||
|--L----------------||   End.







Guitar II:

             E  E   E  E  E   E  E  E      E  E  E   E  E  E  E   E   
D||-------|----------------------------|-----------------------------|
A||-------|----------------------------|-----------------------------|
F||-------|----------------------------|-----------------------------|
C||-------|--------12--------12--------|--12--------12-----------12--|
G||-------|-----8---------8---------8--|---------8---------8---------|
C||-------|--0---------0---------0-----|------0---------0-----0------|


  E  E   E  E  E   E  E  E      E  E  E   E  E  E  E   E   
----------------------------|-----------------------------|
----------------------------|-----------------------------|
----------------------------|-----------------------------|
--------12--------12--------|--12--------12-----------12--|
-----8---------8---------8--|---------8---------8---------|
--0---------0---------0-----|------0---------0-----0------|


   E   E   E   E   E   E   E   E      E   E   E   E   E   E   E   E   
----------------------------------|----------------------------------|
----------------------------------|----------------------------------|
----------------------------------|----------------------------------|
----------12----------12----------|--12----------12--------------12--|
------10----------10----------10--|----------10----------10----------|
--10----------10----------10------|------10----------10------10------|


  E  E   E  E  E   E  E  E      E  E  E   E  E  E  E   E   
----------------------------|-----------------------------|
----------------------------|-----------------------------|
----------------------------|-----------------------------|
--------12--------12--------|--12--------12-----------12--|
-----8---------8---------8--|---------7---------7---------|
--8---------8---------8-----|------7---------7-----7------|


  E  E   E  E  E   E  E  E      E  E  E   E  E  E  E   E   
----------------------------|-----------------------------|
----------------------------|-----------------------------|
----------------------------|-----------------------------|
--------12--------12--------|--12--------12-----------12--|
-----8---------8---------8--|---------8---------8---------|
--0---------0---------0-----|------0---------0-----0------|


  E  E   E  E  E   E  E  E      E  E  E   E  E  E  E   E   
----------------------------|-----------------------------|
----------------------------|-----------------------------|
----------------------------|-----------------------------|
--------12--------12--------|--12--------12-----------12--|
-----8---------8---------8--|---------8---------8---------|
--0---------0---------0-----|------0---------0-----0------|


   E   E   E   E   E   E   E   E      E   E   E   E   E   E   E   E   
----------------------------------|----------------------------------|
----------------------------------|----------------------------------|
----------------------------------|----------------------------------|
----------12----------12----------|--12----------12--------------12--|
------10----------10----------10--|----------10----------10----------|
--10----------10----------10------|------10----------10------10------|


  E  E   E  E  E   E  E  E      E  E  E   E  E  E  E   E   
----------------------------|-----------------------------|
----------------------------|-----------------------------|
----------------------------|-----------------------------|
--------12--------12--------|--12--------12-----------12--|
-----8---------8---------8--|---------7---------7---------|
--8---------8---------8-----|------7---------7-----7------|


    E  E   E  E  E   E  E  E      E  E  E   E  E  E  E   E   
|-----------------------------|-----------------------------|
|-----------------------------|-----------------------------|
|*----------------------------|-----------------------------|
|*--------12--------12--------|--12--------12-----------12--|
|------8---------8---------8--|---------8---------8---------|
|---0---------0---------0-----|------0---------0-----0------|


  E  E   E  E  E   E  E  E      E  E  E   E  E  E  E   E   
----------------------------|-----------------------------|
----------------------------|-----------------------------|
----------------------------|-----------------------------|
--------12--------12--------|--12--------12-----------12--|
-----8---------8---------8--|---------8---------8---------|
--0---------0---------0-----|------0---------0-----0------|


   E   E   E   E   E   E   E   E      E   E   E   E   E   E   E   E   
----------------------------------|----------------------------------|
----------------------------------|----------------------------------|
----------------------------------|----------------------------------|
----------12----------12----------|--12----------12--------------12--|
------10----------10----------10--|----------10----------10----------|
--10----------10----------10------|------10----------10------10------|


  E  E   E  E  E   E  E  E      E  E  E   E  E  E  E   E   3x
----------------------------|------------------------------||
----------------------------|------------------------------||
----------------------------|-----------------------------*||
--------12--------12--------|--12--------12-----------12--*||
-----8---------8---------8--|---------7---------7----------||
--8---------8---------8-----|------7---------7-----7-------||


  E  E   E  E  E   E  E  E      E  E  E   E  E  E  E   E   
----------------------------|-----------------------------|
----------------------------|-----------------------------|
----------------------------|-----------------------------|
--------12--------12--------|--12--------12-----------12--|
-----8---------8---------8--|---------7---------7---------|
--8---------8---------8-----|------7---------7-----7------|


    E  E  E  E  E  E  E  E     E  E  E  E  E  E  E  E   
|---------------------------|--------------------------|
|---------------------------|--------------------------|
|*--------------------------|--------------------------|
|*--------------------------|--------------------------|
|---5--5--5--5--5--5--5--5--|--5--5--5--5--5--5--5--5--|
|---5--5--5--5--5--5--5--5--|--5--5--5--5--5--5--5--5--|


  E  E  E  E  E  E  E  E     E  E  E  E  E  E  E  E     
--------------------------|---------------------------||
--------------------------|---------------------------||
--------------------------|--------------------------*||
--------------------------|--------------------------*||
--0--0--0--0--0--0--0--0--|--0--0--0--0--0--0--0--0---||
--0--0--0--0--0--0--0--0--|--0--0--0--0--0--0--0--0---||


  E  E  E  E  E  E  E  E     E  E  E  E  E  E  E  E   
--------------------------|--------------------------|
--------------------------|--------------------------|
--------------------------|--------------------------|
--------------------------|--------------------------|
--0--0--0--0--0--0--0--0--|--8--8--8--8--8--8--8--8--|
--0--0--0--0--0--0--0--0--|--8--8--8--8--8--8--8--8--|


  E  E  E  E  E  E  E  E     E  E  E  E  E  E  E  E   
--------------------------|--------------------------|
--------------------------|--------------------------|
--------------------------|--------------------------|
--------------------------|--------------------------|
--8--8--8--8--8--8--8--8--|--3--3--3--3--3--3--3--3--|
--8--8--8--8--8--8--8--8--|--3--3--3--3--3--3--3--3--|


  E  E  E  E  E  E  E  E     E  E  E  E  E  E  E  E   
--------------------------|--------------------------|
--------------------------|--------------------------|
--------------------------|--------------------------|
--------------------------|--------------------------|
--3--3--3--3--3--3--3--3--|--5--5--5--5--5--5--5--5--|
--3--3--3--3--3--3--3--3--|--5--5--5--5--5--5--5--5--|


  E  E  E  E  E  E  E  E     E  E  E  E  E  E  E  E   
--------------------------|--------------------------|
--------------------------|--------------------------|
--------------------------|--------------------------|
--------------------------|--------------------------|
--5--5--5--5--5--5--5--5--|--0--0--0--0--0--0--0--0--|
--5--5--5--5--5--5--5--5--|--0--0--0--0--0--0--0--0--|


  E  E  E  E  E  E  E  E       E  E  E  E  E  E  E  E   
--------------------------||---------------------------|
--------------------------||---------------------------|
--------------------------||*--------------------------|
--------------------------||*--------------------------|
--0--0--0--0--0--0--0--0--||---5--5--5--5--5--5--5--5--|
--0--0--0--0--0--0--0--0--||---5--5--5--5--5--5--5--5--|


  E  E  E  E  E  E  E  E     E  E  E  E  E  E  E  E   
--------------------------|--------------------------|
--------------------------|--------------------------|
--------------------------|--------------------------|
--------------------------|--------------------------|
--5--5--5--5--5--5--5--5--|--0--0--0--0--0--0--0--0--|
--5--5--5--5--5--5--5--5--|--0--0--0--0--0--0--0--0--|


  E  E  E  E  E  E  E  E       E  E  E  E  E  E  E  E   
---------------------------||--------------------------|
---------------------------||--------------------------|
--------------------------*||--------------------------|
--------------------------*||--------------------------|
--0--0--0--0--0--0--0--0---||--0--0--0--0--0--0--0--0--|
--0--0--0--0--0--0--0--0---||--0--0--0--0--0--0--0--0--|


  E  E  E  E  E  E  E  E     E  E  E  E  E  E  E  E   
--------------------------|--------------------------|
--------------------------|--------------------------|
--------------------------|--------------------------|
--------------------------|--------------------------|
--8--8--8--8--8--8--8--8--|--8--8--8--8--8--8--8--8--|
--8--8--8--8--8--8--8--8--|--8--8--8--8--8--8--8--8--|


  E  E  E  E  E  E  E  E     E  E  E  E  E  E  E  E   
--------------------------|--------------------------|
--------------------------|--------------------------|
--------------------------|--------------------------|
--------------------------|--------------------------|
--3--3--3--3--3--3--3--3--|--3--3--3--3--3--3--3--3--|
--3--3--3--3--3--3--3--3--|--3--3--3--3--3--3--3--3--|


  E  E  E  E  E  E  E  E     E  E  E  E  E  E  E  E   
--------------------------|--------------------------|
--------------------------|--------------------------|
--------------------------|--------------------------|
--------------------------|--------------------------|
--5--5--5--5--5--5--5--5--|--5--5--5--5--5--5--5--5--|
--5--5--5--5--5--5--5--5--|--5--5--5--5--5--5--5--5--|


  E  E  E  E  E  E  E  E     E  E  E  E  E  E  E  E   
--------------------------|--------------------------|
--------------------------|--------------------------|
--------------------------|--------------------------|
--------------------------|--------------------------|
--0--0--0--0--0--0--0--0--|--0--0--0--0--0--0--0--0--|
--0--0--0--0--0--0--0--0--|--0--0--0--0--0--0--0--0--|


  PM PM PM PM                    PM PM PM PM                
  E  E  E  E   E   E   E   E     E  E  E  E  E   E   E  E   
------------------------------|----------------------------|
------------------------------|----------------------------|
--------------10--10--10--10--|---------------------10-----|
---------------7---7---7---7--|--------------7s--8------7--|
--0--0--0--0------------------|--0--0--0--0----------------|
--0--0--0--0------------------|--0--0--0--0----------------|


  PM PM PM PM                    PM PM PM PM                
  E  E  E  E   E   E   E   E     E  E  E  E  E   E   E  E   
------------------------------|----------------------------|
------------------------------|----------------------------|
--------------10--10--10--10--|---------------------10-----|
---------------7---7---7---7--|--------------7s--8------7--|
--0--0--0--0------------------|--0--0--0--0----------------|
--0--0--0--0------------------|--0--0--0--0----------------|


  PM PM PM PM                    PM PM PM PM                
  E  E  E  E   E   E   E   E     E  E  E  E  E   E   E  E   
------------------------------|----------------------------|
------------------------------|----------------------------|
--------------10--10--10--10--|---------------------10-----|
---------------7---7---7---7--|--------------7s--8------7--|
--0--0--0--0------------------|--0--0--0--0----------------|
--0--0--0--0------------------|--0--0--0--0----------------|


  PM PM PM PM                    PM PM PM PM                
  E  E  E  E   E   E   E   E     E  E  E  E  E   E   E  E   
------------------------------|----------------------------|
------------------------------|----------------------------|
--------------10--10--10--10--|---------------------10-----|
---------------7---7---7---7--|--------------7s--8------7--|
--0--0--0--0------------------|--0--0--0--0----------------|
--0--0--0--0------------------|--0--0--0--0----------------|


  PM PM PM PM                    PM PM PM PM                
  E  E  E  E   E   E   E   E     E  E  E  E  E   E   E  E   
------------------------------|----------------------------|
------------------------------|----------------------------|
--------------10--10--10--10--|---------------------10-----|
---------------7---7---7---7--|--------------7s--8------7--|
--0--0--0--0------------------|--0--0--0--0----------------|
--0--0--0--0------------------|--0--0--0--0----------------|


  PM PM PM PM                    PM PM PM PM                
  E  E  E  E   E   E   E   E     E  E  E  E  E   E   E  E   
------------------------------|----------------------------|
------------------------------|----------------------------|
--------------10--10--10--10--|---------------------10-----|
---------------7---7---7---7--|--------------7s--8------7--|
--0--0--0--0------------------|--0--0--0--0----------------|
--0--0--0--0------------------|--0--0--0--0----------------|


  PM PM PM PM                    PM PM PM PM                
  E  E  E  E   E   E   E   E     E  E  E  E  E   E   E  E   
------------------------------|----------------------------|
------------------------------|----------------------------|
--------------10--10--10--10--|---------------------10-----|
---------------7---7---7---7--|--------------7s--8------7--|
--0--0--0--0------------------|--0--0--0--0----------------|
--0--0--0--0------------------|--0--0--0--0----------------|


  PM PM PM PM                    PM PM PM PM                
  E  E  E  E   E   E   E   E     E  E  E  E  E   E   E  E   
------------------------------|----------------------------|
------------------------------|----------------------------|
--------------10--10--10--10--|---------------------10-----|
---------------7---7---7---7--|--------------7s--8------7--|
--0--0--0--0------------------|--0--0--0--0----------------|
--0--0--0--0------------------|--0--0--0--0----------------|


  PM PM PM PM                    PM PM PM PM                 
  E  E  E  E   E   E   E   E     E  E  E  E  E    E   E  E   
------------------------------|-----------------------------|
------------------------------|----------------------13-----|
--------------10--10--10--10--|--------------9s--10------9--|
---------------7---7---7---7--|-----------------------------|
--0--0--0--0------------------|--0--0--0--0-----------------|
--0--0--0--0------------------|--0--0--0--0-----------------|


  PM PM PM PM                    PM PM PM PM                 
  E  E  E  E   E   E   E   E     E  E  E  E  E    E   E  E   
------------------------------|-----------------------------|
------------------------------|----------------------13-----|
--------------10--10--10--10--|--------------9s--10------9--|
---------------7---7---7---7--|-----------------------------|
--0--0--0--0------------------|--0--0--0--0-----------------|
--0--0--0--0------------------|--0--0--0--0-----------------|


  PM PM PM PM                    PM PM PM PM                 
  E  E  E  E   E   E   E   E     E  E  E  E  E    E   E  E   
------------------------------|-----------------------------|
------------------------------|----------------------13-----|
--------------10--10--10--10--|--------------9s--10------9--|
---------------7---7---7---7--|-----------------------------|
--0--0--0--0------------------|--0--0--0--0-----------------|
--0--0--0--0------------------|--0--0--0--0-----------------|


  PM PM PM PM                                                     
  E  E  E  E   E   E   E   E      E   E   E   E   E   E   E   E   
------------------------------|----------------------------------|
------------------------------|----------------------------------|
--------------10--10--10--10--|----------------------------------|
---------------7---7---7---7--|----------------------------------|
--0--0--0--0------------------|--10--10--10--10--10--10--10--10--|
--0--0--0--0------------------|--10--10--10--10--10--10--10--10--|


    E  E  E  E  E  E  E  E     E  E  E  E  E  E  E  E   
|---------------------------|--------------------------|
|---------------------------|--------------------------|
|*--------------------------|--------------------------|
|*--------------------------|--------------------------|
|---5--5--5--5--5--5--5--5--|--5--5--5--5--5--5--5--5--|
|---5--5--5--5--5--5--5--5--|--5--5--5--5--5--5--5--5--|


  E  E  E  E  E  E  E  E     E  E  E  E  E  E  E  E     
--------------------------|---------------------------||
--------------------------|---------------------------||
--------------------------|--------------------------*||
--------------------------|--------------------------*||
--0--0--0--0--0--0--0--0--|--0--0--0--0--0--0--0--0---||
--0--0--0--0--0--0--0--0--|--0--0--0--0--0--0--0--0---||


  E  E  E  E  E  E  E  E     E  E  E  E  E  E  E  E   
--------------------------|--------------------------|
--------------------------|--------------------------|
--------------------------|--------------------------|
--------------------------|--------------------------|
--0--0--0--0--0--0--0--0--|--8--8--8--8--8--8--8--8--|
--0--0--0--0--0--0--0--0--|--8--8--8--8--8--8--8--8--|


  E  E  E  E  E  E  E  E     E  E  E  E  E  E  E  E   
--------------------------|--------------------------|
--------------------------|--------------------------|
--------------------------|--------------------------|
--------------------------|--------------------------|
--8--8--8--8--8--8--8--8--|--3--3--3--3--3--3--3--3--|
--8--8--8--8--8--8--8--8--|--3--3--3--3--3--3--3--3--|


  E  E  E  E  E  E  E  E     E  E  E  E  E  E  E  E   
--------------------------|--------------------------|
--------------------------|--------------------------|
--------------------------|--------------------------|
--------------------------|--------------------------|
--3--3--3--3--3--3--3--3--|--5--5--5--5--5--5--5--5--|
--3--3--3--3--3--3--3--3--|--5--5--5--5--5--5--5--5--|


  E  E  E  E  E  E  E  E     E  E  E  E  E  E  E  E   
--------------------------|--------------------------|
--------------------------|--------------------------|
--------------------------|--------------------------|
--------------------------|--------------------------|
--5--5--5--5--5--5--5--5--|--0--0--0--0--0--0--0--0--|
--5--5--5--5--5--5--5--5--|--0--0--0--0--0--0--0--0--|


  E  E  E  E  E  E  E  E       E  E  E  E  E  E  E  E   
--------------------------||---------------------------|
--------------------------||---------------------------|
--------------------------||*--------------------------|
--------------------------||*--------------------------|
--0--0--0--0--0--0--0--0--||---5--5--5--5--5--5--5--5--|
--0--0--0--0--0--0--0--0--||---5--5--5--5--5--5--5--5--|


  E  E  E  E  E  E  E  E     E  E  E  E  E  E  E  E   
--------------------------|--------------------------|
--------------------------|--------------------------|
--------------------------|--------------------------|
--------------------------|--------------------------|
--5--5--5--5--5--5--5--5--|--0--0--0--0--0--0--0--0--|
--5--5--5--5--5--5--5--5--|--0--0--0--0--0--0--0--0--|


  E  E  E  E  E  E  E  E       E  E  E  E  E  E  E  E   
---------------------------||--------------------------|
---------------------------||--------------------------|
--------------------------*||--------------------------|
--------------------------*||--------------------------|
--0--0--0--0--0--0--0--0---||--0--0--0--0--0--0--0--0--|
--0--0--0--0--0--0--0--0---||--0--0--0--0--0--0--0--0--|


  E  E  E  E  E  E  E  E     E  E  E  E  E  E  E  E   
--------------------------|--------------------------|
--------------------------|--------------------------|
--------------------------|--------------------------|
--------------------------|--------------------------|
--8--8--8--8--8--8--8--8--|--8--8--8--8--8--8--8--8--|
--8--8--8--8--8--8--8--8--|--8--8--8--8--8--8--8--8--|


  E  E  E  E  E  E  E  E     E  E  E  E  E  E  E  E   
--------------------------|--------------------------|
--------------------------|--------------------------|
--------------------------|--------------------------|
--------------------------|--------------------------|
--3--3--3--3--3--3--3--3--|--3--3--3--3--3--3--3--3--|
--3--3--3--3--3--3--3--3--|--3--3--3--3--3--3--3--3--|


  E  E  E  E  E  E  E  E     E  E  E  E  E  E  E  E   
--------------------------|--------------------------|
--------------------------|--------------------------|
--------------------------|--------------------------|
--------------------------|--------------------------|
--5--5--5--5--5--5--5--5--|--5--5--5--5--5--5--5--5--|
--5--5--5--5--5--5--5--5--|--5--5--5--5--5--5--5--5--|


  E  E  E  E  E  E  E  E     E  E  E  E  E  E  E  E     W                 
--------------------------|--------------------------|-------------------|
--------------------------|--------------------------|-------------------|
--------------------------|--------------------------|-------------------|
--------------------------|--------------------------|--0----------------|
--0--0--0--0--0--0--0--0--|--0--0--0--0--0--0--0--0--|--0----------------|
--0--0--0--0--0--0--0--0--|--0--0--0--0--0--0--0--0--|--0----------------|


  W                   W                   W                   W                 
-------------------|-------------------|-------------------|---------------|
-------------------|-------------------|-------------------|---------------|
-------------------|-------------------|-------------------|---------------|
--L----------------|--L----------------|--L----------------|--L------------|
--L----------------|--L----------------|--L----------------|--L-----------|
--L----------------|--L----------------|--L----------------|--L------------|


  W                   W                   W                   W                 
-------------------|-------------------|-------------------|---------------|
-------------------|-------------------|-------------------|---------------|
-------------------|-------------------|-------------------|---------------|
--L----------------|--L----------------|--L----------------|--L------------|
--L----------------|--L----------------|--L----------------|--L------------|
--L----------------|--L----------------|--L----------------|--L------------|


  W                   W                  
-------------------|-------------------||
-------------------|-------------------||
-------------------|-------------------||
--L----------------|--L----------------||
--L----------------|--L----------------||
--L----------------|--L----------------||


End.



Duration Legend
---------------
W - whole
H - half
Q - quarter
E - 8th
S - 16th
T - 32nd
X - 64th
. - note dotted
|-n-|  - n-tuplets


Tablature Legend
----------------
L - tied note
x - dead note
g - grace note
(n) - ghost note
> - accentuded note
NH - natural harmonic
AH - artificial harmonic
TH - tapped harmonic
SH - semi harmonic
PH - pitch harmonic
h - hammer on
p - pull off
b - bend
br - bendRelease
pb - preBend
pbr - preBendRelease
brb - bendReleaseBend
\n/ - tremolo bar dip
\n - tremolo bar dive
-/n - tremolo bar Release up
/n\ - tremolo bar inverted dip
/n - tremolo bar return
-\n - tremolo bar Release down
S - shift slide
s - legato slide
/ -  slide into from below or out of upwards
\ -  slide into from above or out of downwards
~ - vibrato
W - wide vibrato
tr - trill
TP - tremolo picking
T - tapping
S - slap
P - pop
< - fade in
^ - brush up
v - brush down
















Duration Legend
---------------
W - whole
H - half
Q - quarter
E - 8th
S - 16th
T - 32nd
X - 64th
. - note dotted
|-n-|  - n-tuplets


Tablature Legend
----------------
L - tied note
x - dead note
g - grace note
(n) - ghost note
> - accentuded note
NH - natural harmonic
AH - artificial harmonic
TH - tapped harmonic
SH - semi harmonic
PH - pitch harmonic
h - hammer on
p - pull off
b - bend
br - bendRelease
pb - preBend
pbr - preBendRelease
brb - bendReleaseBend
\n/ - tremolo bar dip
\n - tremolo bar dive
-/n - tremolo bar Release up
/n\ - tremolo bar inverted dip
/n - tremolo bar return
-\n - tremolo bar Release down
S - shift slide
s - legato slide
/ -  slide into from below or out of upwards
\ -  slide into from above or out of downwards
~ - vibrato
W - wide vibrato
tr - trill
TP - tremolo picking
T - tapping
S - slap
P - pop
< - fade in
^ - brush up
v - brush down
comments
We did not receive enough feedback on this tab! Please rate:
1 2 3 4 5
I want to post or [tab]
guest
You may want to rate the tab now too:
select rating
Please do not post tabs as comments. Select "correction" instead!