Oops, an error
Loading. Please wait.

Resilience Tab

ver1
ver1

Whole song

Interactive

More versions @911Tabs.com
4,161 views 1 this week
3 commentsread comments
1 2 3 4 5
excellent!
x 5
Autoscroll
+/-
esc
set tempo
stop
Contributor
Difficulty
Tuning
intermediate
C G C F A D
Hey! There's an official Ultimate Guitar app which is ideal
for learning songs when you're away from computer. Get the app
WARNING: You are trying to view
                                    content from Ultimate-Guitar.com
                                    in an unauthorized application,
                                    which is prohibited.

                                    Please use an official Ultimate
                                    Guitar Tabs application for iPhone,
                                    iPad or Android to access legitimate
                                    chords, guitar, bass, and drum tabs
                                    from Ultimate-Guitar.com database.

                                    Type "ultimate guitar tabs" in Apple
                                    App Store's or Android Market's
                                    search to find the application.
----------------------------------------------------------------------------
                              Resilience
                            As I Lay Dying
----------------------------------------------------------------------------

How much better could AILD get? It seems every time there is a new album they seem to 
keep getting better and better. Most bands just lose their mojo and turn to pop, but As I 
Lay Dying says “Screw that!” and keeps putting out stellar material. Enjoy!

Username: dkm817 (same on X box live)
Youtube Cover: http://www.youtube.com/watch?v=B8TMU9P0LQs
Email: guitardrums@rockfan.com

Guitar 1 Rhythmic (C G C F A D)
Guitar 2 Lead     (C G C F A D)


Tab Guide...
==================================================================
(end of measures)

==================================================================
==================================================================
(end of parts)

==================================================================
==================================================================
==================================================================
(end of song)
(If there is a “continued” it is because the numbers could not
fit on 1 line or connecting times played.)


==================================================================
Guitar 1
==================================================================


Intro

(x2)

Guitar 1
D-----------------------------------------------------------------|
A-----------------------------------------------------------------|
F-----------------------------------------------------------------|
C-2~~~~~~~~~~~~~~~~~~~~~~~~~~~~~~~~~~~~~~~~~~~~~~~~~~~~~~~~~~~~~~-|
G-2~~~~~~~~~~~~~~~~~~~~~~~~~~~~~~~~~~~~~~~~~~~~~~~~~~~~~~~~~~~~~~-|
C-2~~~~~~~~~~~~~~~~~~~~~~~~~~~~~~~~~~~~~~~~~~~~~~~~~~~~~~~~~~~~~~-|

==================================================================

Guitar 1
D-----------------------------------------------------------------|
A-----------------------------------------------------------------|
F-----------------------------------------------------------------|
C-0~~~~~~~~~~~~~~~~~~~~~~~~~~~~~~~~~~~~~~~~~~~~~~~~~~~~~~~~~~~~~~-|
G-0~~~~~~~~~~~~~~~~~~~~~~~~~~~~~~~~~~~~~~~~~~~~~~~~~~~~~~~~~~~~~~-|
C-0~~~~~~~~~~~~~~~~~~~~~~~~~~~~~~~~~~~~~~~~~~~~~~~~~~~~~~~~~~~~~~-|

==================================================================

Guitar 1
D-----------------------------------------------------------------|
A-----------------------------------------------------------------|
F-5~~~~~~~~~~~~~~~~~~~~~~~~~~~~~~~~~~~~~~~~~~~~~~~~~~~~~~~~~~~~~~-|
C-5~~~~~~~~~~~~~~~~~~~~~~~~~~~~~~~~~~~~~~~~~~~~~~~~~~~~~~~~~~~~~~-|
G-3~~~~~~~~~~~~~~~~~~~~~~~~~~~~~~~~~~~~~~~~~~~~~~~~~~~~~~~~~~~~~~-|
C-----------------------------------------------------------------|

==================================================================

Guitar 1
D-----------------------------------------------------------------|
A-----------------------------------------------------------------|
F-7~~~~~~~~~~~~~~~~~~~~~~~~~~~~~~~~~~~~~~~~~~~~~~~~~~~~~~~~~~~~~~-|
C-7~~~~~~~~~~~~~~~~~~~~~~~~~~~~~~~~~~~~~~~~~~~~~~~~~~~~~~~~~~~~~~-|
G-5~~~~~~~~~~~~~~~~~~~~~~~~~~~~~~~~~~~~~~~~~~~~~~~~~~~~~~~~~~~~~~-|
C-----------------------------------------------------------------|

==================================================================
==================================================================


Break Off

==================================================================
Rest
==================================================================


==================================================================
==================================================================


Verse 1

Guitar 1 (x4)
D-----------------------------------------------------------------|
A-----------------------------------------------------------------|
F-----------------------------------------------------------------|
C-----------------------------------------------------------------|
G-7-----------------------7---------------7-----------------------|
C-----2---2---2---2---2-------2---2---2-------2---2---2---2---2---|
Pm    .   .   .   .   .       .   .   .       .   .   .   .   .

==================================================================

Guitar 1 continued
D-----------------------------------------------------------------|
A-----------------------------------------------------------------|
F-----------------------------------------------------------------|
C-----------------------------------------------------------------|
G-7---------------7-----------------------7-----------------------|
C-----2---2---2-------2---2---2---2---2-------2---2---2---2---2---|
Pm    .   .   .       .   .   .   .   .       .   .   .   .   .

==================================================================

Guitar 1
D-----------------------------------------------------------------|
A-----------------------------------------------------------------|
F-----------------------------------------------------------------|
C-----------------19--14--------------------------15--------------|
G-0---15--19--0-----------15--0---0---14--17--0-------17--14--0---|
C-----------------------------------------------------------------|

==================================================================

Guitar 1
D-----------------------------------------------------------------|
A-----------------------------------------------------------------|
F-----------------------------------------------------------------|
C-----------------------------------------------------------------|
G-0---15--19--0---19--19--15--0---0---14--19--0---19--19--14--0---|
C-----------------------------------------------------------------|

==================================================================

Guitar 1
D-----------------------------------------------------------------|
A-----------------------------------------------------------------|
F-----------------------------------------------------------------|
C-----------------------------------------------------------------|
G-7-----------------------7---------------7-----------------------|
C-----2---2---2---2---2-------2---2---2-------2---2---2---2---2---|
Pm    .   .   .   .   .       .   .   .       .   .   .   .   .

==================================================================

Guitar 1
D-----------------------------------------------------------------|
A-----------------------------------------------------------------|
F-----------------------------------------------------------------|
C-----------------------------------------------------------------|
G-7---------------7-----------------------7-----------------------|
C-----2---2---2-------2---2---2---2---2-------2---2---2---2---2---|
Pm    .   .   .       .   .   .   .   .       .   .   .   .   .

==================================================================

Guitar 1
D-----------------------------------------------------------------|
A-----------------------------------------------------------------|
F-----------------------------------------------------------------|
C-----------------19--14--------------------------15--------------|
G-0---15--19--0-----------15--0---0---14--17--0-------17--14--0---|
C-----------------------------------------------------------------|

==================================================================

Guitar 1
D-----------------------------------------------------------------|
A-----------------------------------------------------------------|
F-----------------------------------------------------------------|
C-----------------------------------------------------------------|
G-0---15--19--0---19--19--15--0---0---14--19--0---19--19--14--0---|
C-----------------------------------------------------------------|

==================================================================

Guitar 1
D-----------------------------------------------------------------|
A-----------------------------------------------------------------|
F-----------------------------------------------------------------|
C-----------------------------------------------------------------|
G-7-----------------------7---------------7-----------------------|
C-----2---2---2---2---2-------2---2---2-------2---2---2---2---2---|
Pm    .   .   .   .   .       .   .   .       .   .   .   .   .

==================================================================

Guitar 1
D-----------------------------------------------------------------|
A-----------------------------------------------------------------|
F-----------------------------------------------------------------|
C-----------------------------------------------------------------|
G-7---------------7-----------------------7-----------------------|
C-----2---2---2-------2---2---2---2---2-------2---2---2---2---2---|
Pm    .   .   .       .   .   .   .   .       .   .   .   .   .

==================================================================

Guitar 1 (x2)
D-----------------------------------------------------------------|
A-----------------------------------------------------------------|
F-----------------------------------------------------------------|
C-----------------19--14--------------------------15--------------|
G-0---15--19--0-----------15--0---0---14--17--0-------17--14--0---|
C-----------------------------------------------------------------|

==================================================================

Guitar 1 continued
D-----------------------------------------------------------------|
A-----------------------------------------------------------------|
F-----------------------------------------------------------------|
C-----------------------------------------------------------------|
G-0---15--19--0---19--19--15--0---0---14--19--0---19--19--14--0---|
C-----------------------------------------------------------------|

==================================================================
==================================================================


Pre Chorus 1

Guitar 1
D-----------------------------------------------------------------|
A-----------------------------------------------------------------|
F-----------------------------------------------------------------|
C-3---3---3---3---3---3---3---5---5---5---5---5---5---5---5---5---|
G-3---3---3---3---3---3---3---5---5---5---5---5---5---5---5---5---|
C-3---3---3---3---3---3---3---5---5---5---5---5---5---5---5---5---|

==================================================================

Guitar 1
D-----------------------------------------------------------------|
A-----------------------------------------------------------------|
F-----------------------------------------------------------------|
C-6---6---6---6---6---6---6---7---7---7---7---7---9---9---10--10--|
G-6---6---6---6---6---6---6---7---7---7---7---7---9---9---10--10--|
C-6---6---6---6---6---6---6---7---7---7---7---7---9---9---10--10--|

==================================================================

Guitar 1
D-----------------------------------------------------------------|
A-----------------------------------------------------------------|
F-----------------------------------------------------------------|
C-3---3---3---3---3---3---3---5---5---5---5---5---10--10--9---9---|
G-3---3---3---3---3---3---3---5---5---5---5---5---10--10--9---9---|
C-3---3---3---3---3---3---3---5---5---5---5---5---10--10--9---9---|

==================================================================

Guitar 1
D-----------------------------------------------------------------|
A-----------------------------------------------------------------|
F-----------------------------------------------------------------|
C-7---7---7---7---7---7---5---7---7---7---7---7---5---5---5---5---|
G-7---7---7---7---7---7---5---7---7---7---7---7---5---5---5---5---|
C-7---7---7---7---7---7---5---7---7---7---7---7---5---5---5---5---|

==================================================================
==================================================================


Chorus 1

(x4)

Guitar 1
D-----------------------------------------------------------------|
A-----------------------------------------------------------------|
F-----------------------------------------------------------------|
C-7---7---7---7---7-7-7-7-7---7---7-----------------------7-7-7-7-|
G-7---7---7---7---7-7-7-7-7---7---7-----------------------7-7-7-7-|
C-7---7---7---7---7-7-7-7-7---7---7-----------------------7-7-7-7-|
Pm.   .   .   .   . . . . .   .   .                       . . . .

==================================================================

Guitar 1
D-----------------------------------------------------------------|
A-----------------------------------------------------------------|
F-----------------------------------------------------------------|
C-7---7---7---7---7---7---7---7---7-------------------------------|
G-7---7---7---7---7---7---7---7---7-------------------------------|
C-7---7---7---7---7---7---7---7---7-------------------------------|
Pm.   .   .   .   .   .   .   .   .

==================================================================
==================================================================


Guitar Solo

(x2)

Guitar 1
D-----------------------------------------------------------------|
A-----------------------------------------------------------------|
F-----------------------------------------------------------------|
C-----------------------------------------------------------------|
G-7-----------------------7---------------7-----------------------|
C-----2---2---2---2---2-------2---2---2-------2---2---2---2---2---|
Pm    .   .   .   .   .       .   .   .       .   .   .   .   .

==================================================================

Guitar 1
D-----------------------------------------------------------------|
A-----------------------------------------------------------------|
F-----------------------------------------------------------------|
C-----------------------------------------------------------------|
G-7---------------7-----------------------7-----------------------|
C-----2---2---2-------2---2---2---2---2-------2---2---2---2---2---|
Pm    .   .   .       .   .   .   .   .       .   .   .   .   .

==================================================================
==================================================================


Verse 2

Guitar 1 (x2)
D-----------------------------------------------------------------|
A-----------------------------------------------------------------|
F-----------------------------------------------------------------|
C-----------------------------------------------------------------|
G-7-----------------------7---------------7-----------------------|
C-----2---2---2---2---2-------2---2---2-------2---2---2---2---2---|
Pm    .   .   .   .   .       .   .   .       .   .   .   .   .

==================================================================

Guitar 1 continued
D-----------------------------------------------------------------|
A-----------------------------------------------------------------|
F-----------------------------------------------------------------|
C-----------------------------------------------------------------|
G-7---------------7-----------------------7-----------------------|
C-----2---2---2-------2---2---2---2---2-------2---2---2---2---2---|
Pm    .   .   .       .   .   .   .   .       .   .   .   .   .

==================================================================

Guitar 1
D-----------------------------------------------------------------|
A-----------------------------------------------------------------|
F-----------------------------------------------------------------|
C-----------------19--14--------------------------15--------------|
G-0---15--19--0-----------15--0---0---14--17--0-------17--14--0---|
C-----------------------------------------------------------------|

==================================================================

Guitar 1
D-----------------------------------------------------------------|
A-----------------------------------------------------------------|
F-----------------------------------------------------------------|
C-----------------------------------------------------------------|
G-0---15--19--0---19--19--15--0---0---14--19--0---19--19--14--0---|
C-----------------------------------------------------------------|

==================================================================

Guitar 1
D-----------------------------------------------------------------|
A-----------------------------------------------------------------|
F-----------------------------------------------------------------|
C-----------------------------------------------------------------|
G-7-----------------------7---------------7-----------------------|
C-----2---2---2---2---2-------2---2---2-------2---2---2---2---2---|
Pm    .   .   .   .   .       .   .   .       .   .   .   .   .

==================================================================

Guitar 1
D-----------------------------------------------------------------|
A-----------------------------------------------------------------|
F-----------------------------------------------------------------|
C-----------------------------------------------------------------|
G-7---------------7-----------------------7-----------------------|
C-----2---2---2-------2---2---2---2---2-------2---2---2---2---2---|
Pm    .   .   .       .   .   .   .   .       .   .   .   .   .

==================================================================

Guitar 1
D-----------------------------------------------------------------|
A-----------------------------------------------------------------|
F-----------------------------------------------------------------|
C-----------------19--14--------------------------15--------------|
G-0---15--19--0-----------15--0---0---14--17--0-------17--14--0---|
C-----------------------------------------------------------------|

==================================================================

Guitar 1
D-----------------------------------------------------------------|
A-----------------------------------------------------------------|
F-----------------------------------------------------------------|
C-----------------------------------------------------------------|
G-0---15--19--0---19--19--15--0---0---14--19--0---19--19--14--0---|
C-----------------------------------------------------------------|

==================================================================

Guitar 1
D-----------------------------------------------------------------|
A-----------------------------------------------------------------|
F-----------------------------------------------------------------|
C-----------------------------------------------------------------|
G-7-----------------------7---------------7-----------------------|
C-----2---2---2---2---2-------2---2---2-------2---2---2---2---2---|
Pm    .   .   .   .   .       .   .   .       .   .   .   .   .

==================================================================

Guitar 1
D-----------------------------------------------------------------|
A-----------------------------------------------------------------|
F-----------------------------------------------------------------|
C-----------------------------------------------------------------|
G-7---------------7-----------------------7-----------------------|
C-----2---2---2-------2---2---2---2---2-------2---2---2---2---2---|
Pm    .   .   .       .   .   .   .   .       .   .   .   .   .

==================================================================

Guitar 1 (x2)
D-----------------------------------------------------------------|
A-----------------------------------------------------------------|
F-----------------------------------------------------------------|
C-----------------19--14--------------------------15--------------|
G-0---15--19--0-----------15--0---0---14--17--0-------17--14--0---|
C-----------------------------------------------------------------|

==================================================================

Guitar 1 continued
D-----------------------------------------------------------------|
A-----------------------------------------------------------------|
F-----------------------------------------------------------------|
C-----------------------------------------------------------------|
G-0---15--19--0---19--19--15--0---0---14--19--0---19--19--14--0---|
C-----------------------------------------------------------------|

==================================================================
==================================================================


Pre Chorus 2

(x2)

Guitar 1
D-----------------------------------------------------------------|
A-----------------------------------------------------------------|
F-----------------------------------------------------------------|
C-3---3---3---3---3---3---3---5---5---5---5---5---5---5---5---5---|
G-3---3---3---3---3---3---3---5---5---5---5---5---5---5---5---5---|
C-3---3---3---3---3---3---3---5---5---5---5---5---5---5---5---5---|

==================================================================

Guitar 1
D-----------------------------------------------------------------|
A-----------------------------------------------------------------|
F-----------------------------------------------------------------|
C-6---6---6---6---6---6---6---7---7---7---7---7---9---9---10--10--|
G-6---6---6---6---6---6---6---7---7---7---7---7---9---9---10--10--|
C-6---6---6---6---6---6---6---7---7---7---7---7---9---9---10--10--|

==================================================================

Guitar 1
D-----------------------------------------------------------------|
A-----------------------------------------------------------------|
F-----------------------------------------------------------------|
C-3---3---3---3---3---3---3---5---5---5---5---5---10--10--9---9---|
G-3---3---3---3---3---3---3---5---5---5---5---5---10--10--9---9---|
C-3---3---3---3---3---3---3---5---5---5---5---5---10--10--9---9---|

==================================================================

Guitar 1
D-----------------------------------------------------------------|
A-----------------------------------------------------------------|
F-----------------------------------------------------------------|
C-7---7---7---7---7---7---5---7---7---7---7---7---5---5---5---5---|
G-7---7---7---7---7---7---5---7---7---7---7---7---5---5---5---5---|
C-7---7---7---7---7---7---5---7---7---7---7---7---5---5---5---5---|

==================================================================
==================================================================


Chorus 1

(x4)

Guitar 1
D-----------------------------------------------------------------|
A-----------------------------------------------------------------|
F-----------------------------------------------------------------|
C-7---7---7---7---7-7-7-7-7---7---7-----------------------7-7-7-7-|
G-7---7---7---7---7-7-7-7-7---7---7-----------------------7-7-7-7-|
C-7---7---7---7---7-7-7-7-7---7---7-----------------------7-7-7-7-|
Pm.   .   .   .   . . . . .   .   .                       . . . .

==================================================================

Guitar 1
D-----------------------------------------------------------------|
A-----------------------------------------------------------------|
F-----------------------------------------------------------------|
C-7---7---7---7---7---7---7---7---7-------------------------------|
G-7---7---7---7---7---7---7---7---7-------------------------------|
C-7---7---7---7---7---7---7---7---7-------------------------------|
Pm.   .   .   .   .   .   .   .   .

==================================================================
==================================================================


Chorus 2

(x2)

Guitar 1
D-----------------------------------------------------------------|
A-----------------------------------------------------------------|
F-17--14------17--14------------------14------14--17------14--17--|
C-----------------------------------------------------------------|
G---------0-----------0---0---0---0-------0-----------0-----------|
C-----------------------------------------------------------------|

==================================================================

Guitar 1
D-----------------------------------------------------------------|
A-----------------------------------------------------------------|
F-16--14------16--14------------------14------14--16------14--16--|
C-----------------------------------------------------------------|
G---------0-----------0---0---0---0-------0-----------0-----------|
C-----------------------------------------------------------------|

==================================================================

Guitar 1
D-----------------------------------------------------------------|
A-17--15------15--13------------------15------15--17--------------|
F-----------------------------------------------------------------|
C-----------------------------------------------------------------|
G---------0-----------0---0---0---0-------0-----------0---0---0---|
C-----------------------------------------------------------------|

==================================================================

Guitar 1
D-----------------------------------------------------------------|
A-17--15------15--13----------------------------------------------|
F-------------------------------------14------14--16------14--16--|
C-----------------------------------------------------------------|
G---------0-----------0---0---0---0-------0-----------0-----------|
C-----------------------------------------------------------------|

==================================================================
==================================================================


Interlude 1

Guitar 1
D-----------------------------------------------------------------|
A-----------------------------------------------------------------|
F-----------------------------------------------------------------|
C-2~~~~~~~~~~~~~~~~~~~~~~~~~~~~~~~~~~~~~~~~~~~~~~~~~~~~~~~~~~~~~~-
G-2~~~~~~~~~~~~~~~~~~~~~~~~~~~~~~~~~~~~~~~~~~~~~~~~~~~~~~~~~~~~~~-
C-2~~~~~~~~~~~~~~~~~~~~~~~~~~~~~~~~~~~~~~~~~~~~~~~~~~~~~~~~~~~~~~-

==================================================================

Guitar 1
D-----------------------------------------------------------------|
A-----------------------------------------------------------------|
F-----------------------------------------------------------------|
C-0~~~~~~~~~~~~~~~~~~~~~~~~~~~~~~~~~~~~~~~~~~~~~~~~~~~~~~~~~~~~~~-
G-0~~~~~~~~~~~~~~~~~~~~~~~~~~~~~~~~~~~~~~~~~~~~~~~~~~~~~~~~~~~~~~-
C-0~~~~~~~~~~~~~~~~~~~~~~~~~~~~~~~~~~~~~~~~~~~~~~~~~~~~~~~~~~~~~~-

==================================================================

Guitar 1
D-----------------------------------------------------------------|
A-----------------------------------------------------------------|
F-5~~~~~~~~~~~~~~~~~~~~~~~~~~~~~~~~~~~~~~~~~~~~~~~~~~~~~~-5---5---|
C-5~~~~~~~~~~~~~~~~~~~~~~~~~~~~~~~~~~~~~~~~~~~~~~~~~~~~~~-5---5---|
G-3~~~~~~~~~~~~~~~~~~~~~~~~~~~~~~~~~~~~~~~~~~~~~~~~~~~~~~-3---3---|
C-----------------------------------------------------------------|
Pm                                                        .   .

==================================================================

Guitar 1
D-----------------------------------------------------------------|
A-----------------------------------------------------------------|
F-7---7-7-7---7---7---7---7---7---7---7---7---7---7---7---7---7---|
C-7---7-7-7---7---7---7---7---7---7---7---7---7---7---7---7---7---|
G-5---5-5-5---5---5---5---5---5---5---5---5---5---5---5---5---5---|
C-----------------------------------------------------------------|
Pm        .   .   .   .   .   .

==================================================================

Guitar 1
D-----------------------------------------------------------------|
A-----------------------------------------------------------------|
F-----------------------------------------------------------------|
C-2~~~~~~~~~~~~~~~~~~~~~~~~~~~~~~~~~~~~~~~~~~~~~~~~~~~~~~~~~~~~~~-
G-2~~~~~~~~~~~~~~~~~~~~~~~~~~~~~~~~~~~~~~~~~~~~~~~~~~~~~~~~~~~~~~-
C-2~~~~~~~~~~~~~~~~~~~~~~~~~~~~~~~~~~~~~~~~~~~~~~~~~~~~~~~~~~~~~~-

==================================================================

Guitar 1
D-----------------------------------------------------------------|
A-----------------------------------------------------------------|
F-----------------------------------------------------------------|
C-0~~~~~~~~~~~~~~~~~~~~~~~~~~~~~~~~~~~~~~~~~~~~~~~~~~~~~~~~~~~~~~-
G-0~~~~~~~~~~~~~~~~~~~~~~~~~~~~~~~~~~~~~~~~~~~~~~~~~~~~~~~~~~~~~~-
C-0~~~~~~~~~~~~~~~~~~~~~~~~~~~~~~~~~~~~~~~~~~~~~~~~~~~~~~~~~~~~~~-

==================================================================

Guitar 1
D-----------------------------------------------------------------|
A-----------------------------------------------------------------|
F-5~~~~~~~~~~~~~~~~~~~~~~~~~~~~~~~~~~~~~~~~~~~~~~~~~~~~~~~~~~~~~~-
C-5~~~~~~~~~~~~~~~~~~~~~~~~~~~~~~~~~~~~~~~~~~~~~~~~~~~~~~~~~~~~~~-
G-3~~~~~~~~~~~~~~~~~~~~~~~~~~~~~~~~~~~~~~~~~~~~~~~~~~~~~~~~~~~~~~-
C-----------------------------------------------------------------

==================================================================

Guitar 1
D-----------------------------------------------------------------|
A-----------------------------------------------------------------|
F-7~~~~~~~~~~~~~~~~~~~~~~~~~~~~~~~~~~~~~~~~~~~~~~~~~~~~~~~~~~~~~~-
C-7~~~~~~~~~~~~~~~~~~~~~~~~~~~~~~~~~~~~~~~~~~~~~~~~~~~~~~~~~~~~~~-
G-5~~~~~~~~~~~~~~~~~~~~~~~~~~~~~~~~~~~~~~~~~~~~~~~~~~~~~~~~~~~~~~-
C-----------------------------------------------------------------

==================================================================
==================================================================


Interlude 2

Guitar 1
D-----------------------------------------------------------------|
A-----------------------------------------------------------------|
F-----------------------------------------------------------------|
C-2---2---2---2---2---2---2---2---2---2---2---2---2---2---2---2---|
G-2---2---2---2---2---2---2---2---2---2---2---2---2---2---2---2---|
C-2---2---2---2---2---2---2---2---2---2---2---2---2---2---2---2---|

==================================================================

Guitar 1
D-----------------------------------------------------------------|
A-----------------------------------------------------------------|
F-----------------------------------------------------------------|
C-0---0---0---0---0---0---0---0---0---0---0---0---0---0---0---0---|
G-0---0---0---0---0---0---0---0---0---0---0---0---0---0---0---0---|
C-0---0---0---0---0---0---0---0---0---0---0---0---0---0---0---0---|

==================================================================

Guitar 1
D-----------------------------------------------------------------|
A-----------------------------------------------------------------|
F-5---5---5---5---5---5---5---5---5---5---5---5---5---5---5---5---|
C-5---5---5---5---5---5---5---5---5---5---5---5---5---5---5---5---|
G-3---3---3---3---3---3---3---3---3---3---3---3---3---3---3---3---|
C-----------------------------------------------------------------|

==================================================================

Guitar 1
D-----------------------------------------------------------------|
A-----------------------------------------------------------------|
F-7---7---7---7---7---7---7---7---7---7---7---7---7---7---7---7---|
C-7---7---7---7---7---7---7---7---7---7---7---7---7---7---7---7---|
G-5---5---5---5---5---5---5---5---5---5---5---5---5---5---5---5---|
C-----------------------------------------------------------------|

==================================================================

Guitar 1
D-----------------------------------------------------------------|
A-----------------------------------------------------------------|
F-----------------------------------------------------------------|
C-2---2---2---2---2---2---2---2---2---2---2---2---2---2---2---2---|
G-2---2---2---2---2---2---2---2---2---2---2---2---2---2---2---2---|
C-2---2---2---2---2---2---2---2---2---2---2---2---2---2---2---2---|

==================================================================

Guitar 1
D-----------------------------------------------------------------|
A-----------------------------------------------------------------|
F-----------------------------------------------------------------|
C-0---0---0---0---0---0---0---0---0---0---0---0---0---0---0---0---|
G-0---0---0---0---0---0---0---0---0---0---0---0---0---0---0---0---|
C-0---0---0---0---0---0---0---0---0---0---0---0---0---0---0---0---|

==================================================================

Guitar 1
D-----------------------------------------------------------------|
A-----------------------------------------------------------------|
F-5---5---5---5---5---5---5---5---5---5---5---5---5---5---5---5---|
C-5---5---5---5---5---5---5---5---5---5---5---5---5---5---5---5---|
G-3---3---3---3---3---3---3---3---3---3---3---3---3---3---3---3---|
C-----------------------------------------------------------------|

==================================================================

Guitar 1
D-----------------------------------------------------------------|
A-----------------------------------------------------------------|
F-7---7---7---7---7---7---7---7---7---7---7---7---7---7---7---7---|
C-7---7---7---7---7---7---7---7---7---7---7---7---7---7---7---7---|
G-5---5---5---5---5---5---5---5---5---5---5---5---5---5---5---5---|
C-----------------------------------------------------------------|
Pm    .   .   .   .   .   .   .

==================================================================
==================================================================


Outro

Guitar 1 (x3)
D-----------------------------------------------------------------|
A-----------------------------------------------------------------|
F-----------------------------------------------------------------|
C-2---2---2---2---2-2-2-2-2---2---2-----------------------2-2-2-2-|
G-2---2---2---2---2-2-2-2-2---2---2-----------------------2-2-2-2-|
C-2---2---2---2---2-2-2-2-2---2---2-----------------------2-2-2-2-|
Pm.   .   .   .   . . . . .   .   .                       . . . .

==================================================================

Guitar 1 continued
D-----------------------------------------------------------------|
A-----------------------------------------------------------------|
F-----------------------------------------------------------------|
C-2---2---2---2---2---2---2---2---2-------------------------------|
G-2---2---2---2---2---2---2---2---2-------------------------------|
C-2---2---2---2---2---2---2---2---2-------------------------------|
Pm.   .   .   .   .   .   .   .   .

==================================================================

Guitar 1
D-----------------------------------------------------------------|
A-----------------------------------------------------------------|
F-----------------------------------------------------------------|
C-2---2---2---2---2---2---2---2---2-----------------------2---2---|
G-2---2---2---2---2---2---2---2---2-----------------------2---2---|
C-2---2---2---2---2---2---2---2---2-----------------------2---2---|
Pm.   .   .   .   .   .   .   .   .                       .   .

==================================================================

Guitar 1
D-----------------------------------------------------------------|
A-----------------------------------------------------------------|
F-----------------------------------------------------------------|
C-2---2---2---2---2---2---2---2---2-------------------------------|
G-2---2---2---2---2---2---2---2---2-------------------------------|
C-2---2---2---2---2---2---2---2---2-------------------------------|
Pm.   .   .   .   .   .   .   .   .

==================================================================
==================================================================
==================================================================


==================================================================
Guitar 2
==================================================================


Intro

(x2)

Guitar 2
D---------7~~~~~~~~~~-7~~~~~~~~~~-7~~~~~~~~~~-7~~~~~~~~~~~~~~-7~~-|
A-----------------------------------------------------------------|
F-----9~~~~~~~~~~-9~~~~~~~~~~-9~~~~~~~~~~-9~~~~~~~~~~-7~~-9~~~~~~-|
C-9~~~~~~~~~~-9~~~~~~~~~~-9~~~~~~~~~~-9~~~~~~~~~~-9~~~~~~~~~~~~~~-|
G-----------------------------------------------------------------|
C-----------------------------------------------------------------|

==================================================================

Guitar 2
D-----------------------------------------------------------------|
A---------10~~~~~~~~~-8~~~~~~~~~~-7~~~~~~~~~~-8~~~~~~-------------|
F-----7~~~~~~~~~~-7~~~~~~~~~~-7~~~~~~~~~~-7~~~~~~~~~~-7~~~~~~~~~~-|
C-7~~~~~~~~~~-7~~~~~~~~~~-7~~~~~~~~~~-7~~~~~~~~~~-7~~~~~~-7~~-9~~-|
G-----------------------------------------------------------------|
C-----------------------------------------------------------------|

==================================================================

Guitar 2
D---------7~~~~~~~~~~-7~~~~~~~~~~-7~~~~~~~~~~-7~~~~~~~~~~~~~~-7~~-|
A-----------------------------------------------------------------|
F-----9~~~~~~~~~~-9~~~~~~~~~~-9~~~~~~~~~~-9~~~~~~~~~~-7~~-9~~~~~~-|
C-10~~~~~~~~~-10~~~~~~~~~-10~~~~~~~~~-10~~~~~~~~~-10~~~~~~~~~~~~~-|
G-----------------------------------------------------------------|
C-----------------------------------------------------------------|

==================================================================

Guitar 2
D---------------------------------10~~~~~~~~~-10~~~~~~~~~-10~~~~~-|
A---------10~~~~~~~~~-10~~~~~~~~~~~~~-10~~~~~~~~~-10~~~~~~~~~-10~-|
F-----11~~~~~~~~~-11~~~~~~~~~-11~~~~~~~~~-11~~~~~~~~~-11~~~~~~~~~-|
C-12~~~~~~~~~-12~~~~~~~~~-12~~~~~~~~~~~~~~~~~~~~~~~~~~~~~~~~~~~~~-|
G-----------------------------------------------------------------|
C-----------------------------------------------------------------|

==================================================================
==================================================================

Break Off

==================================================================
Rest
==================================================================


==================================================================
==================================================================


Verse 1

Guitar 2 (x4)
D-----------------------------------------------------------------|
A-----------------------------------------------------------------|
F-----------------------------------------------------------------|
C-----------------------------------------------------------------|
G-7-----------------------7---------------7-----------------------|
C-----2---2---2---2---2-------2---2---2-------2---2---2---2---2---|
Pm    .   .   .   .   .       .   .   .       .   .   .   .   .

==================================================================

Guitar 2 continued
D-----------------------------------------------------------------|
A-----------------------------------------------------------------|
F-----------------------------------------------------------------|
C-----------------------------------------------------------------|
G-7---------------7-----------------------7-----------------------|
C-----2---2---2-------2---2---2---2---2-------2---2---2---2---2---|
Pm    .   .   .       .   .   .   .   .       .   .   .   .   .

==================================================================

Guitar 2
D-----------------------------------------------------------------|
A-----------------------------------------------------------------|
F-----------------------------------------------------------------|
C-----------------19--14--------------------------15--------------|
G-0---15--19--0-----------15--0---0---14--17--0-------17--14--0---|
C-----------------------------------------------------------------|

==================================================================

Guitar 2
D-----------------------------------------------------------------|
A-----------------------------------------------------------------|
F-----------------------------------------------------------------|
C-----------------------------------------------------------------|
G-0---15--19--0---19--19--15--0---0---14--19--0---19--19--14--0---|
C-----------------------------------------------------------------|

==================================================================

Guitar 2
D-----------------------------------------------------------------|
A-----------------------------------------------------------------|
F-----------------------------------------------------------------|
C-----------------------------------------------------------------|
G-7-----------------------7---------------7-----------------------|
C-----2---2---2---2---2-------2---2---2-------2---2---2---2---2---|
Pm    .   .   .   .   .       .   .   .       .   .   .   .   .

==================================================================

Guitar 2
D-----------------------------------------------------------------|
A-----------------------------------------------------------------|
F-----------------------------------------------------------------|
C-----------------------------------------------------------------|
G-7---------------7-----------------------7-----------------------|
C-----2---2---2-------2---2---2---2---2-------2---2---2---2---2---|
Pm    .   .   .       .   .   .   .   .       .   .   .   .   .

==================================================================

Guitar 2
D-----------------------------------------------------------------|
A-----------------------------------------------------------------|
F-----------------------------------------------------------------|
C-----------------19--14--------------------------15--------------|
G-0---15--19--0-----------15--0---0---14--17--0-------17--14--0---|
C-----------------------------------------------------------------|

==================================================================

Guitar 2
D-----------------------------------------------------------------|
A-----------------------------------------------------------------|
F-----------------------------------------------------------------|
C-----------------------------------------------------------------|
G-0---15--19--0---19--19--15--0---0---14--19--0---19--19--14--0---|
C-----------------------------------------------------------------|

==================================================================

Guitar 2
D-----------------------------------------------------------------|
A-----------------------------------------------------------------|
F-----------------------------------------------------------------|
C-----------------------------------------------------------------|
G-7-----------------------7---------------7-----------------------|
C-----2---2---2---2---2-------2---2---2-------2---2---2---2---2---|
Pm    .   .   .   .   .       .   .   .       .   .   .   .   .

==================================================================

Guitar 2
D-----------------------------------------------------------------|
A-----------------------------------------------------------------|
F-----------------------------------------------------------------|
C-----------------------------------------------------------------|
G-7---------------7-----------------------7-----------------------|
C-----2---2---2-------2---2---2---2---2-------2---2---2---2---2---|
Pm    .   .   .       .   .   .   .   .       .   .   .   .   .

==================================================================

Guitar 2 (x2)
D-----------------------------------------------------------------|
A-----------------------------------------------------------------|
F-----------------------------------------------------------------|
C-----------------19--14--------------------------15--------------|
G-0---15--19--0-----------15--0---0---14--17--0-------17--14--0---|
C-----------------------------------------------------------------|

==================================================================

Guitar 2 continued
D-----------------------------------------------------------------|
A-----------------------------------------------------------------|
F-----------------------------------------------------------------|
C-----------------------------------------------------------------|
G-0---15--19--0---19--19--15--0---0---14--19--0---19--19--14--0---|
C-----------------------------------------------------------------|

==================================================================
==================================================================


Pre Chorus 1

Guitar 2
D-----------------------------------------------------------------|
A-----------------------------------------------------------------|
F-5---5---5---5---5---5---5---4---4---4---4---4---4---4---4---4---|
C-x---x---x---x---x---x---x---x---x---x---x---x---x---x---x---x---|
G-3---3---3---3---3---3---3---2---2---2---2---2---2---2---2---2---|
C-----------------------------------------------------------------|

==================================================================

Guitar 2
D-----------------------------------------------------------------|
A-----------------------------------------------------------------|
F-9---9---9---9---9---9---10--9---9---9---9---9---9---9---9---9---|
C-x---x---x---x---x---x---x---x---x---x---x---x---x---x---x---x---|
G-7---7---7---7---7---7---8---7---7---7---7---7---5---5---7---7---|
C-----------------------------------------------------------------|

==================================================================

Guitar 2
D-----------------------------------------------------------------|
A-----------------------------------------------------------------|
F-10--10--10--10--10--10--10--7---7---7---7---7---5---5---4---4---|
C-x---x---x---x---x---x---x---x---x---x---x---x---x---x---x---x---|
G-8---8---8---8---8---8---8---5---5---5---5---5---3---3---2---2---|
C-----------------------------------------------------------------|

==================================================================

Guitar 2
D-----------------------------------------------------------------|
A-----------------------------------------------------------------|
F-5---5---5---5---5---5---4---5---5---5---5---5---4---4---4---4---|
C-x---x---x---x---x---x---x---x---x---x---x---x---x---x---x---x---|
G-3---3---3---3---3---3---2---3---3---3---3---3---2---2---2---2---|
C-----------------------------------------------------------------|

==================================================================
==================================================================


Chorus 1

Guitar 2
D-----------------------------------------------------------------|
A-----------------------------------------------------------------|
F-----------------------------------------------------------------|
C-----------------------------------------------------------------|
G-15--12--0---15--12--0---0---0---0---12--0---12--15--0---12--15--|
C-----------------------------------------------------------------|

==================================================================

Guitar 2
D-----------------------------------------------------------------|
A-----------------------------------------------------------------|
F-----------------------------------------------------------------|
C-----------------------------------------------------------------|
G-14--12--0---14--12--0---0---0---0---12--0---12--14--0---12--14--|
C-----------------------------------------------------------------|

==================================================================

Guitar 2
D-----------------------------------------------------------------|
A-----------------------------------------------------------------|
F-----------------------------------------------------------------|
C-12--14------12--10------------------12------12--14--------------|
G---------0-----------0---0---0---0-------0-----------0---0---0---|
C-----------------------------------------------------------------|

==================================================================

Guitar 2
D-----------------------------------------------------------------|
A-----------------------------------------------------------------|
F-----------------------------------------------------------------|
C-12--14------12--10----------------------------------------------|
G---------0-----------0---0---0---0---12--0---12--14--0---12--14--|
C-----------------------------------------------------------------|

==================================================================

Guitar 2
D-----------------------------------------------------------------|
A-----------------------------------------------------------------|
F-----------------------------------------------------------------|
C-----------------------------------------------------------------|
G-15--12--0---15--12--0---0---0---0---12--0---12--15--0---12--15--|
C-----------------------------------------------------------------|

==================================================================

Guitar 2
D-----------------------------------------------------------------|
A-----------------------------------------------------------------|
F-----------------------------------------------------------------|
C-----------------------------------------------------------------|
G-14--12--0---14--12--0---0---0---0---12--0---12--14--0---12--14--|
C-----------------------------------------------------------------|

==================================================================

Guitar 2
D-----------------------------------------------------------------|
A-----------------------------------------------------------------|
F-----------------------------------------------------------------|
C-12--14------12--10------------------12------12--14--------------|
G---------0-----------0---0---0---0-------0-----------0---0---0---|
C-----------------------------------------------------------------|

==================================================================

Guitar 2
D-----------------------------------------------------------------|
A-----------------------------------------------------------------|
F-----------------------------------------------------------------|
C-12--14------12--10--------------0/~~~~~~~~~~~~~~~~~~~~~~~~~~~~~-|
G---------0-----------0---0---0-----------------------------------|
C-----------------------------------------------------------------|

==================================================================
==================================================================


Guitar Solo

Guitar 2
D-----------------------------------------------------------------|
A-------------------------15*b~r~~~~~~~~~-------------------------|
F--------------------------------------------------13-14-13----13-|
C-14~~~~~~~~~~~~~~~~~~~~~-----------------15-14-15----------15----|
G-----------------------------------------------------------------|
C-----------------------------------------------------------------|

==================================================================

Guitar 2
D----------------------------------------------12-|
A----------12-13-12----12-13-12-13-15-12-13-15----|
F-14-13-14----------14----------------------------|
C-------------------------------------------------|
G-------------------------------------------------|
C-------------------------------------------------|

Guitar 2 continued
D-13-12-10-12-10----------------------------------|
A----------------13-10-12-12b~~~~~~~~~-12b~~r~~~~-|
F-------------------------------------------------|
C-------------------------------------------------|
G-------------------------------------------------|
C-------------------------------------------------|

==================================================================
==================================================================


Verse 2

Guitar 2
D-15*~~~~~~~~~~~~~~~~~~~~~~~~~~~~~~~~~~~~~~~~~~~~~~~~~~~~~~~~~~~~-
A-----------------------------------------------------------------|
F-----------------------------------------------------------------|
C-----------------------------------------------------------------|
G-----------------------------------------------------------------|
C-----------------------------------------------------------------|

==================================================================

Guitar 2
D-----------------------------------------------------------------|
A-----------------------------------------------------------------|
F-----------------------------------------------------------------|
C-----------------------------------------------------------------|
G-7-----------------------7---------------7-----------------------|
C-----2---2---2---2---2-------2---2---2-------2---2---2---2---2---|
Pm    .   .   .   .   .       .   .   .       .   .   .   .   .

==================================================================

Guitar 2
D-----------------------------------------------------------------|
A-----------------------------------------------------------------|
F-----------------------------------------------------------------|
C-----------------------------------------------------------------|
G-7---------------7-----------------------7-----------------------|
C-----2---2---2-------2---2---2---2---2-------2---2---2---2---2---|
Pm    .   .   .       .   .   .   .   .       .   .   .   .   .

==================================================================

Guitar 2
D-----------------------------------------------------------------|
A-----------------------------------------------------------------|
F-----------------------------------------------------------------|
C-----------------19--14--------------------------15--------------|
G-0---15--19--0-----------15--0---0---14--17--0-------17--14--0---|
C-----------------------------------------------------------------|

==================================================================

Guitar 2
D-----------------------------------------------------------------|
A-----------------------------------------------------------------|
F-----------------------------------------------------------------|
C-----------------------------------------------------------------|
G-0---15--19--0---19--19--15--0---0---14--19--0---19--19--14--0---|
C-----------------------------------------------------------------|

==================================================================

Guitar 2
D-----------------------------------------------------------------|
A-----------------------------------------------------------------|
F-----------------------------------------------------------------|
C-----------------------------------------------------------------|
G-7-----------------------7---------------7-----------------------|
C-----2---2---2---2---2-------2---2---2-------2---2---2---2---2---|
Pm    .   .   .   .   .       .   .   .       .   .   .   .   .

==================================================================

Guitar 2
D-----------------------------------------------------------------|
A-----------------------------------------------------------------|
F-----------------------------------------------------------------|
C-----------------------------------------------------------------|
G-7---------------7-----------------------7-----------------------|
C-----2---2---2-------2---2---2---2---2-------2---2---2---2---2---|
Pm    .   .   .       .   .   .   .   .       .   .   .   .   .

==================================================================

Guitar 2
D-----------------------------------------------------------------|
A-----------------------------------------------------------------|
F-----------------------------------------------------------------|
C-----------------19--14--------------------------15--------------|
G-0---15--19--0-----------15--0---0---14--17--0-------17--14--0---|
C-----------------------------------------------------------------|

==================================================================

Guitar 2
D-----------------------------------------------------------------|
A-----------------------------------------------------------------|
F-----------------------------------------------------------------|
C-----------------------------------------------------------------|
G-0---15--19--0---19--19--15--0---0---14--19--0---19--19--14--0---|
C-----------------------------------------------------------------|

==================================================================

Guitar 2
D-----------------------------------------------------------------|
A-----------------------------------------------------------------|
F-----------------------------------------------------------------|
C-----------------------------------------------------------------|
G-7-----------------------7---------------7-----------------------|
C-----2---2---2---2---2-------2---2---2-------2---2---2---2---2---|
Pm    .   .   .   .   .       .   .   .       .   .   .   .   .

==================================================================

Guitar 2
D-----------------------------------------------------------------|
A-----------------------------------------------------------------|
F-----------------------------------------------------------------|
C-----------------------------------------------------------------|
G-7---------------7-----------------------7-----------------------|
C-----2---2---2-------2---2---2---2---2-------2---2---2---2---2---|
Pm    .   .   .       .   .   .   .   .       .   .   .   .   .

==================================================================

Guitar 2 (x2)
D-----------------------------------------------------------------|
A-----------------------------------------------------------------|
F-----------------------------------------------------------------|
C-----------------19--14--------------------------15--------------|
G-0---15--19--0-----------15--0---0---14--17--0-------17--14--0---|
C-----------------------------------------------------------------|

==================================================================

Guitar 2 continued
D-----------------------------------------------------------------|
A-----------------------------------------------------------------|
F-----------------------------------------------------------------|
C-----------------------------------------------------------------|
G-0---15--19--0---19--19--15--0---0---14--19--0---19--19--14--0---|
C-----------------------------------------------------------------|

==================================================================
==================================================================


Pre Chorus 2

(x2)

Guitar 2
D-----------------------------------------------------------------|
A-----------------------------------------------------------------|
F-5---5---5---5---5---5---5---4---4---4---4---4---4---4---4---4---|
C-x---x---x---x---x---x---x---x---x---x---x---x---x---x---x---x---|
G-3---3---3---3---3---3---3---2---2---2---2---2---2---2---2---2---|
C-----------------------------------------------------------------|

==================================================================

Guitar 2
D-----------------------------------------------------------------|
A-----------------------------------------------------------------|
F-9---9---9---9---9---9---10--9---9---9---9---9---9---9---9---9---|
C-x---x---x---x---x---x---x---x---x---x---x---x---x---x---x---x---|
G-7---7---7---7---7---7---8---7---7---7---7---7---5---5---7---7---|
C-----------------------------------------------------------------|

==================================================================

Guitar 2
D-----------------------------------------------------------------|
A-----------------------------------------------------------------|
F-10--10--10--10--10--10--10--7---7---7---7---7---5---5---4---4---|
C-x---x---x---x---x---x---x---x---x---x---x---x---x---x---x---x---|
G-8---8---8---8---8---8---8---5---5---5---5---5---3---3---2---2---|
C-----------------------------------------------------------------|

==================================================================

Guitar 2
D-----------------------------------------------------------------|
A-----------------------------------------------------------------|
F-5---5---5---5---5---5---4---5---5---5---5---5---4---4---4---4---|
C-x---x---x---x---x---x---x---x---x---x---x---x---x---x---x---x---|
G-3---3---3---3---3---3---2---3---3---3---3---3---2---2---2---2---|
C-----------------------------------------------------------------|

==================================================================
==================================================================


Chorus 1

Guitar 2
D-----------------------------------------------------------------|
A-----------------------------------------------------------------|
F-----------------------------------------------------------------|
C-----------------------------------------------------------------|
G-15--12--0---15--12--0---0---0---0---12--0---12--15--0---12--15--|
C-----------------------------------------------------------------|

==================================================================

Guitar 2
D-----------------------------------------------------------------|
A-----------------------------------------------------------------|
F-----------------------------------------------------------------|
C-----------------------------------------------------------------|
G-14--12--0---14--12--0---0---0---0---12--0---12--14--0---12--14--|
C-----------------------------------------------------------------|

==================================================================

Guitar 2
D-----------------------------------------------------------------|
A-----------------------------------------------------------------|
F-----------------------------------------------------------------|
C-12--14------12--10------------------12------12--14--------------|
G---------0-----------0---0---0---0-------0-----------0---0---0---|
C-----------------------------------------------------------------|

==================================================================

Guitar 2
D-----------------------------------------------------------------|
A-----------------------------------------------------------------|
F-----------------------------------------------------------------|
C-12--14------12--10----------------------------------------------|
G---------0-----------0---0---0---0---12--0---12--14--0---12--14--|
C-----------------------------------------------------------------|

==================================================================

Guitar 2
D-----------------------------------------------------------------|
A-----------------------------------------------------------------|
F-----------------------------------------------------------------|
C-----------------------------------------------------------------|
G-15--12--0---15--12--0---0---0---0---12--0---12--15--0---12--15--|
C-----------------------------------------------------------------|

==================================================================

Guitar 2
D-----------------------------------------------------------------|
A-----------------------------------------------------------------|
F-----------------------------------------------------------------|
C-----------------------------------------------------------------|
G-14--12--0---14--12--0---0---0---0---12--0---12--14--0---12--14--|
C-----------------------------------------------------------------|

==================================================================

Guitar 2
D-----------------------------------------------------------------|
A-----------------------------------------------------------------|
F-----------------------------------------------------------------|
C-12--14------12--10------------------12------12--14--------------|
G---------0-----------0---0---0---0-------0-----------0---0---0---|
C-----------------------------------------------------------------|

==================================================================

Guitar 2
D-----------------------------------------------------------------|
A-----------------------------------------------------------------|
F-----------------------------------------------------------------|
C-12--14------12--10--------------0/~~~~~~~~~~~~~~~~~~~~~~~~~~~~~-|
G---------0-----------0---0---0-----------------------------------|
C-----------------------------------------------------------------|

==================================================================
==================================================================


Chorus 2

Guitar 2 (x2)
D-----------------------------------------------------------------|
A-----------------------------------------------------------------|
F-----------------------------------------------------------------|
C-7---7---7---7---7-7-7-7-7---7---7~~~~~~~~~~~~~~~~~~~~~~-7-7-7-7-|
G-7---7---7---7---7-7-7-7-7---7---7~~~~~~~~~~~~~~~~~~~~~~-7-7-7-7-|
C-7---7---7---7---7-7-7-7-7---7---7~~~~~~~~~~~~~~~~~~~~~~-7-7-7-7-|
Pm.   .   .   .   . . . . .   .                           . . . .

==================================================================

Guitar 2 continued
D-----------------------------------------------------------------|
A-----------------------------------------------------------------|
F-----------------------------------------------------------------|
C-7---7---7---7---7---7---7---7---7~~~~~~~~~~~~~~~~~~~~~~~~~~~~~~-|
G-7---7---7---7---7---7---7---7---7~~~~~~~~~~~~~~~~~~~~~~~~~~~~~~-|
C-7---7---7---7---7---7---7---7---7~~~~~~~~~~~~~~~~~~~~~~~~~~~~~~-|
Pm.   .   .   .   .   .   .   .

==================================================================

Guitar 2
D-----------------------------------------------------------------|
A-----------------------------------------------------------------|
F-----------------------------------------------------------------|
C-7---7---7---7---7---7---7---7---7---7---7---7---7---7---7---7-7-|
G-7---7---7---7---7---7---7---7---7---7---7---7---7---7---7---7-7-|
C-7---7---7---7---7---7---7---7---7---7---7---7---7---7---7---7-7-|
Pm                                                            . .

==================================================================

Guitar 2
D-----------------------------------------------------------------|
A-----------------------------------------------------------------|
F-----------------------------------------------------------------|
C-7---7---7---7---7---7---7---7---7---7---7---7---7---7---7---7---|
G-7---7---7---7---7---7---7---7---7---7---7---7---7---7---7---7---|
C-7---7---7---7---7---7---7---7---7---7---7---7---7---7---7---7---|

==================================================================
==================================================================


Interlude 1

(x2)

Guitar 2
D---------7~~~~~~~~~~-7~~~~~~~~~~-7~~~~~~~~~~-7~~~~~~~~~~~~~~-7~~-|
A-----------------------------------------------------------------|
F-----9~~~~~~~~~~-9~~~~~~~~~~-9~~~~~~~~~~-9~~~~~~~~~~-7~~-9~~~~~~-|
C-9~~~~~~~~~~-9~~~~~~~~~~-9~~~~~~~~~~-9~~~~~~~~~~-9~~~~~~~~~~~~~~-|
G-----------------------------------------------------------------|
C-----------------------------------------------------------------|

==================================================================

Guitar 2
D-----------------------------------------------------------------|
A---------10~~~~~~~~~-8~~~~~~~~~~-7~~~~~~~~~~-8~~~~~~-------------|
F-----7~~~~~~~~~~-7~~~~~~~~~~-7~~~~~~~~~~-7~~~~~~~~~~-7~~~~~~~~~~-|
C-7~~~~~~~~~~-7~~~~~~~~~~-7~~~~~~~~~~-7~~~~~~~~~~-7~~~~~~-7~~-9~~-|
G-----------------------------------------------------------------|
C-----------------------------------------------------------------|

==================================================================

Guitar 2
D---------7~~~~~~~~~~-7~~~~~~~~~~-7~~~~~~~~~~-7~~~~~~~~~~~~~~-7~~-|
A-----------------------------------------------------------------|
F-----9~~~~~~~~~~-9~~~~~~~~~~-9~~~~~~~~~~-9~~~~~~~~~~-7~~-9~~~~~~-|
C-10~~~~~~~~~-10~~~~~~~~~-10~~~~~~~~~-10~~~~~~~~~-10~~~~~~~~~~~~~-|
G-----------------------------------------------------------------|
C-----------------------------------------------------------------|

==================================================================

Guitar 2
D---------------------------------10~~~~~~~~~-10~~~~~~~~~-10~~~~~-|
A---------10~~~~~~~~~-10~~~~~~~~~~~~~-10~~~~~~~~~-10~~~~~~~~~-10~-|
F-----11~~~~~~~~~-11~~~~~~~~~-11~~~~~~~~~-11~~~~~~~~~-11~~~~~~~~~-|
C-12~~~~~~~~~-12~~~~~~~~~-12~~~~~~~~~~~~~~~~~~~~~~~~~~~~~~~~~~~~~-|
G-----------------------------------------------------------------|
C-----------------------------------------------------------------|

==================================================================
==================================================================


Interlude 2

Guitar 2 (x3)
D-----------------------------------------------------------------|
A-----------------------------------------------------------------|
F-12-12-12-12-12-12-11-11-11-11-11-11-11-11-11-11-11-11-11-11-9-9-|
C-----------------------------------------------------------------|
G-----------------------------------------------------------------|
C-----------------------------------------------------------------|

==================================================================

Guitar 2
D-----------------------------------------------------------------|
A-----------------------------------------------------------------|
F-12-12-12-12-12-12-11-11-11-11-11-11-16-16-16-16-16-16-11-11-9-9-|
C-----------------------------------------------------------------|
G-----------------------------------------------------------------|
C-----------------------------------------------------------------|

==================================================================

Guitar 2
D-15-15-15-15-15-15-14-14-14-14-14-14-14-14-14-14-14-14-14-14-12-12-|
A-------------------------------------------------------------------|
F-------------------------------------------------------------------|
C-------------------------------------------------------------------|
G-------------------------------------------------------------------|
C-------------------------------------------------------------------|

==================================================================

Guitar 2
D-15-15-15-15-14-14-14-14-19-19-19-19-20-20-20-20-19-19-19-19-19-19-|
A-------------------------------------------------------------------|
F-------------------------------------------------------------------|
C-------------------------------------------------------------------|
G-------------------------------------------------------------------|
C-------------------------------------------------------------------|

==================================================================
==================================================================


Outro

Guitar 2 (x3)
D-----------------------------------------------------------------|
A-----------------------------------------------------------------|
F-----------------------------------------------------------------|
C-----------------------------------------------------------------|
G-7-----------------------7---------------7-----------------------|
C-----2---2---2---2---2-------2---2---2-------2---2---2---2---2---|
Pm    .   .   .   .   .       .   .   .       .   .   .   .   .

==================================================================

Guitar 2 continued
D-----------------------------------------------------------------|
A-----------------------------------------------------------------|
F-----------------------------------------------------------------|
C-----------------------------------------------------------------|
G-7---------------7-----------------------7-----------------------|
C-----2---2---2-------2---2---2---2---2-------2---2---2---2---2---|
Pm    .   .   .       .   .   .   .   .       .   .   .   .   .

==================================================================

Guitar 2
D-----------------------------------------------------------------|
A-----------------------------------------------------------------|
F-----------------------------------------------------------------|
C-2---2---2---2---2---2---2---2---2-----------------------2---2---|
G-2---2---2---2---2---2---2---2---2-----------------------2---2---|
C-2---2---2---2---2---2---2---2---2-----------------------2---2---|
Pm.   .   .   .   .   .   .   .   .                       .   .

==================================================================

Guitar 2
D-----------------------------------------------------------------|
A-----------------------------------------------------------------|
F-----------------------------------------------------------------|
C-2---2---2---2---2---2---2---2---2-------------------------------|
G-2---2---2---2---2---2---2---2---2-------------------------------|
C-2---2---2---2---2---2---2---2---2-------------------------------|
Pm.   .   .   .   .   .   .   .   .

==================================================================
==================================================================
==================================================================


Tab Legend
h  - hammer-on
p  - pull-off
/  - slide up
\  - slide down
ps/- pickslide up
ps\- pickslide down
~  - let ring
pm.- palm mute
b  - bend
r  - return from bend
t  - finger tapping
*  - harmonic
x  - dead note
^  - Whammy bar
^\ - Whammy bar (hold down)

That is all! I hope this helped, and be sure to check out my cover if you are
having problems with the tab. Thanks, oh and one last thing... ROCK OUT!!!!
comments
print report bad tab
3 comments total.
0 reply
xgispert wrote on October 2 2013, 12:45 pm

Great tab. I watched your video along with this tab. I hella wanna learn this song. I'm gonna give it a go. I just learned Within Destruction by AILD. These guys are my favorite band. ONce again, great tab. 5 stars.

0 reply
dkm817 wrote on October 3 2013, 01:06 am

Thank you! I think if you got Within Destruction down this shouldn't be a problem. Let me know if you need any help. :D

0 reply
xgispert wrote on October 3 2013, 10:35 am

As a matter of fact i do need some help. I cant get down the little fast riff. The part the goes
D-----------------------------------------------------------------|
A-----------------------------------------------------------------|
F-----------------------------------------------------------------|
C-----------------19--14--------------------------15--------------|
G-0---15--19--0-----------15--0---0---14--17--0-------17--14--0---|
C-----------------------------------------------------------------|

==================================================================

Guitar 1
D-----------------------------------------------------------------|
A-----------------------------------------------------------------|
F-----------------------------------------------------------------|
C-----------------------------------------------------------------|
G-0---15--19--0---19--19--15--0---0---14--19--0---19--19--14--0---|
C-----------------------------------------------------------------|

And then the main riff is pretty hard too. Where you have to go from 2 to 7. Maybe I need to just keep playing and eventually I'll get it down? I dunno. But yeah those parts are pretty hard.

I want to post or [tab]
guest
You may want to rate the tab now too:
select rating
Please do not post tabs as comments. Select "correction" instead!