Oops, an error
Loading. Please wait.

The Only Constant Is Change Tab

ver1
ver1

Intro

Whole song

Interactive

More versions @911Tabs.com
3,544 views 15 this week
no commentswrite comment
1 2 3 4 5
excellent!
x 1
Autoscroll
+/-
esc
set tempo
stop
Contributor
Difficulty
Tuning
intermediate
D G C F A D
Hey! There's an official Ultimate Guitar app which is ideal
for learning songs when you're away from computer. Get the app
WARNING: You are trying to view
                                    content from Ultimate-Guitar.com
                                    in an unauthorized application,
                                    which is prohibited.

                                    Please use an official Ultimate
                                    Guitar Tabs application for iPhone,
                                    iPad or Android to access legitimate
                                    chords, guitar, bass, and drum tabs
                                    from Ultimate-Guitar.com database.

                                    Type "ultimate guitar tabs" in Apple
                                    App Store's or Android Market's
                                    search to find the application.
Artist: As I Lay Dying
Song: The Only Constant Is Change
Album: The Powerless Rise

If you are at all confused by the tab, have a watch of my youtube cover before 
commenting to make sure your reading it correctly.

http://www.youtube.com/watch?v=v-ukwSSpxU8

ENJOY!!




Gtr I (D G C F A d)
Gtr II (D G C F A d)
Gtr III (D G C F A d)
Gtr IV   (D G C F A d) - 'Clean guitar'

Intro (fade in)

   |Gtr I
   | 
   ||-----------------------------|----------------------------|
   ||-----------------------------|----------------------------|
   ||-----------------------------|-9p5------------------------|
   ||-10p7----------7----------10-|-----7-10p7---7--------10-7-|
   ||------7-12p7-7---7-7-7-12----|------------7---7-7-7-------|
   ||-----------------------------|----------------------------|
Pm |      .      .   . . . .  .        .      .   . . .
   |
   |Gtr II
   |
   ||-----------------------------|----------------------------|
   ||-----------------------------|----------------------------|
   ||---2-2-2-2-2-2-2-2-2-4-4-4---|---5-5-5-5-5-5-5-5-5-5-5-5--|
   ||---2-2-2-2-2-2-2-2-2---------|----------------------------|
   ||---0-0-0-0-0-0-0-0-0-2-2-2---|---3-3-3-3-3-3-3-3-3-3-3-3--|
   ||-----------------------------|----------------------------|
Pm |



   | 
   |-----------------------------|----------------------------|
   |-----------------------------|----------------------------|
   |-----------------------------|-9p5------------------------|
   |-10p7----------7----------10-|-----7-10p7---7--------10-7-|
   |------8-12p8-8---8-8-8-12----|------------7---7-7-7-------|
   |-----------------------------|----------------------------|
Pm |      .      .   . . . .  .        .      .   . . .
   |                                                              Repeat x3
   |
   |
   |-----------------------------|----------------------------|
   |-----------------------------|----------------------------|
   |---------------------7-7-7---|---5-5-5-5-5-5-5-5-5-5-5-5--|
   |-----------------------------|----------------------------|
   |---3-3-3-3-3-3-3-3-3-5-5-5---|---3-3-3-3-3-3-3-3-3-3-3-3--|
   |---1-1-1-1-1-1-1-1-1---------|----------------------------|
Pm |


Bridge

   | 
   |-----------------------------|----------------------------|
   |-----------------------------|----------------------------|
   |-----------------------------|----------------------------|
   |-10p7----------7-----7-9-10--|-10p7----------7-----7-9-10-|
   |------7-12p7-7---7-7---------|------7-12p7-7---7-7--------|
   |-----------------------------|----------------------------|
Pm |      .      .   . . . . .          .      .   . . . . .
   |
   |
   |
   |-----------------------------|----------------------------|
   |-----------------------------|----------------------------|
   |-2---------------------------|----------------------------|
   |-2---------------------------|----------------------------|
   |-0---------------------------|----------------------------|
   |-----------------------------|----------------------------|
Pm |



   | 
   |-----------------------------|----------------------------|
   |-----------------------------|----------------------------|
   |-----------------------------|----------------------------|
   |-10p7----------7-----7-9-10--|-10p7----------7-----7-9-10-|
   |------7-12p7-7---7-7---------|------7-12p7-7---7-7--------|
   |-----------------------------|----------------------------|
Pm |      .      .   . . . . .          .      .   . . . . .
   |
   |
   |
   |-----------------------------|----------------------------|
   |-----------------------------|----------------------------|
   |-----------------------------|----------------------------|
   |-----------------------------|----------------------------|
   |-----------------------------|----------------------------|
   |-----------------------------|----------------------------|
Pm |



   | 
   |-----------------------------|----------------------------|
   |-----------------------------|----------------------------|
   |-----------------------------|----------------------------|
   |-10p7----------7-----7-9-10--|-10p7----------7-----7-9-10-|
   |------7-12p7-7---7-7---------|------7-12p7-7---7-7--------|
   |-----------------------------|----------------------------|
Pm |      .      .   . . . . .          .      .   . . . . .
   |
   |
   |
   |-----------------------------|----------------------------|
   |-----------------------------|----------------------------|
   |-----------------------------|----------------------------|
   |-----------------------------|----------------------------|
   |-----------------------------|----------------------------|
   |-----------------------------|----------------------------|
Pm |


   | 
   |-----------------------------|----------------------------|
   |-----------------------------|----------------------------|
   |-----------------------------|----------------------------|
   |-10p7----------7-----7-9-10--|-10p7----------7-----7-9-10-|
   |------7-12p7-7---7-7---------|------7-12p7-7---7-7--------|
   |-----------------------------|----------------------------|
Pm |      .      .   . . . . .          .      .   . . . . .
   |
   |
   |
   |-----------------------------|----------------------------|
   |-----------------------------|----------------------------|
   |-----------------------------|----------------------------|
   |-----------------------------|----------------------------|
   |-----------------------------|----------------------------|
   |-----------------------------|----------------------------|
Pm |


Verse Part 1
 (Riff 1)

   |Gtrs I & II 
   |
   |----------------------------|----------------------------|
   |----------------------------|----------------------------|
   |----------------------------|----------------------------|
   |--------9---------10--------|--9-------------------------|
   |----7p0---7---7p0------7p0--|----7---2---2---2---2---2---|
   |--0---------0--------0------|------0-0---0---0---0---0---|
Pm |  .         .        .             .

   

   |
   |----------------------------|----------------------------|
   |----------------------------|----------------------------|
   |----------------------------|----------------------------|
   |--------9---------10--------|--9-------------------------|
   |----7p0---7---7p0------7p0--|----7---2---2--7-8-5--------|
   |--0---------0--------0------|------0-0---0--------8-7-8--|
Pm |  .         .        .             .        . . . . . .


(Riff 2)

   |
   |-----------------------------|----------------------------|
   |-----------------------------|----------------------------|
   |-----------------------------|----------------------------|
   |-----------------------------|----------------------------|
   |---------7-5-7-------8-7-8---|--------7-5-7---------------|
   |--0-5-8--------5-8-7---------|--0-5-8-------7-8-7-8-5-7---|
Pm |



   |
   |
   |---------------------------------|----------------------------|
   |---------------------------------|----------------------------|
   |---------------------------------|----------------------------|
   |--------9-------------10------9--|----------------------------|
   |----7p0----7po--7h8------5h7-----|--7-7-7-7------3-----6------|
   |--0------------------------------|--5-5-5-5------1-----4------|
Pm |  .                                 . . .   
   |
   |
   |
   |----------------------------------|----------------------------|
   |----------------------------------|----------------------------|
   |----------------------------------|----------------------------|
   |---------12------------14------12-|----------------------------|
   |----11p0----11po-11h12----8h11----|--7-7-7-7------3-----6------|
   |--0-------------------------------|--5-5-5-5------1-----4------|
Pm |  .                                  . . .   

(Riff 1)


   |
   |
   |----------------------------|----------------------------|
   |----------------------------|----------------------------|
   |----------------------------|----------------------------|
   |--------9---------10--------|--9-------------------------|
   |----7p0---7---7p0------7p0--|----7---2---2---2---2---2---|
   |--0---------0--------0------|------0-0---0---0---0---0---|
Pm |  .         .        .             .

   

   |
   |----------------------------|----------------------------|
   |----------------------------|----------------------------|
   |----------------------------|----------------------------|
   |--------9---------10--------|--9-------------------------|
   |----7p0---7---7p0------7p0--|----7---2---2--7-8-5--------|
   |--0---------0--------0------|------0-0---0--------8-7-8--|
Pm |  .         .        .             .        . . . . . .


(Riff 2)

   |
   |-----------------------------|----------------------------|
   |-----------------------------|----------------------------|
   |-----------------------------|----------------------------|
   |-----------------------------|----------------------------|
   |---------7-5-7-------8-7-8---|--------7-5-7---------------|
   |--0-5-8--------5-8-7---------|--0-5-8-------7-8-7-8-5-7---|
Pm |


   |
   |
   |---------------------------------|----------------------------|
   |---------------------------------|----------------------------|
   |---------------------------------|----------------------------|
   |--------9-------------10------9--|----------------------------|
   |----7p0----7po--7h8------5h7-----|--7-7-7-7------3-----6------|
   |--0------------------------------|--5-5-5-5------1-----4------|
Pm |  .                                 . . .   
   |
   |
   |
   |----------------------------------|----------------------------|
   |----------------------------------|----------------------------|
   |----------------------------------|----------------------------|
   |---------12------------14------12-|----------------------------|
   |----11p0----11po-11h12----8h11----|--7-7-7-7------3-----6------|
   |--0-------------------------------|--5-5-5-5------1-----4------|
Pm |  .                                  . . .   


   |
   |----------------------------|
   |----------------------------|
   |----------------------------|
   |----------------------------|
   |--7-7-7-7------3-----6------|
   |--5-5-5-5------1-----4------|
Pm |  . . .   

Verse Part 2
  (Riff 1)

   |
   |
   |-----------------------------|----------------------------|
   |-----------------------------|----------------------------|
   |-----------------------------|----------------------------|
   |-----------------------------|----------------------------|
   |--------7----7-5-7-5-8-7-5---|--5---7-------5---7---------|
   |--0-0-0---0------------------|----0---0-0-0---0---0-0-0---|
Pm |  . . .   .                       .   . . .   .   . . .
   |
   |
   |-----------------------------|----------------------------|
   |-----------------------------|----------------------------|
   |-----------------------------|----------------------------|
   |-----------------------------|----------------------------|
   |--2-2-2----------------------|--5---7-------5---7---------|
   |--0-0-0----------------------|----0---0-0-0---0---0-0-0---|
Pm |  . . .                           .   . . .   .   . . .


   
   |
   |-----------------------------|-----------------------------|
   |-----------------------------|-----------------------------|
   |-----------------------------|-----------------------------|
   |-----------------------------|-----------------------------|
   |--------7----7-5-7-5-12-8-7--|--7---12-------7---12--------|
   |--0-0-0---0------------------|----0----0-0-0---0----0-0-0--|
Pm |  . . .   .                       .    . . .   .   . . .


   |
   |-----------------------------|----------------------------|
   |-----------------------------|----------------------------|
   |-----------------------------|----------------------------|
   |-----------------------------|----------------------------|
   |--------7----7-5-7-5-8-7-5---|--5---7-------5---7---------|
   |--0-0-0---0------------------|----0---0-0-0---0---0-0-0---|
Pm |  . . .   .                       .   . . .   .   . . .


   |
   |-----------------------------|-----------------------------|
   |-----------------------------|-----------------------------|
   |-----------------------------|-----------------------------|
   |-----------------------------|-----------------------------|
   |--------7----7-5-7-5-12-8-7--|--7---12-------7---12--------|
   |--0-0-0---0------------------|----0----0-0-0---0----0-0-0--|
Pm |  . . .   .                       .    . . .   .   . . .

(Riff 2)

   |
   |----------------------------|----------------------------|
   |----------------------------|----------------------------|
   |----------------------------|----------------------------|
   |----------------------------|----------------------------|
   |--3-3-3-3-3-3---------------|--3-3-3-3-3-3---------------|
   |--1-1-1-1-1-1-0-0-0-0-0-0---|--1-1-1-1-1-1-0-0-0-0-0-0---|
Pm |              . . . . . .                  . . . . . .

   |
   |----------------------------|----------------------------|
   |----------------------------|----------------------------|
   |----------------------------|----------------------------|
   |----------------------------|----------------------------|
   |--3-3-3-3-3-3---------------|--3-3-3-3-3-3---------------|
   |--1-1-1-1-1-1-0-0-0-0-0-0---|--1-1-1-1-1-1-0-0-0-0-0-0---|
Pm |              . . . . . .                  . . . . . .

   |
   |----------------------------|----------------------------|
   |----------------------------|----------------------------|
   |----------------------------|----------------------------|
   |----------------------------|----------------------------|
   |--3-3-3-3-3-3---------------|--3-3-3-3-3-3---------------|
   |--1-1-1-1-1-1-0-0-0-0-0-0---|--1-1-1-1-1-1-0-0-0-0-0-0---|
Pm |              . . . . . .                  . . . . . .

   |
   |----------------------------|----------------------------|
   |----------------------------|----------------------------|
   |----------------------------|----------------------------|
   |----------------------------|----------------------------|
   |--3-3-3-3-3-3---------------|--3-3-3-3-3-3---------------|
   |--1-1-1-1-1-1-0-0-0-0-0-0---|--1-1-1-1-1-1-0-0-0-0-0-0---|
Pm |              . . . . . .                  . . . . . .



Chorus

   |Gtr I
   | 
   ||-----------------------------|----------------------------|
   ||-----------------------------|----------------------------|
   ||-----------------------------|-9p5------------------------|
   ||-10p7----------7----------10-|-----7-10p7---7--------10-7-|
   ||------7-12p7-7---7-7-7-12----|------------7---7-7-7-------|
   ||-----------------------------|----------------------------|
Pm |      .      .   . . . .  .        .      .   . . .
   |
   |Gtr II
   |
   ||-----------------------------|----------------------------|
   ||-----------------------------|----------------------------|
   ||---2-2-2-2-2-2-2-2-2-4-4-4---|---5-5-5-5-5-5-5-5-5-5-5-5--|
   ||---2-2-2-2-2-2-2-2-2---------|----------------------------|
   ||---0-0-0-0-0-0-0-0-0-2-2-2---|---3-3-3-3-3-3-3-3-3-3-3-3--|
   ||-----------------------------|----------------------------|
Pm |



   | 
   |-----------------------------|----------------------------|
   |-----------------------------|----------------------------|
   |-----------------------------|-9p5------------------------|
   |-10p7----------7----------10-|-----7-10p7---7--------10-7-|
   |------8-12p8-8---8-8-8-12----|------------7---7-7-7-------|
   |-----------------------------|----------------------------|
Pm |      .      .   . . . .  .        .      .   . . .
   |                                                              Repeat x3
   |
   |
   |-----------------------------|----------------------------|
   |-----------------------------|----------------------------|
   |---------------------7-7-7---|---5-5-5-5-5-5-5-5-5-5-5-5--|
   |-----------------------------|----------------------------|
   |---3-3-3-3-3-3-3-3-3-5-5-5---|---3-3-3-3-3-3-3-3-3-3-3-3--|
   |---1-1-1-1-1-1-1-1-1---------|----------------------------|
Pm |


Verse Part 1
 (Riff 1)

   |Gtrs I & II 
   |
   |----------------------------|----------------------------|
   |----------------------------|----------------------------|
   |----------------------------|----------------------------|
   |--------9---------10--------|--9-------------------------|
   |----7p0---7---7p0------7p0--|----7---2---2---2---2---2---|
   |--0---------0--------0------|------0-0---0---0---0---0---|
Pm |  .         .        .             .
   |
   |
   |----------------------------|----------------------------|
   |----------------------------|----------------------------|
   |----------------------------|----------------------------|
   |----------------------------|--9-------------------------|
   |----------------------------|----7---2---2---2---2---2---|
   |----------------------------|------0-0---0---0---0---0---|
Pm |                                   .



   |
   |----------------------------|----------------------------|
   |----------------------------|----------------------------|
   |----------------------------|----------------------------|
   |--------9---------10--------|--9-------------------------|
   |----7p0---7---7p0------7p0--|----7---2---2--7-8-5--------|
   |--0---------0--------0------|------0-0---0--------8-7-8--|
Pm |  .         .        .             .        . . . . . .



(Riff 2)

   |
   |-----------------------------|----------------------------|
   |-----------------------------|----------------------------|
   |-----------------------------|----------------------------|
   |-----------------------------|----------------------------|
   |---------7-5-7-------8-7-8---|--------7-5-7---------------|
   |--0-5-8--------5-8-7---------|--0-5-8-------7-8-7-8-5-7---|
Pm |



   |
   |
   |---------------------------------|----------------------------|
   |---------------------------------|----------------------------|
   |---------------------------------|----------------------------|
   |--------9-------------10------9--|----------------------------|
   |----7p0----7po--7h8------5h7-----|--7-7-7-7------3-----6------|
   |--0------------------------------|--5-5-5-5------1-----4------|
Pm |  .                                 . . .   
   |
   |
   |
   |----------------------------------|----------------------------|
   |----------------------------------|----------------------------|
   |----------------------------------|----------------------------|
   |---------12------------14------12-|----------------------------|
   |----11p0----11po-11h12----8h11----|--7-7-7-7------3-----6------|
   |--0-------------------------------|--5-5-5-5------1-----4------|
Pm |  .                                  . . .   


   |
   |----------------------------|
   |----------------------------|
   |----------------------------|
   |----------------------------|
   |--7-7-7-7------3-----6------|
   |--5-5-5-5------1-----4------|
Pm |  . . .   

Verse Part 2
  (Riff 1)

   |
   |
   |-----------------------------|----------------------------|
   |-----------------------------|----------------------------|
   |-----------------------------|----------------------------|
   |-----------------------------|----------------------------|
   |--------7----7-5-7-5-8-7-5---|--5---7-------5---7---------|
   |--0-0-0---0------------------|----0---0-0-0---0---0-0-0---|
Pm |  . . .   .                       .   . . .   .   . . .
   |
   |
   |-----------------------------|----------------------------|
   |-----------------------------|----------------------------|
   |-----------------------------|----------------------------|
   |-----------------------------|----------------------------|
   |--2-2-2----------------------|----------------------------|
   |--0-0-0----------------------|----------------------------|
Pm |  . . . 



   |
   |
   |-----------------------------|-----------------------------|
   |-----------------------------|-----------------------------|
   |-----------------------------|-----------------------------|
   |-----------------------------|-----------------------------|
   |--2-2-2----------------------|-----------------------------|
   |--0-0-0----------------------|-----------------------------|
Pm |  . . .
   |
   |-----------------------------|-----------------------------|
   |-----------------------------|-----------------------------|
   |-----------------------------|-----------------------------|
   |-----------------------------|-----------------------------|
   |--------7----7-5-7-5-12-8-7--|--7---12-------7---12--------|
   |--0-0-0---0------------------|----0----0-0-0---0----0-0-0--|
Pm |  . . .   .                       .    . . .   .   . . .




   |
   |-----------------------------|----------------------------|
   |-----------------------------|----------------------------|
   |-----------------------------|----------------------------|
   |-----------------------------|----------------------------|
   |--2--------------------------|----------------------------|
   |--0--------------------------|----------------------------|
Pm |   
   |
   |-----------------------------|----------------------------|
   |-----------------------------|----------------------------|
   |-----------------------------|----------------------------|
   |-----------------------------|----------------------------|
   |--2--------------------------|----------------------------|
   |--0--------------------------|----------------------------|
Pm |   



   |
   |-----------------------------|----------------------------|
   |-----------------------------|----------------------------|
   |-----------------------------|----------------------------|
   |-----------------------------|----------------------------|
   |-----------------------------|----------------------------|
   |-----------------------------|---------Pick-SLIDE/////////|
Pm |   
   |
   |-----------------------------|----------------------------|
   |-----------------------------|----------------------------|
   |-----------------------------|----------------------------|
   |-----------------------------|----------------------------|
   |-----------------------------|----------------------------|
   |-----------------------------|---------Pick-SLIDE/////////|
Pm |   

(Riff 2)

   |
   |----------------------------|----------------------------|
   |----------------------------|----------------------------|
   |----------------------------|----------------------------|
   |----------------------------|----------------------------|
   |--3-3-3-3-3-3---------------|--3-3-3-3-3-3---------------|
   |--1-1-1-1-1-1-0-0-0-0-0-0---|--1-1-1-1-1-1-0-0-0-0-0-0---|
Pm |              . . . . . .                  . . . . . .

   |
   |----------------------------|----------------------------|
   |----------------------------|----------------------------|
   |----------------------------|----------------------------|
   |----------------------------|----------------------------|
   |--3-3-3-3-3-3---------------|--3-3-3-3-3-3---------------|
   |--1-1-1-1-1-1-0-0-0-0-0-0---|--1-1-1-1-1-1-0-0-0-0-0-0---|
Pm |              . . . . . .                  . . . . . .

   |
   |----------------------------|----------------------------|
   |----------------------------|----------------------------|
   |----------------------------|----------------------------|
   |----------------------------|----------------------------|
   |--3-3-3-3-3-3---------------|--3-3-3-3-3-3---------------|
   |--1-1-1-1-1-1-0-0-0-0-0-0---|--1-1-1-1-1-1-0-0-0-0-0-0---|
Pm |              . . . . . .                  . . . . . .

   |
   |----------------------------|----------------------------|
   |----------------------------|----------------------------|
   |----------------------------|----------------------------|
   |----------------------------|----------------------------|
   |--3-3-3-3-3-3---------------|--3-3-3-3-3-3---------------|
   |--1-1-1-1-1-1-0-0-0-0-0-0---|--1-1-1-1-1-1-0-0-0-0-0-0---|
Pm |              . . . . . .                  . . . . . .


Chorus

   |Gtr I
   | 
   ||-----------------------------|----------------------------|
   ||-----------------------------|----------------------------|
   ||-----------------------------|-9p5------------------------|
   ||-10p7----------7----------10-|-----7-10p7---7--------10-7-|
   ||------7-12p7-7---7-7-7-12----|------------7---7-7-7-------|
   ||-----------------------------|----------------------------|
Pm |      .      .   . . . .  .        .      .   . . .
   |
   |Gtr II
   |
   ||-----------------------------|----------------------------|
   ||-----------------------------|----------------------------|
   ||---2-2-2-2-2-2-2-2-2-4-4-4---|---5-5-5-5-5-5-5-5-5-5-5-5--|
   ||---2-2-2-2-2-2-2-2-2---------|----------------------------|
   ||---0-0-0-0-0-0-0-0-0-2-2-2---|---3-3-3-3-3-3-3-3-3-3-3-3--|
   ||-----------------------------|----------------------------|
Pm |
   |
   |Gtr III
   | 
   ||-----------------------------|----------------------------|
   ||-----------------------------|----------------------------|
   ||-----------------------------|----------------------------|
   ||-----------------------------|----------------------------|
   ||-----------------------------|----------------------------|
   ||-----------------------------|----------------------------|
Pm |



   | 
   |-----------------------------|----------------------------|
   |-----------------------------|----------------------------|
   |-----------------------------|-9p5------------------------|
   |-10p7----------7----------10-|-----7-10p7---7--------10-7-|
   |------8-12p8-8---8-8-8-12----|------------7---7-7-7-------|
   |-----------------------------|----------------------------|
Pm |      .      .   . . . .  .        .      .   . . .
   |                                                           
   |
   |
   |-----------------------------|----------------------------|
   |-----------------------------|----------------------------|
   |---------------------7-7-7---|---5-5-5-5-5-5-5-5-5-5-5-5--|
   |-----------------------------|----------------------------|
   |---3-3-3-3-3-3-3-3-3-5-5-5---|---3-3-3-3-3-3-3-3-3-3-3-3--|
   |---1-1-1-1-1-1-1-1-1---------|----------------------------|
Pm |
   |
   |
   |
   |-----------------------------|----------------------------|
   |-----------------------------|----------------------------|
   |-----------------------------|----------------------------|
   |-----------------------------|----------------------------|
   |-----------------------------|----------------------------|
   |-----------------------------|----------------------------|
Pm |




   |
   | 
   |-----------------------------|----------------------------|
   |-----------------------------|----------------------------|
   |-----------------------------|-9p5------------------------|
   |-10p7----------7----------10-|-----7-10p7---7--------10-7-|
   |------7-12p7-7---7-7-7-12----|------------7---7-7-7-------|
   |-----------------------------|----------------------------|
Pm |      .      .   . . . .  .        .      .   . . .
   |
   |
   |
   |-----------------------------|----------------------------|
   |-----------------------------|----------------------------|
   |---2-2-2-2-2-2-2-2-2-4-4-4---|---5-5-5-5-5-5-5-5-5-5-5-5--|
   |---2-2-2-2-2-2-2-2-2---------|----------------------------|
   |---0-0-0-0-0-0-0-0-0-2-2-2---|---3-3-3-3-3-3-3-3-3-3-3-3--|
   |-----------------------------|----------------------------|
Pm |
   |
   |
   |
   |-----------------------------|----------------------------|
   |-----------------------------|----------------------------|
   |-----------------------------|----------------------------|
   |-----------------------------|----------------------------|
   |-----------------------------|----------------------------|
   |-----------------------------|----------------------------|
Pm |



   | 
   |-----------------------------|----------------------------|
   |-----------------------------|----------------------------|
   |-----------------------------|-9p5------------------------|
   |-10p7----------7----------10-|-----7-10p7---7--------10-7-|
   |------8-12p8-8---8-8-8-12----|------------7---7-7-7-------|
   |-----------------------------|----------------------------|
Pm |      .      .   . . . .  .        .      .   . . .
   |                                                           
   |
   |
   |-----------------------------|----------------------------|
   |-----------------------------|----------------------------|
   |---------------------7-7-7---|---5-5-5-5-5-5-5-5-5-5-5-5--|
   |-----------------------------|----------------------------|
   |---3-3-3-3-3-3-3-3-3-5-5-5---|---3-3-3-3-3-3-3-3-3-3-3-3--|
   |---1-1-1-1-1-1-1-1-1---------|----------------------------|
Pm |
   |
   |
   |
   |-----------------------------|----------------------------|
   |-----------------------------|----------------------------|
   |-----------------------------|----------------------------|
   |-----------------------------|----------------------------|
   |-----------------------------|----------------------------|
   |-----------------------------|----------------------------|
Pm |





   |
   | 
   |-----------------------------|----------------------------|
   |-----------------------------|----------------------------|
   |-----------------------------|-9p5------------------------|
   |-10p7----------7----------10-|-----7-10p7---7--------10-7-|
   |------7-12p7-7---7-7-7-12----|------------7---7-7-7-------|
   |-----------------------------|----------------------------|
Pm |      .      .   . . . .  .        .      .   . . .
   |
   |
   |
   |------------------------------------|-------------------------------------|
   |------------------------------------|-------------------------------------|
   |---2--2--2--2--2--2--2--2--2-4-4-4--|--5--5--5--5--5--5--5--5--5--5--5--5-|
   |---2--2--2--2--2--2--2--2--2--------|-------------------------------------|
   |---0--0--0--0--0--0--0--0--0-2-2-4--|--3--3--3--3--3--3--3--3--3--3--3--3-|
   |------------------------------------|-------------------------------------|
Pm |
   |
   |
   |
   |-------------------------------------|-------------------------------------|
   |-------------------------------------|-------------------------------------|
   |-14-14-14-14-14-14-14-14-14-16-16-16-|-17-17-17-17-17-17-17-17-17-17-17-17-|
   |-------------------------------------|-------------------------------------|
   |-12-12-12-12-12-12-12-12-12-14-14-14-|-15-15-15-15-15-15-15-15-15-15-15-15-|
   |-------------------------------------|-------------------------------------|
Pm |


   
   | 
   |-----------------------------|----------------------------|
   |-----------------------------|----------------------------|
   |-----------------------------|-9p5------------------------|
   |-10p7----------7----------10-|-----7-10p7---7--------10-7-|
   |------8-12p8-8---8-8-8-12----|------------7---7-7-7-------|
   |-----------------------------|----------------------------|
Pm |      .      .   . . . .  .        .      .   . . .
   |                                                           
   |
   |
   |-------------------------------------|-------------------------------------|
   |-------------------------------------|-------------------------------------|
   |-----------------------------7-7-7---|--5--5--5--5--5--5--5--5--5--5--5--5-|
   |-------------------------------------|-------------------------------------|
   |---3--3--3--3--3--3--3--3--3-5-5-5---|--3--3--3--3--3--3--3--3--3--3--3--3-|
   |---1--1--1--1--1--1--1--1--1---------|-------------------------------------|
Pm |
   |
   |
   |
   |-------------------------------------|-------------------------------------|
   |-------------------------------------|-------------------------------------|
   |-16-16-16-16-16-16-16-16-16-16-16-16-|-17-17-17-17-17-17-14-14-14-14-14-14-|
   |-------------------------------------|-------------------------------------|
   |-14-14-14-14-14-14-14-14-14-14-14-14-|-15-15-15-15-15-15-12-12-12-12-12-12-|
   |-------------------------------------|-------------------------------------|
Pm |



   |
   | 
   |-----------------------------|----------------------------|
   |-----------------------------|----------------------------|
   |-----------------------------|-9p5------------------------|
   |-10p7----------7----------10-|-----7-10p7---7--------10-7-|
   |------7-12p7-7---7-7-7-12----|------------7---7-7-7-------|
   |-----------------------------|----------------------------|
Pm |      .      .   . . . .  .        .      .   . . .
   |
   |
   |
   |------------------------------------|-------------------------------------|
   |------------------------------------|-------------------------------------|
   |---2--2--2--2--2--2--2--2--2-4-4-4--|--5--5--5--5--5--5--5--5--5--5--5--5-|
   |---2--2--2--2--2--2--2--2--2--------|-------------------------------------|
   |---0--0--0--0--0--0--0--0--0-2-2-4--|--3--3--3--3--3--3--3--3--3--3--3--3-|
   |------------------------------------|-------------------------------------|
Pm |
   |
   |
   |
   |-------------------------------------|-------------------------------------|
   |-------------------------------------|-------------------------------------|
   |--9--9--9--9--9--9--9--9--9--9--9--9-|-14-14-14-14-14-14-14-14-14-14-14-14-|
   |-------------------------------------|-------------------------------------|
   |--7--7--7--7--7--7--7--7--7--7--7--7-|-12-12-12-12-12-12-12-12-12-12-12-12-|
   |-------------------------------------|-------------------------------------|
Pm |

   

   | 
   |-----------------------------|----------------------------|
   |-----------------------------|----------------------------|
   |-----------------------------|-9p5------------------------|
   |-10p7----------7----------10-|-----7-10p7---7--------10-7-|
   |------8-12p8-8---8-8-8-12----|------------7---7-7-7-------|
   |-----------------------------|----------------------------|
Pm |      .      .   . . . .  .        .      .   . . .
   |                                                           
   |
   |
   |-------------------------------------|-------------------------------------|
   |-------------------------------------|-------------------------------------|
   |-----------------------------7-7-7---|--5--5--5--5--5--5--5--5--5--5--5--5-|
   |-------------------------------------|-------------------------------------|
   |---3--3--3--3--3--3--3--3--3-5-5-5---|--3--3--3--3--3--3--3--3--3--3--3--3-|
   |---1--1--1--1--1--1--1--1--1---------|-------------------------------------|
Pm |
   |
   |
   |
   |-------------------------------------|-------------------------------------|
   |-------------------------------------|-------------------------------------|
   |-10-10-10-10-10-10-10-10-10-10-10-10-|--7--7--7--7--7--7--7--7--7--7--7--7-|
   |-------------------------------------|-------------------------------------|
   |--8--8--8--8--8--8--8--8--8--8--8--8-|--5--5--5--5--5--5--5--5--5--5--5--5-|
   |-------------------------------------|-------------------------------------|


Bridge


   |
   |
   |
   |-----------------------------|----------------------------|
   |-----------------------------|----------------------------|
   |-----------------------------|----------------------------|
   |-2---------------------------|----------------------------|
   |-0---------------------------|----------------------------|
   |-----------------------------|----------------------------|
Pm |
   |
   |
   |
   |-----------------------------|----------------------------|
   |-----------------------------|----------------------------|
   |-----------------------------|----------------------------|
   |---7-7-7-7-7-7-7-7-7-7-7-7---|--7-7-7-7-7-7-7-7-7-7-7-7---|
   |-----------------------------|----------------------------|
   |---5-5-5-5-5-5-5-5-5-5-5-5---|--5-5-5-5-5-5-5-5-5-5-5-5---|
Pm |



   |
   |
   |
   |-----------------------------|----------------------------|
   |-----------------------------|----------------------------|
   |-----------------------------|----------------------------|
   |-----------------------------|----------------------------|
   |-----------------------------|----------------------------|
   |-----------------------------|----------------------------|
Pm |
   |
   |
   |
   |-----------------------------|----------------------------|
   |-----------------------------|----------------------------|
   |-----------------------------|----------------------------|
   |---7-7-7-7-7-7-7-7-7-7-7-7---|--7-7-7-7-7-7-7-7-7-7-7-7---|
   |-----------------------------|----------------------------|
   |---5-5-5-5-5-5-5-5-5-5-5-5---|--5-5-5-5-5-5-5-5-5-5-5-5---|
Pm |


Bit after the Second chorus... whatever its labeled. (comman' its 01:48am)


   |
   |
   |
   |---------------------------|---------------------------|
   |---------------------------|---------------------------|
   |---------------------------|---------------------------|
   |---------------------------|---------------------------|
   |--------7--7--7--7--7--7---|--7--7--7--7--7--7--7--7---|
   |-5-5-5--5--5--5--5--5--5---|--5--5--5--5--5--5--5--5---|
Pm | . . .  .  .  .  .  .  .      .  .  .  .  .  .  .  .
   |
   |
   |
   |
   |
   |---------------------------|---------------------------|
   |-17----------13-------15---|--12-------13---------10---|
   |---------------------------|---------------------------|
   |---------------------------|---------------------------|
   |---------------------------|---------------------------|
   |---------------------------|---------------------------|



   |
   |
   |
   |---------------------------|---------------------------|
   |---------------------------|---------------------------|
   |---------------------------|---------------------------|
   |---------------------------|---------------------------|
   |--------7--7--7--7--7--7---|--7--7--7--7--7--7--7--7---|
   |-5-5-5--5--5--5--5--5--5---|--5--5--5--5--5--5--5--5---|
Pm | . . .  .  .  .  .  .  .      .  .  .  .  .  .  .  .
   |
   |
   |
   |
   |
   |---------------------------|---------------------------|
   |-12-----------8-------10---|--5------------------------|
   |---------------------------|---------------------------|
   |---------------------------|---------------------------|
   |---------------------------|---------------------------|
   |---------------------------|---------------------------|



   |
   |
   |
   |---------------------------|---------------------------|
   |---------------------------|---------------------------|
   |---------------------------|---------------------------|
   |---------------------------|---------------------------|
   |--------3--3--3--3--3--3---|--3--3--3--3--3--3--3--3---|
   |-1-1-1--1--1--1--1--1--1---|--1--1--1--1--1--1--1--1---|
Pm | . . .  .  .  .  .  .  .      .  .  .  .  .  .  .  .
   |
   |
   |
   |
   |
   |---------------------------|---------------------------|
   |-17----------13-------15---|--12-------13---------10---|
   |---------------------------|---------------------------|
   |---------------------------|---------------------------|
   |---------------------------|---------------------------|
   |---------------------------|---------------------------|



   |
   |
   |---------------------------|---------------------------|
   |---------------------------|---------------------------|
   |---------------------------|---------------------------|
   |---------------------------|---------------------------|
   |--------7--7--7--7--7--7---|--7--7--7--7--7--7--7--7---|
   |-5-5-5--5--5--5--5--5--5---|--5--5--5--5--5--5--5--5---|
Pm | . . .  .  .  .  .  .  .      .  .  .  .  .  .  .  .
   |
   |
   |
   |
   |
   |---------------------------|---------------------------|
   |-12-----13------12--10-----|---------------------------|
   |---------------------------|---------------------------|
   |---------------------------|---------------------------|
   |---------------------------|---------------------------|
   |---------------------------|---------------------------|



   |
   |
   |
   |---------------------------|---------------------------|
   |---------------------------|---------------------------|
   |---------------------------|---------------------------|
   |---------------------------|---------------------------|
   |--------3--3--3--3--3--3---|--3--3--3--3--3--3--3--3---|
   |-1-1-1--1--1--1--1--1--1---|--1--1--1--1--1--1--1--1---|
Pm | . . .  .  .  .  .  .  .      .  .  .  .  .  .  .  .
   |
   |
   |
   |
   |
   |---------------------------|---------------------------|
   |-17----------13-------15---|--12-------13---------10---|
   |---------------------------|---------------------------|
   |---------------------------|---------------------------|
   |---------------------------|---------------------------|
   |---------------------------|---------------------------|



   |
   |
   |
   |---------------------------|---------------------------|
   |---------------------------|---------------------------|
   |---------------------------|---------------------------|
   |---------------------------|---------------------------|
   |--------5--5--5--5--5--5---|--5--5--5--5--5--5--5--5---|
   |-3-3-3--3--3--3--3--3--3---|--3--3--3--3--3--3--3--3---|
Pm | . . .  .  .  .  .  .  .      .  .  .  .  .  .  .  .
   |
   |
   |
   |
   |
   |---------------------------|---------------------------|
   |-12-----------8-------10---|--5------------------------|
   |---------------------------|---------------------------|
   |---------------------------|---------------------------|
   |---------------------------|---------------------------|
   |---------------------------|---------------------------|


  |
   |
   |
   |---------------------------|---------------------------|
   |---------------------------|---------------------------|
   |---------------------------|---------------------------|
   |---------------------------|---------------------------|
   |--------7--7--7--7--7--7---|--7--7--7--7--7--7--7--7---|
   |-5-5-5--5--5--5--5--5--5---|--5--5--5--5--5--5--5--5---|
Pm | . . .  .  .  .  .  .  .      .  .  .  .  .  .  .  .
   |
   |
   |
   |
   |
   |---------------------------|---------------------------|
   |-17----------13-------15---|--12-------13---------10---|
   |---------------------------|---------------------------|
   |---------------------------|---------------------------|
   |---------------------------|---------------------------|
   |---------------------------|---------------------------|



   |
   |
   |---------------------------|---------------------------|
   |---------------------------|---------------------------|
   |---------------------------|---------------------------|
   |---------------------------|---------------------------|
   |--------7--7--7--7--7--7---|--7--7--7--7--7--7--7--7---|
   |-5-5-5--5--5--5--5--5--5---|--5--5--5--5--5--5--5--5---|
Pm | . . .  .  .  .  .  .  .      .  .  .  .  .  .  .  .
   |
   |
   |
   |
   |
   |---------------------------|---------------------------|
   |-12-----13------12--10-----|---------------------------|
   |---------------------------|---------------------------|
   |---------------------------|---------------------------|
   |---------------------------|---------------------------|
   |---------------------------|---------------------------|


Clean section

   |Gtr I
   |
   |-----------------------|----------------------------|
   |-----------------------|----------------------|
   |-----------------------|----------------------|
   |-----------------------|----------------------|
   |-7---------------------|----------------------|
   |-5---------------------|----------------------|
Pm |
   |Gtr II
   |
   |-----------------------|----------------------|
   |-----------------------|----------------------|
   |-----------------------|----------------------|
   |-----------------------|----------------------|
   |-----------------------|----------------------|
   |-----------------------|----------------------|
Pm |
   |Gtr IV
   |
   |-----------------------|----------------------|
   |---------------0-------|---1------1-----1-----|
   |--2------2-------------|-----2------2---------|
   |----2------2-------2---|-------2------2----2--|
   |------0------0---------|----------------------|
   |-----------------------|----------------------|
Pm |



   |
   |
   |-----------------------|----------------------|
   |---------1-------------|-----------0----------|
   |--2--------------2-----|------2-----------2---|
   |----3---------3-----3--|----3-----------3-----|
   |------0----0-----------|--0-----0-----0-------|
   |-----------------------|----------------------|
Pm |




Pre chorus Break

   |Gtr I
   | 
   ||-----------------------------|----------------------------|
   ||-----------------------------|----------------------------|
   ||-----------------------------|-9p5------------------------|
   ||-10p7----------7----------10-|-----7-10p7---7--------10-7-|
   ||------7-12p7-7---7-7-7-12----|------------7---7-7-7-------|
   ||-----------------------------|----------------------------|
Pm |      .      .   . . . .  .        .      .   . . .
   |
   |Gtr II
   |
   ||-----------------------------|----------------------------|
   ||-----------------------------|----------------------------|
   ||---2-2-2-2-2-2-2-2-2-4-4-4---|---5-5-5-5-5-5-5-5-5-5-5-5--|
   ||---2-2-2-2-2-2-2-2-2---------|----------------------------|
   ||---0-0-0-0-0-0-0-0-0-2-2-2---|---3-3-3-3-3-3-3-3-3-3-3-3--|
   ||-----------------------------|----------------------------|
Pm |



   | 
   |-----------------------------|----------------------------|
   |-----------------------------|----------------------------|
   |-----------------------------|-9p5------------------------|
   |-10p7----------7----------10-|-----7-10p7---7-------------|
   |------8-12p8-8---8-8-8-12----|------------7---7-7-7-------|
   |-----------------------------|----------------------------|
Pm |      .      .   . . . .  .        .      .   . . .
   |                                                              
   |
   |
   |-----------------------------|----------------------------|
   |-----------------------------|----------------------------|
   |---------------------7-7-7---|---5-5-5-5-5-2-2-2-2-2------|
   |-----------------------------|----------------------------|
   |---3-3-3-3-3-3-3-3-3-5-5-5---|---3-3-3-3-3-0-0-0-0-0------|
   |---1-1-1-1-1-1-1-1-1---------|----------------------------|
Pm |




Chorus

   |Gtr I
   | 
   ||-----------------------------|----------------------------|
   ||-----------------------------|----------------------------|
   ||-----------------------------|-9p5------------------------|
   ||-10p7----------7----------10-|-----7-10p7---7--------10-7-|
   ||------7-12p7-7---7-7-7-12----|------------7---7-7-7-------|
   ||-----------------------------|----------------------------|
Pm |      .      .   . . . .  .        .      .   . . .
   |
   |Gtr II
   |
   ||-----------------------------|----------------------------|
   ||-----------------------------|----------------------------|
   ||---2-2-2-2-2-2-2-2-2-4-4-4---|---5-5-5-5-5-5-5-5-5-5-5-5--|
   ||---2-2-2-2-2-2-2-2-2---------|----------------------------|
   ||---0-0-0-0-0-0-0-0-0-2-2-2---|---3-3-3-3-3-3-3-3-3-3-3-3--|
   ||-----------------------------|----------------------------|
Pm |
   |
   |Gtr III
   | 
   ||-----------------------------|----------------------------|
   ||-----------------------------|----------------------------|
   ||-----------------------------|----------------------------|
   ||-----------------------------|----------------------------|
   ||-----------------------------|----------------------------|
   ||-----------------------------|----------------------------|
Pm |



   | 
   |-----------------------------|----------------------------|
   |-----------------------------|----------------------------|
   |-----------------------------|-9p5------------------------|
   |-10p7----------7----------10-|-----7-10p7---7--------10-7-|
   |------8-12p8-8---8-8-8-12----|------------7---7-7-7-------|
   |-----------------------------|----------------------------|
Pm |      .      .   . . . .  .        .      .   . . .
   |                                                           
   |
   |
   |-----------------------------|----------------------------|
   |-----------------------------|----------------------------|
   |---------------------7-7-7---|---5-5-5-5-5-5-5-5-5-5-5-5--|
   |-----------------------------|----------------------------|
   |---3-3-3-3-3-3-3-3-3-5-5-5---|---3-3-3-3-3-3-3-3-3-3-3-3--|
   |---1-1-1-1-1-1-1-1-1---------|----------------------------|
Pm |
   |
   |
   |
   |-----------------------------|----------------------------|
   |-----------------------------|----------------------------|
   |-----------------------------|----------------------------|
   |-----------------------------|----------------------------|
   |-----------------------------|----------------------------|
   |-----------------------------|----------------------------|
Pm |




   |
   | 
   |-----------------------------|----------------------------|
   |-----------------------------|----------------------------|
   |-----------------------------|-9p5------------------------|
   |-10p7----------7----------10-|-----7-10p7---7--------10-7-|
   |------7-12p7-7---7-7-7-12----|------------7---7-7-7-------|
   |-----------------------------|----------------------------|
Pm |      .      .   . . . .  .        .      .   . . .
   |
   |
   |
   |-----------------------------|----------------------------|
   |-----------------------------|----------------------------|
   |---2-2-2-2-2-2-2-2-2-4-4-4---|---5-5-5-5-5-5-5-5-5-5-5-5--|
   |---2-2-2-2-2-2-2-2-2---------|----------------------------|
   |---0-0-0-0-0-0-0-0-0-2-2-2---|---3-3-3-3-3-3-3-3-3-3-3-3--|
   |-----------------------------|----------------------------|
Pm |
   |
   |
   |
   |-----------------------------|----------------------------|
   |-----------------------------|----------------------------|
   |-----------------------------|----------------------------|
   |-----------------------------|----------------------------|
   |-----------------------------|----------------------------|
   |-----------------------------|----------------------------|
Pm |



   | 
   |-----------------------------|----------------------------|
   |-----------------------------|----------------------------|
   |-----------------------------|-9p5------------------------|
   |-10p7----------7----------10-|-----7-10p7---7--------10-7-|
   |------8-12p8-8---8-8-8-12----|------------7---7-7-7-------|
   |-----------------------------|----------------------------|
Pm |      .      .   . . . .  .        .      .   . . .
   |                                                           
   |
   |
   |-----------------------------|----------------------------|
   |-----------------------------|----------------------------|
   |---------------------7-7-7---|---5-5-5-5-5-5-5-5-5-5-5-5--|
   |-----------------------------|----------------------------|
   |---3-3-3-3-3-3-3-3-3-5-5-5---|---3-3-3-3-3-3-3-3-3-3-3-3--|
   |---1-1-1-1-1-1-1-1-1---------|----------------------------|
Pm |
   |
   |
   |
   |-----------------------------|----------------------------|
   |-----------------------------|----------------------------|
   |-----------------------------|----------------------------|
   |-----------------------------|----------------------------|
   |-----------------------------|----------------------------|
   |-----------------------------|----------------------------|
Pm |





   |
   | 
   |-----------------------------|----------------------------|
   |-----------------------------|----------------------------|
   |-----------------------------|-9p5------------------------|
   |-10p7----------7----------10-|-----7-10p7---7--------10-7-|
   |------7-12p7-7---7-7-7-12----|------------7---7-7-7-------|
   |-----------------------------|----------------------------|
Pm |      .      .   . . . .  .        .      .   . . .
   |
   |
   |
   |------------------------------------|-------------------------------------|
   |------------------------------------|-------------------------------------|
   |---2--2--2--2--2--2--2--2--2-4-4-4--|--5--5--5--5--5--5--5--5--5--5--5--5-|
   |---2--2--2--2--2--2--2--2--2--------|-------------------------------------|
   |---0--0--0--0--0--0--0--0--0-2-2-4--|--3--3--3--3--3--3--3--3--3--3--3--3-|
   |------------------------------------|-------------------------------------|
Pm |
   |
   |
   |
   |-------------------------------------|-------------------------------------|
   |-------------------------------------|-------------------------------------|
   |-14-14-14-14-14-14-14-14-14-16-16-16-|-17-17-17-17-17-17-17-17-17-17-17-17-|
   |-------------------------------------|-------------------------------------|
   |-12-12-12-12-12-12-12-12-12-14-14-14-|-15-15-15-15-15-15-15-15-15-15-15-15-|
   |-------------------------------------|-------------------------------------|
Pm |


   
   | 
   |-----------------------------|----------------------------|
   |-----------------------------|----------------------------|
   |-----------------------------|-9p5------------------------|
   |-10p7----------7----------10-|-----7-10p7---7--------10-7-|
   |------8-12p8-8---8-8-8-12----|------------7---7-7-7-------|
   |-----------------------------|----------------------------|
Pm |      .      .   . . . .  .        .      .   . . .
   |                                                           
   |
   |
   |-------------------------------------|-------------------------------------|
   |-------------------------------------|-------------------------------------|
   |-----------------------------7-7-7---|--5--5--5--5--5--5--5--5--5--5--5--5-|
   |-------------------------------------|-------------------------------------|
   |---3--3--3--3--3--3--3--3--3-5-5-5---|--3--3--3--3--3--3--3--3--3--3--3--3-|
   |---1--1--1--1--1--1--1--1--1---------|-------------------------------------|
Pm |
   |
   |
   |
   |-------------------------------------|-------------------------------------|
   |-------------------------------------|-------------------------------------|
   |-16-16-16-16-16-16-16-16-16-16-16-16-|-17-17-17-17-17-17-14-14-14-14-14-14-|
   |-------------------------------------|-------------------------------------|
   |-14-14-14-14-14-14-14-14-14-14-14-14-|-15-15-15-15-15-15-12-12-12-12-12-12-|
   |-------------------------------------|-------------------------------------|
Pm |



   |
   | 
   |-----------------------------|----------------------------|
   |-----------------------------|----------------------------|
   |-----------------------------|-9p5------------------------|
   |-10p7----------7----------10-|-----7-10p7---7--------10-7-|
   |------7-12p7-7---7-7-7-12----|------------7---7-7-7-------|
   |-----------------------------|----------------------------|
Pm |      .      .   . . . .  .        .      .   . . .
   |
   |
   |
   |------------------------------------|-------------------------------------|
   |------------------------------------|-------------------------------------|
   |---2--2--2--2--2--2--2--2--2-4-4-4--|--5--5--5--5--5--5--5--5--5--5--5--5-|
   |---2--2--2--2--2--2--2--2--2--------|-------------------------------------|
   |---0--0--0--0--0--0--0--0--0-2-2-4--|--3--3--3--3--3--3--3--3--3--3--3--3-|
   |------------------------------------|-------------------------------------|
Pm |
   |
   |
   |
   |-------------------------------------|-------------------------------------|
   |-------------------------------------|-------------------------------------|
   |--9--9--9--9--9--9--9--9--9--9--9--9-|-14-14-14-14-14-14-14-14-14-14-14-14-|
   |-------------------------------------|-------------------------------------|
   |--7--7--7--7--7--7--7--7--7--7--7--7-|-12-12-12-12-12-12-12-12-12-12-12-12-|
   |-------------------------------------|-------------------------------------|
Pm |

   

   | 
   |-----------------------------|----------------------------|
   |-----------------------------|----------------------------|
   |-----------------------------|-9p5------------------------|
   |-10p7----------7----------10-|-----7-10p7---7--------10-7-|
   |------8-12p8-8---8-8-8-12----|------------7---7-7-7-------|
   |-----------------------------|----------------------------|
Pm |      .      .   . . . .  .        .      .   . . .
   |                                                           
   |
   |
   |-------------------------------------|-------------------------------------|
   |-------------------------------------|-------------------------------------|
   |-----------------------------7-7-7---|--5--5--5--5--5--5--5--5--5--5--5--5-|
   |-------------------------------------|-------------------------------------|
   |---3--3--3--3--3--3--3--3--3-5-5-5---|--3--3--3--3--3--3--3--3--3--3--3--3-|
   |---1--1--1--1--1--1--1--1--1---------|-------------------------------------|
Pm |
   |
   |
   |
   |-------------------------------------|-------------------------------------|
   |-------------------------------------|-------------------------------------|
   |-10-10-10-10-10-10-10-10-10-10-10-10-|--7--7--7--7--7--7--7--7--7--7--7--7-|
   |-------------------------------------|-------------------------------------|
   |--8--8--8--8--8--8--8--8--8--8--8--8-|--5--5--5--5--5--5--5--5--5--5--5--5-|
   |-------------------------------------|-------------------------------------|


Outro (Fade out)

   | 
   |-----------------------------|----------------------------|
   |-----------------------------|----------------------------|
   |-----------------------------|----------------------------|
   |-10p7----------7-----7-9-10--|-10p7----------7-----7-9-10-|
   |------7-12p7-7---7-7---------|------7-12p7-7---7-7--------|
   |-----------------------------|----------------------------|
Pm |      .      .   . . . . .          .      .   . . . . .
   |
   |
   |
   |-----------------------------|----------------------------|
   |-----------------------------|----------------------------|
   |-2---------------------------|----------------------------|
   |-2---------------------------|----------------------------|
   |-0---------------------------|----------------------------|
   |-----------------------------|----------------------------|
Pm |



   | 
   |-----------------------------|----------------------------|
   |-----------------------------|----------------------------|
   |-----------------------------|----------------------------|
   |-10p7----------7-----7-9-10--|-10p7----------7-----7-9-10-|
   |------7-12p7-7---7-7---------|------7-12p7-7---7-7--------|
   |-----------------------------|----------------------------|
Pm |      .      .   . . . . .          .      .   . . . . .
   |
   |
   |
   |-----------------------------|----------------------------|
   |-----------------------------|----------------------------|
   |-----------------------------|----------------------------|
   |-----------------------------|----------------------------|
   |-----------------------------|----------------------------|
   |-----------------------------|----------------------------|
Pm |



   | 
   |-----------------------------|----------------------------|
   |-----------------------------|----------------------------|
   |-----------------------------|----------------------------|
   |-10p7----------7-----7-9-10--|-10p7----------7-----7-9-10-|
   |------7-12p7-7---7-7---------|------7-12p7-7---7-7--------|
   |-----------------------------|----------------------------|
Pm |      .      .   . . . . .          .      .   . . . . .
   |
   |
   |
   |-----------------------------|----------------------------|
   |-----------------------------|----------------------------|
   |-----------------------------|----------------------------|
   |-----------------------------|----------------------------|
   |-----------------------------|----------------------------|
   |-----------------------------|----------------------------|
Pm |


   | 
   |-----------------------------|----------------------------|
   |-----------------------------|----------------------------|
   |-----------------------------|----------------------------|
   |-10p7----------7-----7-9-10--|-10p7----------7-----7-9-10-|
   |------7-12p7-7---7-7---------|------7-12p7-7---7-7--------|
   |-----------------------------|----------------------------|
Pm |      .      .   . . . . .          .      .   . . . . .
   |
   |
   |
   |-----------------------------|----------------------------|
   |-----------------------------|----------------------------|
   |-----------------------------|----------------------------|
   |-----------------------------|----------------------------|
   |-----------------------------|----------------------------|
   |-----------------------------|----------------------------|
Pm |
comments
We did not receive enough feedback on this tab! Please rate:
print report bad tab
1 2 3 4 5
I want to post or [tab]
guest
You may want to rate the tab now too:
select rating
Please do not post tabs as comments. Select "correction" instead!