Oops, an error
Loading. Please wait.

The Sound Of Truth Bass Tab

ver1
ver1

Whole song

More versions @911Tabs.com
16,772 views 6 this week
2 commentsread comments
1 2 3 4 5
accurate
x 4
Autoscroll
+/-
esc
set tempo
stop
Contributor
Difficulty
Tuning
intermediate
D A D G B E
Hey! There's an official Ultimate Guitar app which is ideal
for learning songs when you're away from computer. Get the app
WARNING: You are trying to view
                                    content from Ultimate-Guitar.com
                                    in an unauthorized application,
                                    which is prohibited.

                                    Please use an official Ultimate
                                    Guitar Tabs application for iPhone,
                                    iPad or Android to access legitimate
                                    chords, guitar, bass, and drum tabs
                                    from Ultimate-Guitar.com database.

                                    Type "ultimate guitar tabs" in Apple
                                    App Store's or Android Market's
                                    search to find the application.
                              The Sound Of Truth                                


                           As I Lay Dying

Tabbed by-Trevor Winchenbaugh
Email-ZeroSkater7286@aol.com
AIM-ZeroSkater7286


Played best with a pick.



     W                     S S S S S S S S S S S S S S S S  
F||-------------------||-----------------------------------|
C||-------------------||*----------------------------------|
G||-------------------||*----------------------------------|
C||-------------------||---0-0-0-0-0-0-0-0-0-0-0-0-0-0-0-0-|


  S S S S S S S S S S S S S S S S    S S S S S S S S S S S S S S S S  
----------------------------------|----------------------------------|
----------------------------------|----------------------------------|
----------------------------------|----------------------------------|
--0-0-0-0-0-0-0-0-0-0-0-0-0-0-0-0-|--8-8-8-8-8-8-8-8-8-8-8-8-8-8-8-8-|


  S S S S S S S S S S S S S S S S    S S S S S S S S S S S S S S S S  
----------------------------------|----------------------------------|
----------------------------------|----------------------------------|
----------------------------------|----------------------------------|
--8-8-8-8-8-8-8-8-8-8-8-8-8-8-8-8-|--0-0-0-0-0-0-0-0-0-0-0-0-0-0-0-0-|


  S S S S S S S S S S S S S S S S    S S S S S S S S S S S S S S S S  
----------------------------------|----------------------------------|
----------------------------------|----------------------------------|
----------------------------------|----------------------------------|
--0-0-0-0-0-0-0-0-0-0-0-0-0-0-0-0-|--3-3-3-3-3-3-3-3-3-3-3-3-3-3-3-3-|


  S S S S S S S S S S S S S S S S      S S S S S S S S S S S S S S S S  
-----------------------------------||----------------------------------|
----------------------------------*||----------------------------------|
----------------------------------*||----------------------------------|
--5-5-5-5-5-5-5-5-5-5-5-5-5-5-5-5--||--3-3-3-3-3-3-3-3-3-3-3-3-3-3-3-3-|


  S S S S S S S S S S S S S S S S    S S S S S S S S S S S S S S S S  
----------------------------------|----------------------------------|
----------------------------------|----------------------------------|
----------------------------------|----------------------------------|
--3-3-3-3-3-3-3-3-3-3-3-3-3-3-3-3-|--5-5-5-5-5-5-5-5-5-5-5-5-5-5-5-5-|


  S S S S S S S S S S S S S S S S    W                   W                 
----------------------------------|-------------------|-------------------|
----------------------------------|-------------------|-------------------|
----------------------------------|-------------------|-------------------|
--7-7-7-7-7-7-7-7-7-7-7-7-7-7-7-7-|--0----------------|--L----------------|


  H.           E   E      W                   H.           E   E   
----------------------|--------------------|----------------------|
----------------------|--------------------|----------------------|
----------------------|--------------------|----------------------|
--0------------L--10--|---L----------------|--8------------L--10--|


   W                   Q    E  E  E  E  E  E     E  E  E  E  E  E  E  E   
--------------------|-------------------------|--------------------------|
--------------------|-------------------------|--------------------------|
--------------------|-------------------------|--------------------------|
---L----------------|--0----0--0--0--0--0--0--|--0--0--0--0--0--0--0--0--|


    W                   W                   H.           E   E   
|--------------------|-------------------|----------------------|
|*-------------------|-------------------|----------------------|
|*-------------------|-------------------|----------------------|
|---0----------------|--L----------------|--3------------L--10--|


   W                   H.           E   E      W                 
--------------------|----------------------|--------------------|
--------------------|----------------------|--------------------|
--------------------|----------------------|--------------------|
---L----------------|--8------------L--10--|---L----------------|


  W                   W                      S S S S S S S S S S S S S S S S  
-------------------|--------------------||-----------------------------------|
-------------------|-------------------*||*----------------------------------|
-------------------|-------------------*||*----------------------------------|
--0----------------|--L-----------------||---0-0-0-0-0-0-0-0-0-0-0-0-0-0-0-0-|


  S S S S S S S S  S  S  S  S  S  S  S  S    S S S S S S S S S S S S S S S S  
------------------------------------------|----------------------------------|
------------------------------------------|----------------------------------|
------------------------------------------|----------------------------------|
--0-0-0-0-0-0-0-0-10-10-10-10-10-10-10-10-|--0-0-0-0-0-0-0-0-0-0-0-0-0-0-0-0-|


  S S S S S S S S  S  S  S  S  S  S  S  S    S S S S S S S S S S S S S S S S  
------------------------------------------|----------------------------------|
------------------------------------------|----------------------------------|
------------------------------------------|----------------------------------|
--0-0-0-0-0-0-0-0-10-10-10-10-10-10-10-10-|--8-8-8-8-8-8-8-8-8-8-8-8-8-8-8-8-|


  S S S S S S S S  S  S  S  S  S  S  S  S    S S S S S S S S S S S S S S S S  
------------------------------------------|----------------------------------|
------------------------------------------|----------------------------------|
------------------------------------------|----------------------------------|
--8-8-8-8-8-8-8-8-10-10-10-10-10-10-10-10-|--8-8-8-8-8-8-8-8-8-8-8-8-8-8-8-8-|


                                        |--3--|  |--3--|  |--3--|  |--3--|   
  S S S S S S S S S S S S S S S S       E  E  E  E  E  E  E  E  E  E  E  E   
-----------------------------------||---------------------------------------|
----------------------------------*||*--------------------------------------|
----------------------------------*||*--------------------------------------|
--8-8-8-8-8-8-8-8-7-7-7-7-3-3-3-3--||---0--0--0--0--0--0--0--0--0--0--0--0--|


  |--3--|  |--3--|  |--3--|  |--3--|     |--3--|  |--3--|  |--3--|  |--3--|   
  E  E  E  E  E  E  E  E  E  E  E  E     E  E  E  E  E  E  E  E  E  E  E  E   
--------------------------------------|--------------------------------------|
--------------------------------------|--------------------------------------|
--------------------------------------|--------------------------------------|
--0--0--0--0--0--0--0--0--0--0--0--0--|--8--8--8--8--8--8--8--8--8--8--8--8--|


  |--3--|  |--3--|  |--3--|  |--3--|     |--3--|  |--3--|  |--3--|  |--3--|   
  E  E  E  E  E  E  E  E  E  E  E  E     E  E  E  E  E  E  E  E  E  E  E  E   
--------------------------------------|--------------------------------------|
--------------------------------------|--------------------------------------|
--------------------------------------|--------------------------------------|
--8--8--8--8--8--8--8--8--8--8--8--8--|--0--0--0--0--0--0--0--0--0--0--0--0--|


  |--3--|  |--3--|  |--3--|  |--3--|     |--3--|  |--3--|  |--3--|  |--3--|   
  E  E  E  E  E  E  E  E  E  E  E  E     E  E  E  E  E  E  E  E  E  E  E  E   
--------------------------------------|--------------------------------------|
--------------------------------------|--------------------------------------|
--------------------------------------|--------------------------------------|
--0--0--0--0--0--0--0--0--0--0--0--0--|--3--3--3--3--3--3--3--3--3--3--3--3--|


  |--3--|  |--3--|  |--3--|  |--3--|       |--3--|  |--3--|  |--3--|  |--3--|   
  E  E  E  E  E  E  E  E  E  E  E  E       E  E  E  E  E  E  E  E  E  E  E  E   
---------------------------------------||--------------------------------------|
--------------------------------------*||--------------------------------------|
--------------------------------------*||--------------------------------------|
--5--5--5--5--5--5--5--5--5--5--5--5---||--3--3--3--3--3--3--3--3--3--3--3--3--|


  |--3--|  |--3--|  |--3--|  |--3--|     |--3--|  |--3--|  |--3--|  |--3--|   
  E  E  E  E  E  E  E  E  E  E  E  E     E  E  E  E  E  E  E  E  E  E  E  E   
--------------------------------------|--------------------------------------|
--------------------------------------|--------------------------------------|
--------------------------------------|--------------------------------------|
--3--3--3--3--3--3--3--3--3--3--3--3--|--5--5--5--5--5--5--5--5--5--5--5--5--|


  |--3--|  |--3--|  |--3--|  |--3--|                                           
  E  E  E  E  E  E  E  E  E  E  E  E     W                   W                 
--------------------------------------|-------------------|-------------------|
--------------------------------------|-------------------|-------------------|
--------------------------------------|-------------------|-------------------|
--7--7--7--7--7--7--7--7--7--7--7--7--|--0----------------|--L----------------|


  W                   W                   H.           E   E   
-------------------|-------------------|----------------------|
-------------------|-------------------|----------------------|
-------------------|-------------------|----------------------|
--0----------------|--L----------------|--3------------L--10--|


   W                   H.           E   E      W                 
--------------------|----------------------|--------------------|
--------------------|----------------------|--------------------|
--------------------|----------------------|--------------------|
---L----------------|--8------------L--10--|---L----------------|


  W                   W                   W                   W                 
-------------------|-------------------|-------------------|-------------------|
-------------------|-------------------|-------------------|-------------------|
-------------------|-------------------|-------------------|-------------------|
--0----------------|--L----------------|--0----------------|--L----------------|


  H.           E   E      W                   H.           E   E   
----------------------|--------------------|----------------------|
----------------------|--------------------|----------------------|
----------------------|--------------------|----------------------|
--3------------L--10--|---L----------------|--8------------L--10--|


   W                    W                    H         H         
--------------------|--------------------|----------------------|
--------------------|--------------------|----------------------|
--------------------|--------------------|----------------------|
---L----------------|--12----------------|---L--------10--------|


   W                    H         H              E   E  E  E  E   E  E  E   
--------------------|-----------------------||-----------------------------|
--------------------|-----------------------||*--3p--0--------3p--0--------|
--------------------|-----------------------||*---------0--0---------0--0--|
--12----------------|---L--------12s--------||-----------------------------|


  E   E  E  E  S S S S S S S S    W                   W                 
-------------------------------|-------------------|-------------------|
--3p--0------------------------|-------------------|-------------------|
---------0--0--3-3-3-3-3-3-3-3-|-------------------|-------------------|
-------------------------------|--8----------------|--L----------------|


  H.           E  E     W                   H.           E  E   
---------------------|-------------------|---------------------|
---------------------|-------------------|---------------------|
---------------------|-------------------|---------------------|
--0------------L--3--|--L----------------|--5------------L--7--|


  W                     H.           E   E      W                 
--------------------||----------------------|--------------------|
-------------------*||----------------------|--------------------|
-------------------*||----------------------|--------------------|
--L-----------------||--8------------L--10--|---L----------------|


  W                   H        E   E   E   E     W                 
-------------------|--------------------------|-------------------|
-------------------|--------------------------|-------------------|
-------------------|--------------------------|-------------------|
--0----------------|--L--------L--10--10--10--|--0----------------|


  H        E   E   E   E     W                   H        E   E   E   E   
--------------------------|-------------------|--------------------------|
--------------------------|-------------------|--------------------------|
--------------------------|-------------------|--------------------------|
--L--------L--10--10--10--|--8----------------|--L--------L--10--10--10--|


                      |----3----|                                   
  W                   Q    Q    Q    Q    Q       W                 
-------------------|---------------------------|-------------------|
-------------------|---------------------------|-------------------|
-------------------|---------------------------|-------------------|
--8----------------|--8----8----8----7----3----|--8----------------|


  H        Q    Q       W                   W                 
---------------------|-------------------|-------------------|
---------------------|-------------------|-------------------|
---------------------|-------------------|-------------------|
--L--------7----3----|--0----------------|--L----------------|


  W                    W                   W                 
-------------------|--------------------|-------------------|
-------------------|--------------------|-------------------|
-------------------|--------------------|-------------------|
--0----------------|--10----------------|--8----------------|


   W                   W                   W                 
--------------------|-------------------|-------------------|
--------------------|-------------------|-------------------|
--------------------|-------------------|-------------------|
--10----------------|--0----------------|--L----------------|


  W                   W                   W                 
-------------------|-------------------|-------------------|
-------------------|-------------------|-------------------|
-------------------|-------------------|-------------------|
--0----------------|--L----------------|--3----------------|


   W                   W                    W                 
--------------------|-------------------|--------------------|
--------------------|-------------------|--------------------|
--------------------|-------------------|--------------------|
--10----------------|--8----------------|--10----------------|


  Q    E  E  E  E  E  E     E  E  E  E  E  E  E  E     W                 
-------------------------|--------------------------|-------------------|
-------------------------|--------------------------|-------------------|
-------------------------|--------------------------|-------------------|
--0----0--0--0--0--0--0--|--0--0--0--0--0--0--0--0--|--0----------------|


  W                   H.           E   E      W                 
-------------------|----------------------|--------------------|
-------------------|----------------------|--------------------|
-------------------|----------------------|--------------------|
--L----------------|--3------------L--10--|---L----------------|


    H.           E   E      W                   W                 
|-----------------------|--------------------|-------------------|
|*----------------------|--------------------|-------------------|
|*----------------------|--------------------|-------------------|
|---8------------L--10--|---L----------------|--0----------------|


  W                    W                    H         H         
-------------------|--------------------|----------------------|
-------------------|--------------------|----------------------|
-------------------|--------------------|----------------------|
--L----------------|--12----------------|---L--------10--------|


   W                    H         H              H         H         
--------------------|-----------------------||----------------------|
--------------------|----------------------*||----------------------|
--------------------|----------------------*||----------------------|
--12----------------|---L--------10---------||--12s-----------------|


  W                     W                   W                 
-------------------||--------------------|-------------------|
-------------------||*-------------------|-------------------|
-------------------||*-------------------|-------------------|
-------------------||--------------------|-------------------|


  W                   W                   W                   W                 
-------------------|-------------------|-------------------|-------------------|
-------------------|-------------------|-------------------|-------------------|
-------------------|-------------------|-------------------|-------------------|
-------------------|-------------------|-------------------|-------------------|


  W                   W                      W                 
-------------------|--------------------||--------------------|
-------------------|-------------------*||*-------------------|
-------------------|-------------------*||*-------------------|
-------------------|--------------------||--------------------|


  W                     W                   W                  
--------------------||-------------------|-------------------||
-------------------*||-------------------|-------------------||
-------------------*||-------------------|-------------------||
--------------------||-------------------|-------------------||




Duration Legend
---------------
W - whole
H - half
Q - quarter
E - 8th
S - 16th
T - 32nd
X - 64th
. - note dotted
|-n-|  - n-tuplets


Tablature Legend
----------------
L - tied note
x - dead note
g - grace note
(n) - ghost note
> - accentuded note
NH - natural harmonic
AH - artificial harmonic
TH - tapped harmonic
SH - semi harmonic
PH - pitch harmonic
h - hammer on
p - pull off
b - bend
br - bendRelease
pb - preBend
pbr - preBendRelease
brb - bendReleaseBend
\n/ - tremolo bar dip
\n - tremolo bar dive
-/n - tremolo bar Release up
/n\ - tremolo bar inverted dip
/n - tremolo bar return
-\n - tremolo bar Release down
S - shift slide
s - legato slide
/ -  slide into from below or out of upwards
\ -  slide into from above or out of downwards
~ - vibrato
W - wide vibrato
tr - trill
TP - tremolo picking
T - tapping
S - slap
P - pop
< - fade in
^ - brush up
v - brush down
comments
print report bad tab
2 comments total.
-2 reply
blubolt09 wrote on June 25 2009, 04:31 pm

It's not drop d..
it's drop c

but pretty good tab

+1 reply
MusicMan24 wrote on August 2 2009, 12:44 am

This song is in Drop D

I want to post or [tab]
guest
You may want to rate the tab now too:
select rating
Please do not post tabs as comments. Select "correction" instead!