Oops, an error
Loading. Please wait.

The Sound Of Truth Tab

ver2
ver2

Solo

Whole song

More versions @911Tabs.com
47,945 views 1 this week
19 commentsread comments
1 2 3 4 5
accurate
x 7
Autoscroll
+/-
esc
set tempo
stop
Contributor
Tuning
D A D G B E
Hey! There's an official Ultimate Guitar app which is ideal
for learning songs when you're away from computer. Get the app
WARNING: You are trying to view
                                    content from Ultimate-Guitar.com
                                    in an unauthorized application,
                                    which is prohibited.

                                    Please use an official Ultimate
                                    Guitar Tabs application for iPhone,
                                    iPad or Android to access legitimate
                                    chords, guitar, bass, and drum tabs
                                    from Ultimate-Guitar.com database.

                                    Type "ultimate guitar tabs" in Apple
                                    App Store's or Android Market's
                                    search to find the application.
Gtr I (D A D G B E) - 'Untitled'
Gtr II (D A D G B E) - 'Untitled'
Gtr III (D A D G B E) - 'Untitled'


INTRO


  Q=160
 4/4
  Gtr I
  S S S S S S S S S S S S S S S S   S S S S S S S S S S S S S S S S
|---------------------------------|----------------------------------|
|---------------------------------|----------------------------------|
|---------------------------------|----------------------------------|
|-0-0-0-0-0-0-0-0-0-0-0-0-0-0-0-0-|-0-0-0-0-0-0-0-0-2-2-2-2-2-2-2-2--|
|---------------------------------|----------------------------------|
|---------------------------------|----------------------------------|


  S S S S S S S S S S S S S S S S   S S S S S S S S S S S S S S S S
|---------------------------------|---------------------------------|
|---------------------------------|---------------------------------|
|---------------------------------|---------------------------------|
|-0-0-0-0-0-0-0-0-0-0-0-0-0-0-0-0-|-0-0-0-0-0-0-0-0-2-2-2-2-2-2-2-2-|
|---------------------------------|---------------------------------|
|---------------------------------|---------------------------------|


  S S S S S S S S S S S S S S S S   S S S S S S S S S S S S S S S S
|---------------------------------|---------------------------------|
|---------------------------------|---------------------------------|
|---------------------------------|---------------------------------|
|-0-0-0-0-0-0-0-0-0-0-0-0-0-0-0-0-|-0-0-0-0-0-0-0-0-2-2-2-2-2-2-2-2-|
|---------------------------------|---------------------------------|
|---------------------------------|---------------------------------|


  S S S S S S S S S S S S S S S S   S S S S S S S S S S S S S S S S
|---------------------------------|---------------------------------|
|---------------------------------|---------------------------------|
|---------------------------------|---------------------------------|
|-7-7-7-7-7-7-7-7-7-7-7-7-7-7-7-7-|-5-5-5-5-5-5-5-5-7-7-7-7-7-7-3-3-|
|---------------------------------|---------------------------------|
|---------------------------------|---------------------------------|


  S S S S S S S S S S S S S S S S   S S S S S S S S S S S S S S S S
|---------------------------------|---------------------------------|
|---------------------------------|---------------------------------|
|---------------------------------|---------------------------------|
|-0-0-0-0-0-0-0-0-0-0-0-0-0-0-0-0-|-0-0-0-0-0-0-0-0-2-2-2-2-2-2-2-2-|
|---------------------------------|---------------------------------|
|---------------------------------|---------------------------------|


  S S S S S S S S S S S S S S S S   S S S S S S S S S S S S S S S S
|---------------------------------|---------------------------------|
|---------------------------------|---------------------------------|
|---------------------------------|---------------------------------|
|-0-0-0-0-0-0-0-0-0-0-0-0-0-0-0-0-|-0-0-0-0-0-0-0-0-2-2-2-2-2-2-2-2-|
|---------------------------------|---------------------------------|
|---------------------------------|---------------------------------|


  S S S S S S S S S S S S S S S S   S S S S S S S S S S S S S S S S
|---------------------------------|---------------------------------|
|---------------------------------|---------------------------------|
|---------------------------------|---------------------------------|
|-3-3-3-3-3-3-3-3-3-3-3-3-3-3-3-3-|-3-3-3-3-3-3-3-3-3-3-3-3-3-3-3-3-|
|---------------------------------|---------------------------------|
|---------------------------------|---------------------------------|


  S S S S S S S S S S S S S S S S    S S S S S S S S S S S S S S S S
|----------------------------------|----------------------------------|
|----------------------------------|----------------------------------|
|----------------------------------|----------------------------------|
|-5-5-5-5-5-5-5-5-5-5-5-5-5-5-5-5--|-7-7-7-7-7-7-7-7-7-7-7-7-7-7-7-7--|
|----------------------------------|----------------------------------|
|----------------------------------|----------------------------------|


VERSE


   E S S  E  E S S  E S S  E    S  S  E S S  E  E S S  E S S
|----------------------------|-------------------------------|
|----------------------------|-------------------------------|
|----------------------------|-------------------------------|
|-12-0-0-12-15-0-0-15-0-0-14-|--0--0-14-0-0-14-17-0-0-17-0-0-|
|----------------------------|-------------------------------|
|----------------------------|-------------------------------|
|
| Gtr II
|  W                           +W
|----------------------------|-------------------------------|
|----------------------------|-------------------------------|
|----------------------------|-------------------------------|
|--0-------------------------|-(0)---------------------------|
|--0-------------------------|-(0)---------------------------|
|--0-------------------------|-(0)---------------------------|


   E  S S  E  E S S  E S S  E     S  S  E S S  E  S  S S  S  S S  S  S
|-----------------------------|----------------------------------------|
|-----------------------------|----------------------------------------|
|-----------------------------|------------------12-10-9----10-9-------|
|-15--0-0-15-19-0-0-19-0-0-14-|---0--0-14-0-0-14---------12------12-10-|
|-----------------------------|----------------------------------------|
|-----------------------------|----------------------------------------|
|
|  H.                E      E    +W
|-----------------------------|----------------------------------------|
|-----------------------------|----------------------------------------|
|-----------------------------|----------------------------------------|
|--0-----------------------10-|-(10)-----------------------------------|
|--0-----------------------10-|-(10)-----------------------------------|
|--0-----------------------10-|-(10)-----------------------------------|


   E  S S  E  E S S  E S S  E     S   S  E  S  S  E  E  S  S  E S  S
|-----------------------------|--------------------------------------|
|-----------------------------|--------------------------------------|
|------------10-----10--------|--------------------------------------|
|-12--8-8-12----8-8----8-8-14-|--10--10-14-10-10-14-12-10-10-12-7-12-|
|-----------------------------|--------------------------------------|
|-----------------------------|--------------------------------------|
|
|  H.                  E    E    +W
|-----------------------------|--------------------------------------|
|-----------------------------|--------------------------------------|
|-----------------------------|--------------------------------------|
|--8-----------------------10-|-(10)---------------------------------|
|--8-----------------------10-|-(10)---------------------------------|
|--8-----------------------10-|-(10)---------------------------------|


   T          T          T          T
   S  S S  S  S  S S  S  S  S S  S  S  S S  S
|---------------------------------------------|
|---------------------------------------------|
|---------------------------------------------|
|-15-12-7-12-15-12-7-12-15-12-7-12-15-12-7-12-|
|---------------------------------------------|
|---------------------------------------------|
|
|  E    E     E    E     E    E     E    E
|---------------------------------------------|
|---------------------------------------------|
|---------------------------------------------|
|--0----0-----0----0-----0----0-----0----0----|
|--0----0-----0----0-----0----0-----0----0----|
|--0----0-----0----0-----0----0-----0----0----|


   T          T          T          T
   S  S S  S  S  S S  S  S  S S  S  S  S S  S
|-----------------------------------------------|
|-----------------------------------------------|
|-----------------------------------------------|
|-15-12-7-12-15-12-7-12-14-10-7-10-14-10-7-10---|
|-----------------------------------------------|
|-----------------------------------------------|
|
|  E    E     E    E     E    E     E    E
|-----------------------------------------------|
|-----------------------------------------------|
|-----------------------------------------------|
|--0----0-----0----0-----0----0-----0----0------|
|--0----0-----0----0-----0----0-----0----0------|
|--0----0-----0----0-----0----0-----0----0------|


play verse riff over these chords


  W          +W           H..       E   +W
|----------|------------|-------------|------------|
|----------|------------|-------------|------------|
|----------|------------|-------------|------------|
|-0--------|-(0)--------|-3---------5-|-(5)--------|
|-0--------|-(0)--------|-3---------3-|-(3)--------|
|-0--------|-(0)--------|-3-----------|------------|


  H..       E   +W           W          +W
|-------------|------------|----------|--------|
|-------------|------------|----------|--------|
|-------------|------------|----------|--------|
|-3---------5-|-(5)--------|-0--------|-(0)----|
|-1---------3-|-(3)--------|-0--------|-(0)----|
|-------------|------------|-0--------|-(0)----|


BRIDGE


     S S S S  S S S S  S S S S  S S S S
||--------------------------------------|
||o-------------------------------------|
||--------------------------------------|
||--12-0-0-0-12-0-0-0-12-0-0-0-12-0-0-0-|
||o-------------------------------------|
||--------------------------------------|
|
|    S S S S  S S S S  S S S S  S S S S
||--------------------------------------|
||o-------------------------------------|
||--------------------------------------|
||--15-0-0-0-15-0-0-0-15-0-0-0-15-0-0-0-|
||o-------------------------------------|
||--------------------------------------|


   S S S S  S S S S  S  S  S  S  S  S  S  S
|--------------------------------------------|
|--------------------------------------------|
|--------------------------------------------|
|-12-0-0-0-12-0-0-0-14-14-15-15-14-14-15-15--|
|--------------------------------------------|
|--------------------------------------------|
|
|  S S S S  S S S S  S  S  S  S  S  S  S  S
|--------------------------------------------|
|--------------------------------------------|
|--------------------------------------------|
|-15-0-0-0-15-0-0-0-17-17-19-19-17-17-19-19--|
|--------------------------------------------|
|--------------------------------------------|


   S S S S  S S S S  S S S S  S S S S
|-------------------------------------|
|-------------------------------------|
|-------------------------------------|
|-12-0-0-0-12-0-0-0-12-0-0-0-12-0-0-0-|
|-------------------------------------|
|-------------------------------------|
|
|  S S S S  S S S S  S S S S  S S S S
|-------------------------------------|
|-------------------------------------|
|-------------------------------------|
|-15-0-0-0-15-0-0-0-15-0-0-0-15-0-0-0-|
|-------------------------------------|
|-------------------------------------|


   S S S S  S S S S  S  S  S  S  S  S  S  S
|---------------------------------------------|
|---------------------------------------------|
|---------------------------------------------|
|-12-0-0-0-12-0-0-0-10-10-12-12-10-10-12-12---|
|---------------------------------------------|
|---------------------------------------------|
|
|  S S S S  S S S S  S  S  S  S  S  S  S  S
|---------------------------------------------|
|---------------------------------------------|
|---------------------------------------------|
|-15-0-0-0-15-0-0-0-14-14-15-15-14-14-15-15---|
|---------------------------------------------|
|---------------------------------------------|


   S  S  S  S  S  S  S  S  S  S  S  S  S  S  S  S
|-------------------------------------------------|
|-------------------------------------------------|
|-------------------------------------------------|
|-------------------------------------------------|
|-13-13-17-17-13-13-17-17-13-13-17-17-13-13-17-17-|
|-------------------------------------------------|
|
|  S  S  S  S  S  S  S  S  S  S  S  S  S  S  S  S
|-------------------------------------------------|
|-------------------------------------------------|
|-------------------------------------------------|
|-12-12-17-17-12-12-17-17-12-12-17-17-12-12-17-17-|
|-------------------------------------------------|
|-------------------------------------------------|


   S  S  S  S  S  S  S  S  S  S  S  S  S  S  S  S
|---------------------------------------------------|
|---------------------------------------------------|
|---------------------------------------------------|
|-------------------------14-14-15-15-14-14-15-15---|
|-13-13-17-17-13-13-17-17---------------------------|
|---------------------------------------------------|
|
|  S  S  S  S  S  S  S  S  S  S  S  S  S  S  S  S
|---------------------------------------------------|
|---------------------------------------------------|
|-------------------------12-12-14-14-12-12-14-14---|
|-12-12-17-17-12-12-17-17---------------------------|
|---------------------------------------------------|
|---------------------------------------------------|


   S  S  S  S  S  S  S  S  S  S  S  S  S  S  S  S
|-------------------------------------------------|
|-------------------------------------------------|
|-------------------------------------------------|
|-------------------------------------------------|
|-13-13-17-17-13-13-17-17-13-13-17-17-13-13-17-17-|
|-------------------------------------------------|
|
|  S  S  S  S  S  S  S  S  S  S  S  S  S  S  S  S
|-------------------------------------------------|
|-------------------------------------------------|
|-------------------------------------------------|
|-12-12-17-17-12-12-17-17-12-12-17-17-12-12-17-17-|
|-------------------------------------------------|
|-------------------------------------------------|


  1.
   S  S  S  S  S  S  S  S  S  S  S  S  S  S  E
|-----------------------------------------------------||-|
|----------------------------------------------------o||-|
|-----------------------------------------------------||-|
|-------------------------14-14-14-14-14-14-14\-------||-|
|-13-13-17-17-13-13-17-17----------------------------o||-|
|-----------------------------------------------------||-|
|
|  S  S  S  S  S  S  S  S  S  S  S  S  S  S  S   E
|-----------------------------------------------------||-|
|----------------------------------------------------o||-|
|-------------------------12-12-12-12-12-12-12--12\---||-|
|-12-12-17-17-12-12-17-17-----------------------------||-|
|----------------------------------------------------o||-|
|-----------------------------------------------------||-|


  2.
   S  S  S  S  S  S  S  S  H
|------------------------------|----|
|------------------------------|----|
|------------------------------|----|
|-------------------------14---|----|
|-13-13-17-17-13-13-17-17------|----|
|------------------------------|----|
|
|  S  S  S  S  S  S  S  S  H
|------------------------------|----|
|------------------------------|----|
|-------------------------12---|----|
|-12-12-17-17-12-12-17-17------|----|
|------------------------------|----|
|------------------------------|----|



INTRO REVISITED


  |-3-| |-3-| |-3-| |-3-|   |-3-| |-3-| |-3-| |-3-|
  E E E E E E E E E E E E   E E E E E E E E E E E E
|-------------------------|-------------------------|
|-------------------------|-------------------------|
|-7-7-7-7-7-7-7-7-7-7-7-7-|-7-7-7-7-7-7-9-9-9-9-9-9-|
|-------------------------|-------------------------|
|-5-5-5-5-5-5-5-5-5-5-5-5-|-5-5-5-5-5-5-7-7-7-7-7-7-|
|-------------------------|-------------------------|
|
| |-3-| |-3-| |-3-| |-3-|   |-3-| |-3-| |-3-| |-3-|
| E E E E E E E E E E E E   E E E E E E E E E E E E
|-------------------------|-------------------------|
|-------------------------|-------------------------|
|-------------------------|-------------------------|
|-------------------------|-------------------------|
|-------------------------|-------------------------|
|-0-0-0-0-0-0-0-0-0-0-0-0-|-0-0-0-0-0-0-0-0-0-0-0-0-|


  |-3-| |-3-| |-3-| |-3-|   |-3-| |-3-| |-3-| |-3-|
  E E E E E E E E E E E E   E E E E E E E E E E E E
|-------------------------|-------------------------|
|-------------------------|-------------------------|
|-7-7-7-7-7-7-7-7-7-7-7-7-|-7-7-7-7-7-7-9-9-9-9-9-9-|
|-------------------------|-------------------------|
|-5-5-5-5-5-5-5-5-5-5-5-5-|-5-5-5-5-5-5-7-7-7-7-7-7-|
|-------------------------|-------------------------|
|
| |-3-| |-3-| |-3-| |-3-|   |-3-| |-3-| |-3-| |-3-|
| E E E E E E E E E E E E   E E E E E E E E E E E E
|-------------------------|-------------------------|
|-------------------------|-------------------------|
|-------------------------|-------------------------|
|-------------------------|-------------------------|
|-1-1-1-1-1-1-1-1-1-1-1-1-|-1-1-1-1-1-1-1-1-1-1-1-1-|
|-------------------------|-------------------------|


  |-3-| |-3-| |-3-| |-3-|   |-3-| |-3-| |-3-| |-3-|
  E E E E E E E E E E E E   E E E E E E E E E E E E
|-------------------------|-------------------------|
|-------------------------|-------------------------|
|-7-7-7-7-7-7-7-7-7-7-7-7-|-7-7-7-7-7-7-9-9-9-9-9-9-|
|-------------------------|-------------------------|
|-5-5-5-5-5-5-5-5-5-5-5-5-|-5-5-5-5-5-5-7-7-7-7-7-7-|
|-------------------------|-------------------------|
|
| |-3-| |-3-| |-3-| |-3-|   |-3-| |-3-| |-3-| |-3-|
| E E E E E E E E E E E E   E E E E E E E E E E E E
|-------------------------|-------------------------|
|-------------------------|-------------------------|
|-------------------------|-------------------------|
|-------------------------|-------------------------|
|-------------------------|-------------------------|
|-0-0-0-0-0-0-0-0-0-0-0-0-|-0-0-0-0-0-0-0-0-0-0-0-0-|


   |--3--|  |--3--|  |--3--|  |--3--|    |--3--|  |--3--|  |--3--|  |--3--|
   E  E  E  E  E  E  E  E  E  E  E  E    E  E  E  E  E  E  E  E  E  E  E  E
|-------------------------------------|-------------------------------------|
|-------------------------------------|-------------------------------------|
|-14-14-14-14-14-14-14-14-14-14-14-14-|-12-12-12-12-12-12-14-14-14-14-14-10-|
|-------------------------------------|-------------------------------------|
|-12-12-12-12-12-12-12-12-12-12-12-12-|-10-10-10-10-10-10-12-12-12-12-12--8-|
|-------------------------------------|-------------------------------------|
|
|  |--3--|  |--3--|  |--3--|  |--3--|    |--3--|  |--3--|  |--3--|  |--3--|
|  E  E  E  E  E  E  E  E  E  E  E  E    E  E  E  E  E  E  E  E  E  E  E  E
|-------------------------------------|-------------------------------------|
|-------------------------------------|-------------------------------------|
|-------------------------------------|-------------------------------------|
|-------------------------------------|-------------------------------------|
|-------------------------------------|-------------------------------------|
|--3--3--3--3--3--3--3--3--3--3--3--3-|--5--5--5--5--5--5--5--5--5--5--5--5-|


  |-3-| |-3-| |-3-| |-3-|   |-3-| |-3-| |-3-| |-3-|
  E E E E E E E E E E E E   E E E E E E E E E E E E
|-------------------------|-------------------------|
|-------------------------|-------------------------|
|-7-7-7-7-7-7-7-7-7-7-7-7-|-7-7-7-7-7-7-9-9-9-9-9-9-|
|-------------------------|-------------------------|
|-5-5-5-5-5-5-5-5-5-5-5-5-|-5-5-5-5-5-5-7-7-7-7-7-7-|
|-------------------------|-------------------------|
|
| |-3-| |-3-| |-3-| |-3-|   |-3-| |-3-| |-3-| |-3-|
| E E E E E E E E E E E E   E E E E E E E E E E E E
|-------------------------|-------------------------|
|-------------------------|-------------------------|
|-------------------------|-------------------------|
|-------------------------|-------------------------|
|-------------------------|-------------------------|
|-0-0-0-0-0-0-0-0-0-0-0-0-|-0-0-0-0-0-0-0-0-0-0-0-0-|


  |-3-| |-3-| |-3-| |-3-|   |-3-| |-3-| |-3-| |-3-|
  E E E E E E E E E E E E   E E E E E E E E E E E E
|-------------------------|-------------------------|
|-------------------------|-------------------------|
|-7-7-7-7-7-7-7-7-7-7-7-7-|-7-7-7-7-7-7-9-9-9-9-9-9-|
|-------------------------|-------------------------|
|-5-5-5-5-5-5-5-5-5-5-5-5-|-5-5-5-5-5-5-7-7-7-7-7-7-|
|-------------------------|-------------------------|
|
| |-3-| |-3-| |-3-| |-3-|   |-3-| |-3-| |-3-| |-3-|
| E E E E E E E E E E E E   E E E E E E E E E E E E
|-------------------------|-------------------------|
|-------------------------|-------------------------|
|-------------------------|-------------------------|
|-------------------------|-------------------------|
|-1-1-1-1-1-1-1-1-1-1-1-1-|-1-1-1-1-1-1-1-1-1-1-1-1-|
|-------------------------|-------------------------|


   |--3--|  |--3--|  |--3--|  |--3--|    |--3--|  |--3--|  |--3--|  |--3--|
   E  E  E  E  E  E  E  E  E  E  E  E    E  E  E  E  E  E  E  E  E  E  E  E
|-------------------------------------|-------------------------------------|
|-------------------------------------|-------------------------------------|
|-10-10-10-10-10-10-10-10-10-10-10-10-|-10-10-10-10-10-10-10-10-10-10-10-10-|
|-------------------------------------|-------------------------------------|
|--8--8--8--8--8--8--8--8--8--8--8--8-|--8--8--8--8--8--8--8--8--8--8--8--8-|
|-------------------------------------|-------------------------------------|
|
|  |--3--|  |--3--|  |--3--|  |--3--|    |--3--|  |--3--|  |--3--|  |--3--|
|  E  E  E  E  E  E  E  E  E  E  E  E    E  E  E  E  E  E  E  E  E  E  E  E
|-------------------------------------|-------------------------------------|
|-------------------------------------|-------------------------------------|
|-------------------------------------|-------------------------------------|
|-------------------------------------|-------------------------------------|
|-------------------------------------|-------------------------------------|
|--3--3--3--3--3--3--3--3--3--3--3--3-|--3--3--3--3--3--3--3--3--3--3--3--3-|


   |--3--|  |--3--|  |--3--|  |--3--|    |--3--|  |--3--|  |--3--|  |--3--|
   E  E  E  E  E  E  E  E  E  E  E  E    E  E  E  E  E  E  E  E  E  E  E  E
|-------------------------------------|-------------------------------------|
|-------------------------------------|-------------------------------------|
|-12-12-12-12-12-12-12-12-12-12-12-12-|-14-14-14-14-14-14-14-14-14-14-14-14-|
|-------------------------------------|-------------------------------------|
|-10-10-10-10-10-10-10-10-10-10-10-10-|-12-12-12-12-12-12-12-12-12-12-12-12-|
|-------------------------------------|-------------------------------------|
|
|  |--3--|  |--3--|  |--3--|  |--3--|    |--3--|  |--3--|  |--3--|  |--3--|
|  E  E  E  E  E  E  E  E  E  E  E  E    E  E  E  E  E  E  E  E  E  E  E  E
|-------------------------------------|-------------------------------------|
|-------------------------------------|-------------------------------------|
|-------------------------------------|-------------------------------------|
|-------------------------------------|-------------------------------------|
|-------------------------------------|-------------------------------------|
|--5--5--5--5--5--5--5--5--5--5--5--5-|--7--7--7--7--7--7--7--7--7--7--7--7-|


  W               W
|--------------|--------|
|--------------|--------|
|--------------|--------|
|-0------------|--x\----|
|-0------------|--x\----|
|-0------------|--x\----|


PLAY VERSE again, on second time use this ending


   T          T          T          T
   S  S S  S  S  S S  S  S  S S  S  S  S S  S
|---------------------------------------------|
|---------------------------------------------|
|---------------------------------------------|
|-15-12-7-12-15-12-7-12-15-12-7-12-15-12-7-12-|
|---------------------------------------------|
|---------------------------------------------|
|
|  W
|---------------------------------------------|
|---------------------------------------------|
|---------------------------------------------|
|--7------------------------------------------|
|--5------------------------------------------|
|---------------------------------------------|


   T           T          T          T
   S   S S  S  S  S S  S  S  S S  S  S  S S  S
|------------------------------------------------|
|------------------------------------------------|
|------------------------------------------------|
|-15--12-7-12-15-12-7-12-14-10-7-10-14-10-7-10---|
|------------------------------------------------|
|------------------------------------------------|
|
| +H                      H
|------------------------------------------------|
|------------------------------------------------|
|------------------------------------------------|
|-(7)---------------------5----------------------|
|-(5)---------------------3----------------------|
|------------------------------------------------|


   T          T          T          T            T           T
   S  S S  S  S  S S  S  S  S S  S  S  S S  S    S   S S  S  S  S  S   S
|---------------------------------------------|-----------------------------|
|---------------------------------------------|-----------------------------|
|---------------------------------------------|-----------------------------|
|-15-12-7-12-15-12-7-12-15-12-7-12-15-12-7-12-|-15--12-7-12-15-12--7--12----|
|---------------------------------------------|-----------------------------|
|---------------------------------------------|-----------------------------|
|
|  W                                            +H                 H
|---------------------------------------------|-----------------------------|
|---------------------------------------------|-----------------------------|
|---------------------------------------------|-----------------------------|
|--7------------------------------------------|-(7)-------------------------|
|--5------------------------------------------|-(5)---------------12\-------|
|---------------------------------------------|-----------------------------|


BREAKDOWN


  E E E E E E E E   E E E E S S S S S S S S
|-----------------|-------------------------|
|-----------------|-------------------------|
|-----------------|-------------------------|
|-----------------|-------------------------|
|-8-5-----8-5-----|-8-5-----7-7-3-3-7-7-3-3-|
|-----0-0-----0-0-|-----0-0-----------------|
|
| E E E E E E E E   E E E E S S S S S S S S
|-----------------|-------------------------|
|-----------------|-------------------------|
|-----------------|-------------------------|
|-7-3-----7-3-----|-7-3-----5-5-2-2-5-5-2-2-|
|-----------------|-------------------------|
|-----0-0-----0-0-|-----0-0-----------------|


                            ~~                             ~~~
    E E E E E E E E    E  E H.        E   E E E E E E E   +W
||------------------|---------------|-------------------|-------------||-|
||o-----------------|---------------|-------------------|------------o||-|
||--------5-7---5-7-|-10--9-7-------|-----------------5-|-(5)---------||-|
||----7-3-----7-----|---------------|-7---5-3-5-7-5-7---|-------------||-|
||o-5---------------|---------------|-------------------|------------o||-|
||------------------|---------------|-------------------|-------------||-|
|
|   W                 +W              H..             E   +W
||------------------|---------------|-------------------|-------------||-|
||o-----------------|---------------|-------------------|------------o||-|
||--3---------------|-(3)-----------|-----------------5-|-(5)---------||-|
||--3---------------|-(3)-----------|-0---------------5-|-(5)---------||-|
||o-1---------------|-(1)-----------|-0---------------3-|-(3)--------o||-|
||------------------|---------------|-0-----------------|-------------||-|


                           ~~                               ~~~~
    E E E E E E E E    E E H.        E   E E E E E E  E    +W
||------------------|--------------|--------------------|----------||
||o-----------------|--------------|--------------------|---------o||
||--------5-7---5-7-|-10-9-7-------|------------------5-|--(5)-----||
||----7-3-----7-----|--------------|-7---5-3-5-7-5-7----|----------||
||o-5---------------|--------------|--------------------|---------o||
||------------------|--------------|--------------------|----------||
|
|                          ~~                               ~~~~
|   E E E E E E E E    E E H.        E   E E E E E E  E    +W
||------------------|--------------|--------------------|----------||
||o-------5-6---5-6-|-10-8-6-------|------------------5-|--(5)----o||
||----5-2-----5-----|--------------|-5---3-2-3-5-3-5----|----------||
||--3---------------|--------------|--------------------|----------||
||o-----------------|--------------|--------------------|---------o||
||------------------|--------------|--------------------|----------||
|
|   Gtr III
|   W                  W             H..              E    +W
||------------------|--------------|--------------------|----------||
||o-----------------|--------------|--------------------|---------o||
||------------------|--------------|--------------------|----------||
||--5---------------|--7-----------|-8---------------10-|-(10)-----||
||o-5---------------|--7-----------|-8---------------10-|-(10)----o||
||--5---------------|--7-----------|-8---------------10-|-(10)-----||



SOLO



    S S S S S S S S S S S S S S S S       S S S S S S S S S S S S S S S S
|-----------------------------------|-------------------------------------|
|-----------------------------------|-------------------------------------|
|---5-7-5-7-5-7-5-7-5-7-5-7-5-7-5-7-|-----5-7-5-7-5-7-5-9-7-9-7-9-7-9-7-9-|
|-----------------------------------|-------------------------------------|
|-----------------------------------|-------------------------------------|
|-----------------------------------|-------------------------------------|
|
| W                                   +H                E   E   E   E
|-----------------------------------|-------------------------------------|
|-----------------------------------|-------------------------------------|
|-----------------------------------|-------------------------------------|
|-0---------------------------------|-(0)-------------------5---5---5-----|
|-0---------------------------------|-(0)-------------------3---3---3-----|
|-0---------------------------------|-(0)---------------------------------|


    S  S S  S  S  S  S  S  S  S  S  S  S  S  S  S
|--------------------------------------------------|
|--------------------------------------------------|
|---9-10-9-12-10-12-10-14-12-14-12-15-14-15-14-15--|
|--------------------------------------------------|
|--------------------------------------------------|
|--------------------------------------------------|
|
| W
|--------------------------------------------------|
|--------------------------------------------------|
|--------------------------------------------------|
|-0------------------------------------------------|
|-0------------------------------------------------|
|-0------------------------------------------------|


   S   S  S  S  S  S  S  S  H
|------------------------------|
|------------------------------|
|-17--15-17-15-17-19-17-19-21--|
|------------------------------|
|------------------------------|
|------------------------------|
|
| +H            E  E  E  E
|------------------------------|
|------------------------------|
|------------------------------|
|-(0)--------------5--5--5-----|
|-(0)--------------3--3--3-----|
|-(0)--------------------------|


                     T
   |--3--|  |--3--|
   E  E  E  E  E  E  Q.    E      +H    S  S  S  S  S  S  E
|-17-13----------13-22b24r13---|-(13)--12-13-12-10-12-10-------|
|-------15----15---------------|-------------------------13----|
|----------14------------------|-------------------------------|
|------------------------------|-------------------------------|
|------------------------------|-------------------------------|
|------------------------------|-------------------------------|
|
|  W                              +H          E     E  E  E
|------------------------------|-------------------------------|
|------------------------------|-------------------------------|
|------------------------------|-------------------------------|
|--3---------------------------|--(3)---------------5--5--5----|
|--1---------------------------|--(1)---------------3--3--3----|
|------------------------------|-------------------------------|


   E     E  S  S  S     S  S  S  S     S  S  S  S     S
|-------10----------------------------------------------|
|-13b15----13-10-------10-13-10-------10-13-10-------10-|
|----------------12b14----------12b14----------12b14----|
|-------------------------------------------------------|
|-------------------------------------------------------|
|-------------------------------------------------------|
|
|  W
|-------------------------------------------------------|
|-------------------------------------------------------|
|-------------------------------------------------------|
|--3----------------------------------------------------|
|--1----------------------------------------------------|
|-------------------------------------------------------|


                            ~~
   S   S  S  S  S  S  S  S  H
|---------------------------------------|
|-13--10----10--------------------------|
|--------12----12-10----10-12-----------|
|--------------------12-----------------|
|---------------------------------------|
|---------------------------------------|
|
| +H         E                 E E E
|---------------------------------------|
|---------------------------------------|
|---------------------------------------|
|-(3)--------------------------2-2-2----|
|-(1)--------------------------0-0-0----|
|---------------------------------------|


   H     +E      E  E  E
|---------------------------|
|-13b15-(13)b15-13-10-------|
|---------------------10----|
|---------------------------|
|---------------------------|
|---------------------------|
|
|  W
|---------------------------|
|---------------------------|
|---------------------------|
|--0------------------------|
|--0------------------------|
|--0------------------------|


           |---3---|
   +H      Q  Q    Q      Q.    E  S  S  S  S  E  E
|------------10---12---|-12b13-10-12-13-12-10-12----|
|--------/10-----------|-------------------------13-|
|-(10)-----------------|----------------------------|
|----------------------|----------------------------|
|----------------------|----------------------------|
|----------------------|----------------------------|
|
|  +H         E E  E E    W
|----------------------|----------------------------|
|----------------------|----------------------------|
|----------------------|----------------------------|
|--(0)----------5--5-5-|--0-------------------------|
|--(0)----------3--3-3-|--0-------------------------|
|--(0)-----------------|--0-------------------------|


   +H     E   E   Q       S  S  S     S  S  S  S  S  S     S  S  S  S  S  S  S
|----------------------|-------------------------------------------------------|
|-(13)-----------------|-13-10-------10-15-10-13-10-------10-15-10-13-10----10-|
|---------------[10]---|-------12b14----------------12b14----------------12----|
|-----------/12--------|-------------------------------------------------------|
|----------------------|-------------------------------------------------------|
|----------------------|-------------------------------------------------------|
|
|  +H     E   E   E  E    W
|----------------------|-------------------------------------------------------|
|----------------------|-------------------------------------------------------|
|----------------------|-------------------------------------------------------|
|--(0)--------5---5--5-|--3----------------------------------------------------|
|--(0)--------3---3--3-|--1----------------------------------------------------|
|--(0)-----------------|-------------------------------------------------------|


   S   S  S     S  S  S  S  S  S     S  S  S  S  S  S  S
|----------------------------------------------------------|
|-13--10-------10-15-10-13-10-------10-15-10-13-10----10---|
|--------12b14----------------12b14----------------12------|
|----------------------------------------------------------|
|----------------------------------------------------------|
|----------------------------------------------------------|
|
| +H                           E        E     E     E
|----------------------------------------------------------|
|----------------------------------------------------------|
|----------------------------------------------------------|
|-(3)-----------------------------------5-----5-----5------|
|-(1)-----------------------------------3-----3-----3------|
|----------------------------------------------------------|


   T       T       T       T       T       T
   S S  S  S S  S  S S  S  S S  S  S S  S  S
|-12-6-10-13-6-10-12-6-10-13-6-10-12-6-10-13-|
|--------------------------------------------|
|--------------------------------------------|
|--------------------------------------------|
|--------------------------------------------|
|--------------------------------------------|
|
|  W
|--------------------------------------------|
|--------------------------------------------|
|--------------------------------------------|
|--3-----------------------------------------|
|--1-----------------------------------------|
|--------------------------------------------|


          T        T        T        T        T          T
   S   S  S  S  S  S  S  S  S  S  S  S  S  S  S  S    a  W
|--6--10-15-10-13-17-10-13-15-10-13-17-10-13-17-13-|-10-17----|
|--------------------------------------------------|----------|
|--------------------------------------------------|----------|
|--------------------------------------------------|----------|
|--------------------------------------------------|----------|
|--------------------------------------------------|----------|
|
| +H                        E     Q           Q          W
|--------------------------------------------------|----------|
|--------------------------------------------------|----------|
|--------------------------------------------------|----------|
|-(3)-----------------------------2----------------|-----0----|
|-(1)-----------------------------0-----------5----|-----0----|
|---------------------------------------------3----|-----0----|


PLAY VERSE till song ends




Duration Legend
---------------
W - whole; H - half; Q - quarter; E - 8th; S - 16th; T - 32nd; X - 64th; a - acciaccatura
+ - note tied to previous; . - note dotted; .. - note double dotted
Uncapitalized letters represent notes that are staccato (1/2 duration)
Irregular groupings are notated above the duration line
Duration letters will always appear directly above the note/fret number it represents the
duration for.  Duration letters with no fret number below them represent rests.  Multi-
bar rests are notated in the form Wxn, where n is the number of bars to rest for.  Low
melody durations appear below the staff

Tablature Legend
----------------
 h   - hammer-on
 p   - pull-off
 b   - bend
 pb  - pre-bend
 r   - bend release (if no number after the r, then release immediately)
 /\  - slide into or out of (from/to "nowhere")
 s   - legato slide
 S   - shift slide
<n> - natural harmonic
[n]  - artificial harmonic
n(n) - tapped harmonic
 ~   - vibrato
 tr  - trill
 T   - tap
 TP  - trem. picking
 PM  - palm muting
\n/  - tremolo bar dip; n = amount to dip
 \n  - tremolo bar down
 n/  - tremolo bar up
/n\  - tremolo bar inverted dip
 =   - hold bend; also acts as connecting device for hammers/pulls
 <> - volume swell (louder/softer)
 x   - on rhythm slash represents muted slash
 o   - on rhythm slash represents single note slash

Misc Legend
-----------
 |  - bar
||  - double bar
||o - repeat start
o|| - repeat end
*|  - double bar (ending)
 :  - bar (freetime)
 $  - Segno
 &  - Coda
Tempo markers - <E/E./Q/Q./H/H.> = BPM(8/16=s8/s16), where s8 = swing 8ths, s16 = swing 16ths

comments
print report bad tab
19 comments total. Showing first comments. show 1 bad comment
+1 reply
slpknt21 wrote on July 17 2008, 11:51 pm

it isnt completely correct

-1 reply
warlock1610 wrote on July 18 2008, 02:53 pm

as i lay dying tunes in drop c

I want to post or [tab]
guest
You may want to rate the tab now too:
select rating
Please do not post tabs as comments. Select "correction" instead!