Oops, an error
Loading. Please wait.

The Sound Of Truth Tab

ver3
ver3

Solo

Whole song

More versions @911Tabs.com
14,277 views 6 this week
4 commentsread comments
1 2 3 4 5
accurate
x 6
Autoscroll
+/-
esc
set tempo
stop
Contributor
Difficulty
Tuning
intermediate
D A D G B E
Hey! There's an official Ultimate Guitar app which is ideal
for learning songs when you're away from computer. Get the app
WARNING: You are trying to view
                                    content from Ultimate-Guitar.com
                                    in an unauthorized application,
                                    which is prohibited.

                                    Please use an official Ultimate
                                    Guitar Tabs application for iPhone,
                                    iPad or Android to access legitimate
                                    chords, guitar, bass, and drum tabs
                                    from Ultimate-Guitar.com database.

                                    Type "ultimate guitar tabs" in Apple
                                    App Store's or Android Market's
                                    search to find the application.
Tabbed By: Matt P(bizzyd201@hotmail.com)
Tuning:High to low (E-B-G-D-A-D)Drop D



 Intro

  Guitar 1 and 2
e|-------------------------------------------------------------------|
b|-------------------------------------------------------------------|
g|-------------------------------------------------------------------| X3
d|-0-0-0-0-0-0-0-0-0-0-0-0-0-0-0-0-0-0-0-0-0-0-0-0-2-2-2-2-2-2-2-2---|
a|-------------------------------------------------------------------|
d|-------------------------------------------------------------------|


e|-------------------------------------------------------------------|
b|-------------------------------------------------------------------|
g|-------------------------------------------------------------------|
d|-/7-7-7-7-7-7-7-7-7-7-7-7-7-7-7-7-5-5-5-5-5-5-5-5-7-7-7-7-0-0-0-0--|
a|-------------------------------------------------------------------|
d|-------------------------------------------------------------------|


e|-------------------------------------------------------------------|
b|-------------------------------------------------------------------|
g|-------------------------------------------------------------------| X2
d|-0-0-0-0-0-0-0-0-0-0-0-0-0-0-0-0-0-0-0-0-0-0-0-0-2-2-2-2-2-2-2-2---|
a|-------------------------------------------------------------------|
d|-------------------------------------------------------------------|


e|-------------------------------------------------------------------|
b|-------------------------------------------------------------------|
g|-------------------------------------------------------------------|
d|-3-3-3-3-3-3-3-3-3-3-3-3-3-3-3-3-3-3-3-3-3-3-3-3-3-3-3-3-3-3-3-3---|
a|-------------------------------------------------------------------|
d|-------------------------------------------------------------------|

e|--------------------------------------------------------------------|
b|--------------------------------------------------------------------|
g|--------------------------------------------------------------------|
d|-/5-5-5-5-5-5-5-5-5-5-5-5-5-5-5-5-7-7-7-7-7-7-7-7-7-7-7-7-7-7-7-7-7-|
a|--------------------------------------------------------------------|
d|--------------------------------------------------------------------|

 PreChorus 1-the zeros are triplets

  Lead Guitar
e|-------------------------------------------------------------------|
b|-------------------------------------------------------------------|
g|-7-----7-10-----10----9----9----9-12---12----10---10-14----14------|
d|---000------000----000--000--000----000---000--000-----000----000--|
a|-------------------------------------------------------------------|
d|-------------------------------------------------------------------|
     xxx      xxx    xxx  xxx  xxx    xxx   xxx  xxx     xxx    xxx

  Rhythm
e|-------------------------------------------------------------------|
b|-------------------------------------------------------------------|
g|-------------------------------------------------------------------|
d|-0-----------------------------------------0-----------------------|
a|-0-----------------------------------------0-----------------------|
d|-0-----------------------------------------0-----------------------|

  Lead Guitar
e|----------------------------------------------------------------------------|
b|----------------------------------------------------------------------------|
g|-9----9----9-12-10-9----10-9-------7-----7-10---10-----9----9-----9-7-----7~|
d|---000--000----------12------12-10---000-----000---000--000--000-----000----|
a|----------------------------------------------------------------------------|
d|----------------------------------------------------------------------------|
     xxx  xxx                          xxx     xxx   xxx  xxx  xxx     xxx

  Rhythm
e|----------------------------------------------------------------------|
b|----------------------------------------------------------------------|
g|-5---------------------------------3-------------------5--------------|
d|-5---------------------------------3-------------------5--------------|
a|-3---------------------------------1-------------------3--------------|
d|----------------------------------------------------------------------|

  Lead Guitar
e|----------------------------------------------------------------------------|
b|----------------------------------------------------------------------------|
g|-10-7p5h7-10-7p5h7-10-7p5h7-10-7p5h7-10-7p5h7-10-7p5h7--9-7p5h7-9-7p5h7-----|
d|----------------------------------------------------------------------------|
a|----------------------------------------------------------------------------|
d|----------------------------------------------------------------------------|
   T        T        T        T        T        T         T       T

  Rhythm
e|--------------------------------------|
b|--------------------------------------|
g|--------------------------------------|
d|-0------------------------------------|
a|-0-0-0-0-0-0-0-0-0-0-0-0-0-0-0--------|
d|-0-0-0-0-0-0-0-0-0-0-0-0-0-0-0--------|
     x x x x x x x x x x x x x x

  CHORUS  (2x)

  Lead Guitar
e|-------------------------------------------------------------------|
b|-------------------------------------------------------------------|
g|-7-----7-10-----10----9----9----9-12---12----10---10-14----14------|
d|---000------000----000--000--000----000---000--000-----000----000--|
a|-------------------------------------------------------------------|
d|-------------------------------------------------------------------|
     xxx      xxx   xxx   xxx  xxx    xxx   xxx  xxx     xxx    xxx

  Rhythm
e|-------------------------------------------------------------------|
b|-------------------------------------------------------------------|
g|-------------------------------------------------------------------|
d|-0-----------------------------------------3-----------------------|
a|-0-----------------------------------------3-----------------------|
d|-0-----------------------------------------3-----------------------|

  Lead Guitar
e|----------------------------------------------------------------------------|
b|----------------------------------------------------------------------------|
g|-9----9----9-12-10-9----10-9-------7-----7-10---10-----9----9-----9-7-----7~|
d|---000--000----------12------12-10---000-----000---000--000--000-----000----|
a|----------------------------------------------------------------------------|
d|----------------------------------------------------------------------------|
     xxx  xxx                          xxx     xxx   xxx  xxx  xxx     xxx

  Rhythm
e|----------------------------------------------------------------------|
b|----------------------------------------------------------------------|
g|-5---------------------------------3-------------------5--------------|
d|-5---------------------------------3-------------------5--------------|
a|-3---------------------------------1-------------------3--------------|
d|----------------------------------------------------------------------|

  Lead Guitar
e|----------------------------------------------------------------------------|
b|----------------------------------------------------------------------------|
g|-10-7p5h7-10-7p5h7-10-7p5h7-10-7p5h7-10-7p5h7-10-7p5h7--9-7p5h7-9-7p5h7-----|
d|----------------------------------------------------------------------------|
a|----------------------------------------------------------------------------|
d|----------------------------------------------------------------------------|
   T        T        T        T        T        T         T       T

  Rhythm
e|-------------------------------------------------------------------|
b|-------------------------------------------------------------------|
g|-------------------------------------------------------------------|
d|-0-----------------------------------------------------------------|
a|-0-----------------------------------------------------------------|
d|-0-----------------------------------------------------------------|


   VERSE ONE X2

  Guitar 1 (left)
e|----------------------------------------------------------------------------|
b|----------------------------------------------------------------------------|
g|-------------------------------------------------------9-9-10-10-9-9-10-10--|
d|-12-8-8-8-12-8-8-8-12-8-8-8-12-8-8-8-12-8-8-8-12-8-8-8----------------------|
a|----------------------------------------------------------------------------|
d|----------------------------------------------------------------------------|
   x  x x x x  x x x x  x x x x  x x x x  x x x x x x x x

  Guitar 2(right)
e|-------------------------------------------------------------------------------------------------|
b|-------------------------------------------------------------------------------------------------|
g|-------------------------------------------------------------------------12-12-14-14-12-12-14-14-|
d|-15-12-12-12-15-12-12-12-15-12-12-12-15-12-12-12-15-12-12-12-15-12-12-12-------------------------|
a|-------------------------------------------------------------------------------------------------|
d|-------------------------------------------------------------------------------------------------|
   x  x  x  x  x  x  x  x  x  x  x  x  x  x  x  x  x  x  x  x  x  x  x  x


  Guitar 1 (left)
e|----------------------------------------------------------------------------|
b|----------------------------------------------------------------------------|
g|-------------------------------------------------------9-9-10-10-9-9-10-10--|
d|-12-8-8-8-12-8-8-8-12-8-8-8-12-8-8-8-12-8-8-8-12-8-8-8----------------------|
a|----------------------------------------------------------------------------|
d|----------------------------------------------------------------------------|
   x  x x x x  x x x x x x x x  x x x x  x x x x   x x x 

  Guitar 2 (right)
e|-------------------------------------------------------------------------------------------------|
b|-------------------------------------------------------------------------------------------------|
g|-------------------------------------------------------------------------------------------------|
d|-15-12-12-12-15-12-12-12-15-12-12-12-15-12-12-12-15-12-12-12-15-12-12-12-10-10-12-12-10-10-12-12-|
a|-------------------------------------------------------------------------------------------------|
d|-------------------------------------------------------------------------------------------------|
   x  x  x  x  x  x  x  x  x  x  x  x  x  x  x  x  x  x  x  x  x  x  x  x

 Guitar 1 (left)
e|---------------------------------------------------------------------------------------------|
b|---------------------------------------------------------------------------------------------|
g|-------------------------------------------------------------------------9-9-10-10-9-9-10-10-|
d|---------------------------------------------------------------------------------------------|
a|-13-10-10-10-13-10-10-10-13-10-10-10-13-10-10-10-13-10-10-10-13-10-10-10---------------------|
d|---------------------------------------------------------------------------------------------|
   x  x  x  x  x  x  x  x  x  x  x  x  x  x  x  x  x  x  x  x  x  x  x  x

 Guitar 2 (right)
e|--------------------------------------------------------------------------------|
b|--------------------------------------------------------------------------------|
g|-------------------------------------------------------12-12-14-14-12-12-14-14--|
d|-12-8-8-8-12-8-8-8-12-8-8-8-12-8-8-8-12-8-8-8-12-8-8-8--------------------------|
a|--------------------------------------------------------------------------------|
d|--------------------------------------------------------------------------------|
   x  x x x x  x x x x  x x x x  x x x x x x x x  x x x 

 Guitar 1 (left)
e|---------------------------------------------------------------------------------|
b|---------------------------------------------------------------------------------|
g|-------------------------------------------------------------------------9-9-9~--|
d|---------------------------------------------------------------------------------|
a|-13-10-10-10-13-10-10-10-13-10-10-10-13-10-10-10-13-10-10-10-13-10-10-10---------|
d|---------------------------------------------------------------------------------|
   x  x  x  x  x  x  x  x  x  x  x  x  x  x  x  x  x  x  x  x  x  x  x  x

 Guitar 2 (right)
e|------------------------------------------------------------------|
b|------------------------------------------------------------------|
g|-------------------------------------------------------12-12-12~--|
d|-12-8-8-8-12-8-8-8-12-8-8-8-12-8-8-8-12-8-8-8-12-8-8-8------------|
a|------------------------------------------------------------------|
d|------------------------------------------------------------------|
   x  x x x x  x x x x  x x x x  x x x x  x x x x x x x

  PreChorus 2

   Guitars 1 and 2
e|------------------------------------------------------|
b|------------------------------------------------------|
g|------------------------------------------------------|
d|-0-0-0-0-0-0-0-0-0-0-0-0-0-0-0-0-0-2-2-2-2-2-2--------| X2
a|------------------------------------------------------|
d|------------------------------------------------------|

e|------------------------------------------------------|
b|------------------------------------------------------|
g|------------------------------------------------------|
d|-/7-7-7-7-7-7-7-7-7-7-7-7-5-5-5-5-5-5-7-7-7-3-3-------|
a|------------------------------------------------------|
d|------------------------------------------------------|

e|------------------------------------------------------|
b|------------------------------------------------------|
g|------------------------------------------------------|
d|-0-0-0-0-0-0-0-0-0-0-0-0-0-0-0-0-0-2-2-2-2-2-2--------| X2
a|------------------------------------------------------|
d|------------------------------------------------------|

e|--------------------------------------------------------|
b|--------------------------------------------------------|
g|--------------------------------------------------------|
d|-3-3-3-3-3-3-3-3-3-3-3-3-5-5-5-5-5-5-7-7-7-7-7-7--------|
a|--------------------------------------------------------|
d|--------------------------------------------------------|

e|-------------------------------------------------------------------|
b|-------------------------------------------------------------------|
g|-------------------------------------------------------------------|
d|-0-----------------------------------------------------------------|
a|-0------------------(pick Scrape)----------------------------------|
d|-0-----------------------------------------------------------------|

 CHORUS is played again. But it ends different.

  Chorus end.

  Lead Guitar
e|----------------------------------------------------------------------------|
b|----------------------------------------------------------------------------|
g|-10-7p5h7-10-7p5h7-10-7p5h7-10-7p5h7-10-7p5h7-10-7p5h7--9-7p5h7-9-7p5h7-----|
d|----------------------------------------------------------------------------|
a|----------------------------------------------------------------------------|
d|----------------------------------------------------------------------------|
   T        T        T        T        T        T         T       T

  Rhythm
e|-----------------------------|
b|-----------------------------|
g|-7--7--7--7--5--5--5--5------|
d|-7--7--7--7--5--5--5--5------|
a|-5--5--5--5--3--3--3--3------|
d|-----------------------------|

  Lead Guitar
e|----------------------------------------------------------------------------|
b|----------------------------------------------------------------------------|
g|-10-7p5h7-10-7p5h7-10-7p5h7-10-7p5h7-10-7p5h7-10-7p5h7----------------------|
d|--------------------------------------------------------12------------------|
a|--------------------------------------------------------12\-----------------|
d|--------------------------------------------------------12\-----------------|
   T        T        T        T        T        T

  Rhythm
e|-----------------------------------|
b|-----------------------------------|
g|-7--7--7--7------------------------|
d|-7--7--7--7----------12\-----------|
a|-5--5--5--5----------12\-----------|
d|---------------------12\-----------|


   VERSE TWO X2

  Guitar 1 (left)
e|------------------------------------------------------------------------|
b|------------------------------------------------------------------------|
g|------------------------------------------------------------------------|
d|--3--0--------3--0-------3--0-------------------------------------------|
a|--------0--0-------0--0-------0--0--7-3-0-7-3-0-7-0---------------------|
d|------------------------------------------------------------------------|
          x  x       x  x       x  x  x x x x x x x x                   
                                                                        X2
                                                                        
   Guitar 2 (right)                                                     
e|------------------------------------------------------------------------|
b|------------------------------------------------------------------------|
g|------------------------------------------------------------------------|
d|--3--0--------3--0-------3--0-------------------------------------------|
a|--------0--0-------0--0-------0--0--7-3-0-7-3-0-7-0---------------------|
d|------------------------------------------------------------------------|
          x  x       x  x       x  x  x x x x x x x x

  Guitar 1 (left)
e|------------------------------------------------------------------------|
b|------------------------------------------------------------------------|
g|------------------------------------------------------------------------|
d|--3--0--------3--0-------3--0-------------------------------------------|
a|--------0--0-------0--0-------0--0--7-3-0-7-3-0-7-0---------------------|
d|------------------------------------------------------------------------|
          x  x       x  x       x  x  x x x x x x x x                    
                                                                        
 X2
  Guitar 2 (right)                                                      
e|------------------------------------------------------------------------|
b|------------------------------------------------------------------------|
g|------------------------------------------------------------------------|
d|--7--3--------7--3-------7--3-------------------------------------------|
a|--------5--5-------5--5-------5--5--10-7-0-10-7-0-10-0------------------|
d|------------------------------------------------------------------------|
          x  x       x  x       x  x  x  x x x  x x x  x


 PreSOLO

   Guitar 1
e|----------------------------------------------------|
b|----------------------------------------------------|
g|-------5-7---5-7-/10-9-7~--2-------2---2-5~---------|
d|--5-7------------------------5-3-5---5--------------|
a|------8----8----------------------------------------|
d|----------------------------------------------------|
        x    x

  Rhythm
e|-----------------------------------------------------|
b|-----------------------------------------------------|
g|-3---------3-----------------------------------------|
d|-3---------3---------------0-------3-----------------|
a|-1---------1---------------0-------3-----------------|
d|---------------------------0-------3-----------------|

   Guitar 1
e|--------------------------------------------------------|
b|--------------------------------------------------------|
g|-------5-7---5-7-/10-9-7~--2h3p2-------2---2-5~---------|
d|--5-7----------------------------5-3-5---5--------------|
a|------8----8--------------------------------------------|
d|--------------------------------------------------------|
        x    x

  Rhythm
e|-----------------------------------------------------|
b|-----------------------------------------------------|
g|-3---------3-----------------------------------------|
d|-3---------3---------------0-------3-----------------|
a|-1---------1---------------0-------3-----------------|
d|---------------------------0-------3-----------------|

   Guitar 1
e|----------------------------------------------------|
b|----------------------------------------------------|
g|-------5-7---5-7-/10-9-7~--2-------2---2-5~---------|
d|--5-7------------------------5-3-5---5--------------|
a|------8----8----------------------------------------|
d|----------------------------------------------------|
        x    x

  Guitar 2
e|---------------------------------------------------------|
b|---------------------------------------------------------|
g|-----------9-10----9-10-/14-12-10~--5-------5---5-9~-----|
d|-----10-12------12--------------------7-5-7---7----------|
a|--12-----------------------------------------------------|
d|---------------------------------------------------------|
          x       x
  Rhythm
e|-----------------------------------------------------|
b|-----------------------------------------------------|
g|-----------------------------------------------------|
d|-5---------7---------------8-------10----------------|
a|-5---------7---------------8-------10----------------|
d|-5---------7---------------8-------10----------------|

   Guitar 1
e|-------------------------------------------------------|
b|-------------------------------------------------------|
g|-------5-7---5-7-/10-9-7~--2h3p2------2---2-5~---------|
d|--5-7----------------------------5-3----5--------------|
a|------8----8-------------------------------------------|
d|-------------------------------------------------------|
        x    x

   Guitar 2
e|------------------------------------------------------------|
b|------------------------------------------------------------|
g|-----------9-10----9-10-/14-12-10~--5h7p5------5---5-9~-----|
d|-----10-12------12------------------------7-5----7----------|
a|--12--------------------------------------------------------|
d|------------------------------------------------------------|
          x       x

  Rhythm
e|-----------------------------------------------------|
b|-----------------------------------------------------|
g|-----------------------------------------------------|
d|-5---------7---------------8-------10----------------|
a|-5---------7---------------8-------10----------------|
d|-5---------7---------------8-------10----------------|


    SOLO

  Lead
e|----------------------------------------------------------------------------------|
b|----------------------------------------------------------------------------------|
g|-5h7-5h7-5h7-5h7-5h7-5h7-5h7-5h7-5h7-5h7-5h7-5h7-7h9-7h9-7h9-7h9-7h9-7h9-7h9-7h9--|
d|----------------------------------------------------------------------------------|
a|----------------------------------------------------------------------------------|
d|----------------------------------------------------------------------------------|

  Rhythm
e|-----------------------------------|
b|-----------------------------------|
g|-----------------------------------|
d|--0--0-0--0-0--0-0--8-10-10--------|
a|--0--0-0--0-0--0-0--8-10-10--------|
d|--0--0-0--0-0--0-0--8-10-10--------|

  Lead
e|---------------------------------------------------------------------|
b|---------------------------------------------------------------------|
g|--9h10p9-10h12p10-12h13p12-13h15p13-15h17p15-17h18p17-18h20p18-20b~--|
d|---------------------------------------------------------------------|
a|---------------------------------------------------------------------|
d|---------------------------------------------------------------------|

  Rhythm
e|------------------------------------|
b|------------------------------------|
g|------------------------------------|
d|--0--0-0--0-0--0-0--8-10--10--------|
a|--0--0-0--0-0--0-0--8-10--10--------|
d|--0--0-0--0-0--0-0--8-10--10--------|

  Lead
e|--17-13--------------------20bhr-13~--12-13-12-10----10-10---------|
b|--------15p13----13h15p13----------------------------13----13bf----|
g|--------------14---------------------------------------------------|
d|-------------------------------------------------------------------|
a|-------------------------------------------------------------------|
d|-------------------------------------------------------------------|
                              T

 Rhythm
e|----------------------------------|
b|----------------------------------|
g|----------------------------------|
d|--8--8-8--8-8--8-8--8-10--10------|
a|--8--8-8--8-8--8-8--8-10--10------|
d|--8--8-8--8-8--8-8--8-10--10------|

  Lead
e|----------------------------------------------------|
b|--13-10p8h10-13-10p8h10--13-10p8h10-13-10p8h10------|
g|----------------------------------------------------|
d|----------------------------------------------------|
a|----------------------------------------------------|
d|----------------------------------------------------|

 Rhythm
e|----------------------------------------------------|
b|----------------------------------------------------|
g|----------------------------------------------------|
d|--8--8-8--8-8--8-8----------------------------------|
a|--8--8-8--8-8--8-8----------------------------------|
d|--8--8-8--8-8--8-8----------------------------------|

  Lead
e|----------------------------------------------------|
b|--13-10p8h10-10-8p6h8-10-8p6h8-10-8p6h8-8p6h8~------|
g|----------------------------------------------------|
d|----------------------------------------------------|
a|----------------------------------------------------|
d|----------------------------------------------------|

  Rhythm
e|-----------------------------|
b|-----------------------------|
g|-----------------------------|
d|--8--8-8---8-8---7---5-------|
a|--8--8-8---8-8---7---5-------|
d|--8--8-8---8-8---7---5-------|

  Lead
e|-----------------------------|
b|--13bf~-8-5~--13-15-17-------|
g|-----------------------------|
d|-----------------------------|
a|-----------------------------|
d|-----------------------------|

  Rhythm
e|------------------------------------|
b|------------------------------------|
g|------------------------------------|
d|--0--0-0--0-0--0-0--8-10--10--------|
a|--0--0-0--0-0--0-0--8-10--10--------|
d|--0--0-0--0-0--0-0--8-10--10--------|

  Lead
e|------------------------------------10*----|
b|--17*~-17-17h18p17p15-17-13-13-------------|
g|--------------------------------/10--------|
d|-------------------------------------------|
a|-------------------------------------------|
d|-------------------------------------------|

  Rhythm
e|------------------------------------|
b|------------------------------------|
g|------------------------------------|
d|--0--0-0--0-0--0-0--8-10--10--------|
a|--0--0-0--0-0--0-0--8-10--10--------|
d|--0--0-0--0-0--0-0--8-10--10--------|

  Lead
e|------------10----------------10------------------------10--------------10---------|
b|--8h10p8h10------10p8h10p8h10---8h10p8h10p8~--8h10p8h10----10p8h10p8h10----8h10p8~-|
g|-----------------------------------------------------------------------------------|
d|-----------------------------------------------------------------------------------|
a|-----------------------------------------------------------------------------------|
d|-----------------------------------------------------------------------------------|

  Lead
e|--12-5h8p5-13-5h8p5-12-5h8-13-5h8-12-5h8p5-12--15-12p10h12-17-12p10h12--17-15--10-17-10-17-17~-|
b|-----------------------------------------------------------------------------------------------|
g|-----------------------------------------------------------------------------------------------|
d|-----------------------------------------------------------------------------------------------|
a|-----------------------------------------------------------------------------------------------|
d|-----------------------------------------------------------------------------------------------|
    T        T         T     T       T        T   T           T            T  T      T    T  T

 Rhythm
e|----------------------------------|
b|----------------------------------|
g|----------------------------------|
d|--8--8-8--8-8--8-8--8-10--10------|
a|--8--8-8--8-8--8-8--8-10--10------|
d|--8--8-8--8-8--8-8--8-10--10------|

LEGEND:
x-palm mute
T-tap
h-hammer on
p-pull off
b-bend
bh-half bend
bf-full bend
bfr-full bend return
~-vibrato
/-slide up
\-slide down
*-pinch harmonic
                              Finished!
comments
print report bad tab
4 comments total. Showing first comments.
0 reply
trans_parent wrote on February 26 2010, 11:31 am

sounds great 5*

0 reply
AcousticRocks 2 wrote on March 1 2010, 09:30 pm

Sounds and Looks Great 5 *, I only play Rythym but thanks alot for this it helps quite a bit.

0 reply
Guitarkid21 wrote on April 4 2011, 03:06 am

what do the t's and x's mean?

I want to post or [tab]
guest
You may want to rate the tab now too:
select rating
Please do not post tabs as comments. Select "correction" instead!