Oops, an error
Loading. Please wait.

This Is Who We Are Tab

ver1
ver1

Solo

Whole song

Interactive

More versions @911Tabs.com
28,123 views 9 this week
22 commentsread comments
1 2 3 4 5
accurate
x 14
add to favorites launch autoscroll
font size
0
reset
Autoscroll
+/-
esc
set tempo
stop
Contributor
Tuning
C G C F A D
WARNING: You are trying to view
                                    content from Ultimate-Guitar.com
                                    in an unauthorized application,
                                    which is prohibited.

                                    Please use an official Ultimate
                                    Guitar Tabs application for iPhone,
                                    iPad or Android to access legitimate
                                    chords, guitar, bass, and drum tabs
                                    from Ultimate-Guitar.com database.

                                    Type "ultimate guitar tabs" in Apple
                                    App Store's or Android Market's
                                    search to find the application.
#----------------------------------PLEASE NOTE---------------------------------#
#This file is the author's own work and represents their interpretation of the #
#song. You may only use this file for private study, scholarship, or research. #
#------------------------------------------------------------------------------#


ok this song is wayyyy awesome so i thought i'd tab it
since no one else has made an attempt

there is a lot of tapping
and i'll put some notes in there on how i would play it
cuz it might get a little confusing

this is by no means 100% accurate, but it's my best guess.
and it is in drop c
so don't tell me otherwise

enjoy

email me at ewlord-1492@hotmail.com if you want the powertab
just make sure to say what song you want

Gtr I (C G C F A D) - 'Untitled'
Gtr II (C G C F A D) - 'Untitled'


ok start with the intro
i tabbed two versions of it
the first is how i would play it if i was just picking (it sounds alright)
the second is with tapping which would be more difficult, but way cooler :P

    Q=132
   4/4
    Gtr I
    E  E  E E  E E  E  E    E   E E  E  E E  E  E
||------------10---------|------------------------|
||o-------------------12-|-----12-----------------|
||--9-11-12-9----9-11----|--9-----9-11-12-9-11-12-|
||-----------------------|------------------------|
||o----------------------|------------------------|
||-----------------------|------------------------|
|
|   Gtr II
|   W                      +W
||-----------------------|------------------------|
||o----------------------|------------------------|
||-----------------------|------------------------|
||--2--------------------|-(2)--------------------|
||o-2--------------------|-(2)--------------------|
||--2--------------------|-(2)--------------------|


  E  E  E E  E E  E  E   E  E  E  E  E  E E  E  4x
|-----------10---------|------------------------||
|-------------------12-|---12-10------------10-o||
|-9-11-12-9----9-11----|-9-------12-11-12-9-----||
|----------------------|------------------------||
|----------------------|-----------------------o||
|----------------------|------------------------||
|
| W                      W                      4x
|----------------------|------------------------||
|----------------------|-----------------------o||
|----------------------|------------------------||
|-5--------------------|-9----------------------||
|-5--------------------|-9---------------------o||
|-5--------------------|-9----------------------||

where it says "16s14" you tap the 16 and slide your tapping finger to the 14
then use your left hand to finger the 12 and so on

               T       T        T
    E  E  E E  E E  E  E    E   E E  E  E E  E  E
||-----------------------|------------------------|
||o----------------------|------------------------|
||--9h11h12p9-19-9h11-16-|--9--16-9h11h12p9h11h12p|
||-----------------------|------------------------|
||o----------------------|------------------------|
||-----------------------|------------------------|
|
|   W                      +W
||-----------------------|------------------------|
||o----------------------|------------------------|
||-----------------------|------------------------|
||--2--------------------|-(2)--------------------|
||o-2--------------------|-(2)--------------------|
||--2--------------------|-(2)--------------------|


             T              T                T
  E  E  E E  E E  E  E   E  E  E  E  E  E E  E   4x
|----------------------|-------------------------||
|----------------------|------------------------o||
|-9h11h12p9-19-9h11-16-|-9-16S14-12p11h12p9-14---||
|----------------------|-------------------------||
|----------------------|------------------------o||
|----------------------|-------------------------||
|
| W                      W                       4x
|----------------------|-------------------------||
|----------------------|------------------------o||
|----------------------|-------------------------||
|-5--------------------|-9-----------------------||
|-5--------------------|-9----------------------o||
|-5--------------------|-9-----------------------||


  W
|------|
|------|
|-9----|
|------|
|------|
|------|
|
| W
|------|
|------|
|------|
|-2----|
|-2----|
|-2----|

and here's the first verse
speed it up :D

  Q=188
  PM--------|
  S S E S S E Q  Q    Q  Q  Q  Q    Q  Q  Q  Q    S S E E E S S E E E
|-------------------|-------------|-------------|---------------------|
|-------------------|-------------|-------------|---------------------|
|-------------------|-------------|-------------|---------------------|
|-------------------|-------------|-------------|-------2-4-------4-5-|
|-------------------|-------------|-------------|-3-3-3-----5-5-2-----|
|-2-2-2-2-2-2-------|-------------|-------------|---------------------|
|
| PM--------|
| S S E S S E Q  Q    Q  Q  Q  Q    Q  Q  Q  Q    S S E E E S S E E E
|-------------------|-------------|-------------|---------------------|
|-------------------|-------------|-------------|---------------------|
|-------------------|-------------|-------------|-------0-2-------2-4-|
|-------------------|-------------|-------------|---------------------|
|-------------------|-------------|-------------|-3-3-3-----5-5-2-----|
|-2-2-2-2-2-2-------|-------------|-------------|---------------------|


  PM--------|             PM--------|
  S S E S S E Q     Q     S S E S S E Q     Q
|-----------------------|-----------------------|
|-----------------------|-----------------------|
|-----------------------|-----------------------|
|-----------------------|-----------------------|
|-----------------------|-----------------------|
|-2-2-2-2-2-2-----------|-2-2-2-2-2-2-----------|
|
| PM---------------------------------------------
| S S E S S E E S S E E   S S E S S E E S S E E
|-----------------------|-----------------------|
|-----------------------|-----------------------|
|-----------------------|-----------------------|
|-----------------------|-----------------------|
|-----------------------|-----------------------|
|-2-2-2-2-2-2-2-2-2-2-2-|-2-2-2-2-2-2-2-2-2-2-2-|


  PM--------|
                                    |-3-|
  S S E S S E Q     Q     S S E E E E E E E E
|-----------------------|----------------------|
|-----------------------|----------------------|
|-----------------------|----------------------|
|-----------------------|---------5-4-5-2---2--|
|-----------------------|-3-3-3-3---------5----|
|-2-2-2-2-2-2-----------|----------------------|
|
|---------------------|
|                                   |-3-|
| S S E S S E E S S E E   S S E E E E E E E E
|-----------------------|----------------------|
|-----------------------|----------------------|
|-----------------------|---------4-2-4-0------|
|-----------------------|-2-2-2-2---------4-5--|
|-----------------------|----------------------|
|-2-2-2-2-2-2-2-2-2-2-2-|----------------------|


  PM---------------------------------------------
  S S E S S E E S S E E   S S E S S E E S S E E
|-----------------------|-----------------------|
|-----------------------|-----------------------|
|-----------------------|-----------------------|
|-----------------------|-----------------------|
|-----------------------|-----------------------|
|-2-2-2-2-2-2-2-2-2-2-2-|-2-2-2-2-2-2-2-2-2-2-2-|
|
| PM---------------------------------------------
| S S E S S E E S S E E   S S E S S E E S S E E
|-----------------------|-----------------------|
|-----------------------|-----------------------|
|-----------------------|-----------------------|
|-----------------------|-----------------------|
|-----------------------|-----------------------|
|-2-2-2-2-2-2-2-2-2-2-2-|-2-2-2-2-2-2-2-2-2-2-2-|


 ---------------------|
  S S E S S E E S S E E   E  E E E  E E  E E
|-----------------------|--------------------|
|-----------------------|--------------------|
|-----------------------|--------------------|
|-----------------------|--------------------|
|-----------------------|-7------9-10------9-|
|-2-2-2-2-2-2-2-2-2-2-2-|---10-9------9-12---|
|
|---------------------|
| S S E S S E E S S E E   E  E E E  E E  E E
|-----------------------|--------------------|
|-----------------------|--------------------|
|-----------------------|--------------------|
|-----------------------|--------------------|
|-----------------------|-7------9-10------9-|
|-2-2-2-2-2-2-2-2-2-2-2-|---10-9------9-12---|


  PM---------------------------------------------
  S S E S S E E S S E E   S S E S S E E S S E E
|-----------------------|-----------------------|
|-----------------------|-----------------------|
|-----------------------|-----------------------|
|-----------------------|-----------------------|
|-----------------------|-----------------------|
|-2-2-2-2-2-2-2-2-2-2-2-|-2-2-2-2-2-2-2-2-2-2-2-|
|
| PM---------------------------------------------
| S S E S S E E S S E E   S S E S S E E S S E E
|-----------------------|-----------------------|
|-----------------------|-----------------------|
|-----------------------|-----------------------|
|-----------------------|-----------------------|
|-----------------------|-----------------------|
|-2-2-2-2-2-2-2-2-2-2-2-|-2-2-2-2-2-2-2-2-2-2-2-|


 ---------------------|
  S S E S S E E S S E E   E  E E Q   E E E
|-----------------------|------------------|
|-----------------------|------------------|
|-----------------------|------------------|
|-----------------------|------------------|
|-----------------------|-7----------------|
|-2-2-2-2-2-2-2-2-2-2-2-|---10-9-7--10-9-5-|
|
|---------------------|
| S S E S S E E S S E E   E  E E Q   E E E
|-----------------------|------------------|
|-----------------------|------------------|
|-----------------------|------------------|
|-----------------------|------------------|
|-----------------------|-7----------------|
|-2-2-2-2-2-2-2-2-2-2-2-|---10-9-7--10-9-5-|


  PM----------------------------------|
  S S E S S E E S S E E   S S E S S E E E E E
|-----------------------|-----------------------|
|-----------------------|-----------------------|
|-----------------------|-----------------------|
|-----------------------|-----------------------|
|-----------------------|---------------3-2-5---|
|-2-2-2-2-2-2-2-2-2-2-2-|-2-2-2-2-2-2-2---------|
|
| PM---------------------------------------------
| S S E S S E E S S E E   S S E S S E E S S E E
|-----------------------|-----------------------|
|-----------------------|-----------------------|
|-----------------------|-----------------------|
|-----------------------|-----------------------|
|-----------------------|-----------------------|
|-2-2-2-2-2-2-2-2-2-2-2-|-2-2-2-2-2-2-2-2-2-2-2-|


  PM------------------|
  S S E S S E E S S E E   E  E E E  E E  E E
|-----------------------|--------------------|
|-----------------------|--------------------|
|-----------------------|--------------------|
|-----------------------|--------------------|
|-----------------------|-7------9-10------9-|
|-2-2-2-2-2-2-2-2-2-2-2-|---10-9------9-12---|
|
|---------------------|
| S S E S S E E S S E E   E  E E E  E E  E E
|-----------------------|--------------------|
|-----------------------|--------------------|
|-----------------------|--------------------|
|-----------------------|-5------7--9------7-|
|-----------------------|----9-7------9-10---|
|-2-2-2-2-2-2-2-2-2-2-2-|--------------------|


  PM----------------------------------|
  S S E S S E E S S E E   S S E S S E E E E E
|-----------------------|-----------------------|
|-----------------------|-----------------------|
|-----------------------|-----------------------|
|-----------------------|-----------------------|
|-----------------------|---------------3-2-----|
|-2-2-2-2-2-2-2-2-2-2-2-|-2-2-2-2-2-2-2-----5---|
|
| PM---------------------------------------------
| S S E S S E E S S E E   S S E S S E E S S E E
|-----------------------|-----------------------|
|-----------------------|-----------------------|
|-----------------------|-----------------------|
|-----------------------|-----------------------|
|-----------------------|-----------------------|
|-2-2-2-2-2-2-2-2-2-2-2-|-2-2-2-2-2-2-2-2-2-2-2-|


  PM------------------|
  S S E S S E E S S E E   E  E E  Q    E E E
|-----------------------|--------------------|
|-----------------------|--------------------|
|-----------------------|--------------------|
|-----------------------|-2------------------|
|-----------------------|----3-2-[3]---3-2---|
|-2-2-2-2-2-2-2-2-2-2-2-|------------------5-|
|
|---------------------|
| S S E S S E E S S E E   E  E E  Q    E E E
|-----------------------|--------------------|
|-----------------------|--------------------|
|-----------------------|--------------------|
|-----------------------|--------------------|
|-----------------------|-7------------------|
|-2-2-2-2-2-2-2-2-2-2-2-|---10-9--7---10-9-5-|


  PM----------------------------------------------------------------------|
  E E E E E E E E   E E E E E E E E   S S E E E E E E E   E E E E E E  E  E
|-----------------|-----------------|-------------------|--------------------|
|-----------------|-----------------|-------------------|--------------------|
|-----------------|-----------------|-------------------|--------------------|
|-----------------|-----------------|-------------------|--------------------|
|-2-2-2-2-2-2-2-2-|-2-2-2-2-2-2-2-2-|-------2-2-2-2-2-2-|-2-2-2-2-2-2--2--2--|
|-2-2-2-2-2-2-2-2-|-2-2-2-2-2-2-2-2-|-2-2-2-2-2-2-2-2-2-|-2-2-2-2-2-2--2--2--|
|
| PM----------------------------------------------------------------|
| E E E E E E E E   E E E E E E E E   S S E E E E E E E   E E E E E E  Q
|-----------------|-----------------|-------------------|--------------------|
|-----------------|-----------------|-------------------|--------------------|
|-----------------|-----------------|-------------------|--------------------|
|-----------------|-----------------|-------------------|--------------------|
|-2-2-2-2-2-2-2-2-|-2-2-2-2-2-2-2-2-|-------2-2-2-2-2-2-|-2-2-2-2-2-2-12\----|
|-2-2-2-2-2-2-2-2-|-2-2-2-2-2-2-2-2-|-2-2-2-2-2-2-2-2-2-|-2-2-2-2-2-2-12\----|


    PM|   PM|             PM--|             PM--|          PM  PM  PM  PM
    E E E E E E E E   E E E E E E E E   E E E E E E E E    E E E E E E E E
||------------------|-----------------|-----------------|-----------------|
||o-----------------|-----------------|-----------------|-----------------|
||------------------|-----------------|-----------------|-----------------|
||------------2---2-|-5-2-------2-----|---2-------2-----|-----------------|
||o-2-2-2-2-2---2---|-----2-2-2---3-0-|-2---2-2-2---3-0-|----7---7---7---7|
||--2-2-2-2-2-------|-----2-2-2-------|-----2-2-2-------|-10---9---7---5--|
|
|   PM|   PM|             PM--|             PM--|          PM  PM  PM  PM
|   E E E E E E E E   E E E E E E E E   E E E E E E E E    E E E E E E E E
||------------------|-----------------|-----------------|-----------------|
||o-----------------|-----------------|-----------------|-----------------|
||------------------|-----------------|-----------------|-----------------|
||------------2---2-|-5-2-------2-----|---2-------2-----|-----------------|
||o-2-2-2-2-2---2---|-----2-2-2---3-0-|-2---2-2-2---3-0-|----7---7---7---7|
||--2-2-2-2-2-------|-----2-2-2-------|-----2-2-2-------|-10---9---7---5--|


  PM|   PM|             PM--|
  E E E E E E E E   E E E E E E E E
|-----------------|-----------------|
|-----------------|-----------------|
|-----------------|-----------------|
|-----------2---2-|-5-2-------2-----|
|-2-2-2-2-2---2---|-----2-2-2---3-0-|
|-2-2-2-2-2-------|-----2-2-2-------|
|
| PM|   PM|             PM--|
| E E E E E E E E   E E E E E E E E
|-----------------|-----------------|
|-----------------|-----------------|
|-----------------|-----------------|
|-----------2---2-|-5-2-------2-----|
|-2-2-2-2-2---2---|-----2-2-2---3-0-|
|-2-2-2-2-2-------|-----2-2-2-------|


      PM--|
  E E E E E E E E    S  S  S  S  E E S S E E E
|-----------------|------------------------------||
|-----------------|-----------------------------o||
|-----------------|------------------------------||
|---2-------2-----|----------------5-4-5-4---4---||
|-2---2-2-2---3-0-|--7--7--7--7--7---------5----o||
|-----2-2-2-------|------------------------------||
|
|     PM--|
| E E E E E E E E    S  S  S  S  E E S S E E E
|-----------------|------------------------------||
|-----------------|-----------------------------o||
|-----------------|------------------------------||
|---2-------2-----|----------------9-7-9-7---7---||
|-2---2-2-2---3-0-|-10-10-10-10-10---------9----o||
|-----2-2-2-------|------------------------------||


  E E E E E E E E
|--------------------|
|--------------------|
|-9-9-9-9-9-9-9-9----|
|--------------------|
|-7-7-7-7-7-7-7-7----|
|--------------------|
|
| W
|--------------------|
|--------------------|
|--------------------|
|--------------------|
|--------------------|
|--------------------|

and the chorus!!! woot
note: when you come to the 12s15, tap the 12 and slide your tapping finger
to the 15. as you do that, slide your index finger on your left hand to the 12. then, 
your ring finger on your right hand to tap the 20 and your
middle finger to tap the 19 quickly. it should look like you are rolling
your fingers across them.


   T      T            T      T        T  T
   E E E  E E E E E    E E E  E  E  E  S  S  E
|-------------------|--------------------------|
|-12-5h8-12-8p5p0h5-|-12-5h8-12s15-12-20-19-15-|
|-------------------|--------------------------|
|-------------------|--------------------------|
|-------------------|--------------------------|
|-------------------|--------------------------|
|
|  E E E  E E E E E    E E E  E  E  E  E  E
|-------------------|--------------------------|
|-------------------|--------------------------|
|-------------------|--------------------------|
|-------------------|--------------------------|
|--2-2-2--2-2-2-2-2-|--2-2-2--2--2--2--2--2----|
|--2-2-2--2-2-2-2-2-|--2-2-2--2--2--2--2--2----|


   T        T                T        T        T  T
   E  E  E  E  E  E  E  E    E  E  E  E  E  E  S  S  E
|-------------------------|----------------------------|
|-12--5h=8-12--8p=5p=0h=5-|-12--5h=8-12s15-12-20-19-15-|
|-------------------------|----------------------------|
|-------------------------|----------------------------|
|-------------------------|----------------------------|
|-------------------------|----------------------------|
|
|  E  E  E  E  E  E  E  E    E  E  E  E  E  E  E  E
|-------------------------|----------------------------|
|-------------------------|----------------------------|
|-------------------------|----------------------------|
|-------------------------|----------------------------|
|-10-10-10-10-10-10-10-10-|-10-10-10-10-10-10-10-10----|
|-10-10-10-10-10-10-10-10-|-10-10-10-10-10-10-10-10----|


   T      T            T      T        T  T
   E E E  E E E E E    E E E  E  E  E  S  S  E
|-------------------|--------------------------|
|-12-5h8-12-8p5p0h5-|-12-5h8-12s15-12-20-19-15-|
|-------------------|--------------------------|
|-------------------|--------------------------|
|-------------------|--------------------------|
|-------------------|--------------------------|
|
|  E E E  E E E E E    E E E  E  E  E  E  E
|-------------------|--------------------------|
|-------------------|--------------------------|
|-------------------|--------------------------|
|-------------------|--------------------------|
|--2-2-2--2-2-2-2-2-|--2-2-2--2--2--2--2--2----|
|--2-2-2--2-2-2-2-2-|--2-2-2--2--2--2--2--2----|


   T      T      T        T      T
   E E E  E E E  E E   E  E E E  E E E E
|--------------------|--------------------|
|-12-5h8-12-5h8-12-4h|=7-12-4h7-12-0h4h7--|
|--------------------|--------------------|
|--------------------|--------------------|
|--------------------|--------------------|
|--------------------|--------------------|
|
|  E E E  E E E  E E   E  E E E  E E E E
|--------------------|--------------------|
|--------------------|--------------------|
|--------------------|--------------------|
|--------------------|--------------------|
|--9-9-9--9-9-9--9-9-|-9--9-9-9--9-9-9-9--|
|--9-9-9--9-9-9--9-9-|-9--9-9-9--9-9-9-9--|


   T      T            T      T        T  T
   E E E  E E E E E    E E E  E  E  E  S  S  E
|-------------------|--------------------------|
|-12-5h8-12-8p5p0h5-|-12-5h8-12s15-12-20-19-15-|
|-------------------|--------------------------|
|-------------------|--------------------------|
|-------------------|--------------------------|
|-------------------|--------------------------|
|
|  E E E  E E E E E    E E E  E  E  E  E  E
|-------------------|--------------------------|
|-------------------|--------------------------|
|-------------------|--------------------------|
|-------------------|--------------------------|
|--2-2-2--2-2-2-2-2-|--2-2-2--2--2--2--2--2----|
|--2-2-2--2-2-2-2-2-|--2-2-2--2--2--2--2--2----|


   T        T                T        T        T  T
   E  E  E  E  E  E  E  E    E  E  E  E  E  E  S  S  E
|-------------------------|----------------------------|
|-12--5h=8-12--8p=5p=0h=5-|-12--5h=8-12s15-12-20-19-15-|
|-------------------------|----------------------------|
|-------------------------|----------------------------|
|-------------------------|----------------------------|
|-------------------------|----------------------------|
|
|  E  E  E  E  E  E  E  E    E  E  E  E  E  E  E  E
|-------------------------|----------------------------|
|-------------------------|----------------------------|
|-------------------------|----------------------------|
|-------------------------|----------------------------|
|-10-10-10-10-10-10-10-10-|-10-10-10-10-10-10-10-10----|
|-10-10-10-10-10-10-10-10-|-10-10-10-10-10-10-10-10----|


   T      T            T      T        T  T
   E E E  E E E E E    E E E  E  E  E  S  S  E
|-------------------|--------------------------|
|-12-5h8-12-8p5p0h5-|-12-5h8-12s15-12-20-19-15-|
|-------------------|--------------------------|
|-------------------|--------------------------|
|-------------------|--------------------------|
|-------------------|--------------------------|
|
|  E E E  E E E E E    E E E  E  E  E  E  E
|-------------------|--------------------------|
|-------------------|--------------------------|
|-------------------|--------------------------|
|-------------------|--------------------------|
|--2-2-2--2-2-2-2-2-|--2-2-2--2--2--2--2--2----|
|--2-2-2--2-2-2-2-2-|--2-2-2--2--2--2--2--2----|


   T      T      T      T      T      T
   E E E  E E E  E E    E E E  E E E  E E
|--------------------|---------------------|
|-17-4h7-17-4h7-17-4-|-19-4h7-19-4h7-19-4--|
|--------------------|---------------------|
|--------------------|---------------------|
|--------------------|---------------------|
|--------------------|---------------------|
|
|  E E E  E E E  E E    E E E  E E E  E E
|--------------------|---------------------|
|--------------------|---------------------|
|--------------------|---------------------|
|--------------------|---------------------|
|--9-9-9--9-9-9--9-9-|--9-9-9--9-9-9--9-9--|
|--9-9-9--9-9-9--9-9-|--9-9-9--9-9-9--9-9--|

so now the second verse?
i think.. chorus is over anyway


  W                       W
|-----------------------|------------------------|
|-----------------------|------------------------|
|-----------------------|------------------------|
|-----------------------|------------------------|
|-----------------------|------------------------|
|-----------------------|------------------------|
|
| PM----------------------------------|
| S S E S S E E S S E E   S S E S S E E E E E
|-----------------------|------------------------|
|-----------------------|------------------------|
|-----------------------|------------------------|
|-----------------------|------------------------|
|-----------------------|---------------3-2------|
|-2-2-2-2-2-2-2-2-2-2-2-|-2-2-2-2-2-2-2-----5----|


  PM---------------------------------------------
  S S E S S E E S S E E   S S E S S E E S S E E
|-----------------------|-----------------------|
|-----------------------|-----------------------|
|-----------------------|-----------------------|
|-----------------------|-----------------------|
|-----------------------|-----------------------|
|-2-2-2-2-2-2-2-2-2-2-2-|-2-2-2-2-2-2-2-2-2-2-2-|
|
| PM---------------------------------------------
| S S E S S E E S S E E   S S E S S E E S S E E
|-----------------------|-----------------------|
|-----------------------|-----------------------|
|-----------------------|-----------------------|
|-----------------------|-----------------------|
|-----------------------|-----------------------|
|-2-2-2-2-2-2-2-2-2-2-2-|-2-2-2-2-2-2-2-2-2-2-2-|


 ---------------------|
  S S E S S E E S S E E   E  E E E  E E  E E
|-----------------------|--------------------|
|-----------------------|--------------------|
|-----------------------|--------------------|
|-----------------------|--------------------|
|-----------------------|-7------9-10------9-|
|-2-2-2-2-2-2-2-2-2-2-2-|---10-9------9-12---|
|
|---------------------|
| S S E S S E E S S E E   E  E E E  E E  E E
|-----------------------|--------------------|
|-----------------------|--------------------|
|-----------------------|--------------------|
|-----------------------|--------------------|
|-----------------------|-7------9-10------9-|
|-2-2-2-2-2-2-2-2-2-2-2-|---10-9------9-12---|


  PM----------------------------------|
  S S E S S E E S S E E   S S E S S E E E E E
|-----------------------|-----------------------|
|-----------------------|-----------------------|
|-----------------------|-----------------------|
|-----------------------|-----------------------|
|-----------------------|---------------3-2-----|
|-2-2-2-2-2-2-2-2-2-2-2-|-2-2-2-2-2-2-2-----5---|
|
| PM---------------------------------------------
| S S E S S E E S S E E   S S E S S E E S S E E
|-----------------------|-----------------------|
|-----------------------|-----------------------|
|-----------------------|-----------------------|
|-----------------------|-----------------------|
|-----------------------|-----------------------|
|-2-2-2-2-2-2-2-2-2-2-2-|-2-2-2-2-2-2-2-2-2-2-2-|


  PM------------------|
  S S E S S E E S S E E   E  E E Q   E E E
|-----------------------|------------------|
|-----------------------|------------------|
|-----------------------|------------------|
|-----------------------|------------------|
|-----------------------|-7----------------|
|-2-2-2-2-2-2-2-2-2-2-2-|---10-9-7--10-9-5-|
|
|---------------------|
| S S E S S E E S S E E   E  E E Q   E E E
|-----------------------|------------------|
|-----------------------|------------------|
|-----------------------|------------------|
|-----------------------|------------------|
|-----------------------|-7----------------|
|-2-2-2-2-2-2-2-2-2-2-2-|---10-9-7--10-9-5-|


    PM---------------------------------------------
    S S E S S E E S S E E   S S E S S E E S S E E
||------------------------|-----------------------|
||o-----------------------|-----------------------|
||------------------------|-----------------------|
||------------------------|-----------------------|
||o-----------------------|-----------------------|
||--2-2-2-2-2-2-2-2-2-2-2-|-2-2-2-2-2-2-2-2-2-2-2-|
|
|   PM---------------------------------------------
|   S S E S S E E S S E E   S S E S S E E S S E E
||------------------------|-----------------------|
||o-----------------------|-----------------------|
||------------------------|-----------------------|
||------------------------|-----------------------|
||o-----------------------|-----------------------|
||--2-2-2-2-2-2-2-2-2-2-2-|-2-2-2-2-2-2-2-2-2-2-2-|


 ---------------------|
  S S E S S E E S S E E   S S S S  S  S S S S S S S S S S S
|-----------------------|-------------------------------------|
|-----------------------|-------------------------------------|
|-----------------------|-7-7-9-9-------9-9-----9-9-----9-9---|
|-----------------------|---------10-10-----9-9-----7-7-------|
|-----------------------|-------------------------------------|
|-2-2-2-2-2-2-2-2-2-2-2-|-------------------------------------|
|
|---------------------|
| S S E S S E E S S E E   S S S S  S  S S S S S S S S S S S
|-----------------------|-------------------------------------|
|-----------------------|-------------------------------------|
|-----------------------|-7-7-9-9-------9-9-----9-9-----9-9---|
|-----------------------|---------10-10-----9-9-----7-7-------|
|-----------------------|-------------------------------------|
|-2-2-2-2-2-2-2-2-2-2-2-|-------------------------------------|


  PM---------------------------------------------
  S S E S S E E S S E E   S S E S S E E S S E E
|-----------------------|-----------------------|
|-----------------------|-----------------------|
|-----------------------|-----------------------|
|-----------------------|-----------------------|
|-----------------------|-----------------------|
|-2-2-2-2-2-2-2-2-2-2-2-|-2-2-2-2-2-2-2-2-2-2-2-|
|
| PM---------------------------------------------
| S S E S S E E S S E E   S S E S S E E S S E E
|-----------------------|-----------------------|
|-----------------------|-----------------------|
|-----------------------|-----------------------|
|-----------------------|-----------------------|
|-----------------------|-----------------------|
|-2-2-2-2-2-2-2-2-2-2-2-|-2-2-2-2-2-2-2-2-2-2-2-|


 ---------------------|
  S S E S S E E S S E E    S  S  S  S  E E S S E E E
|-----------------------|-----------------------------||
|-----------------------|----------------------------o||
|-----------------------|-----------------------------||
|-----------------------|----------------5-4-5-4---4--||
|-----------------------|--7--7--7--7--7---------5---o||
|-2-2-2-2-2-2-2-2-2-2-2-|-----------------------------||
|
|---------------------|
| S S E S S E E S S E E    S  S  S  S  E E S S E E E
|-----------------------|-----------------------------||
|-----------------------|----------------------------o||
|-----------------------|-----------------------------||
|-----------------------|----------------9-7-9-7---7--||
|-----------------------|-10-10-10-10-10---------9---o||
|-2-2-2-2-2-2-2-2-2-2-2-|-----------------------------||


and then the pre-chorus
tremolo all these notes

  TP         TP         TP         TP   TP
  W          W          W          H    H
|----------|----------|----------|-----------|
|----------|----------|----------|-----------|
|----------|----------|----------|-----------|
|----------|----------|----------|------4----|
|-7--------|-7--------|-7--------|-5---------|
|----------|----------|----------|-----------|
|
| TP         TP         TP         TP
| W          W          W          W
|----------|----------|----------|-----------|
|----------|----------|----------|-----------|
|----------|----------|----------|-----------|
|----------|----------|----------|-----------|
|-0--------|-2--------|-3--------|-5---------|
|----------|----------|----------|-----------|


  TP         TP         TP         TP
  W          W          W          W
|----------|----------|----------|------|
|----------|----------|----------|------|
|----------|----------|----------|------|
|-2--------|-5--------|-7--------|-9----|
|----------|----------|----------|------|
|----------|----------|----------|------|
|
| TP         TP         TP         TP
| W          W          W          W
|----------|----------|----------|------|
|----------|----------|----------|------|
|----------|----------|----------|------|
|----------|----------|----------|------|
|----------|----------|----------|------|
|-2--------|-5--------|-7--------|-9----|


and the second chorus:
remeber to do the same thing as on the last one for the tapping

   T      T            T      T        T  T
   E E E  E E E E E    E E E  E  E  E  S  S  E
|-------------------|--------------------------|
|-12-5h8-12-8p5p0h5-|-12-5h8-12s15-12-20-19-15-|
|-------------------|--------------------------|
|-------------------|--------------------------|
|-------------------|--------------------------|
|-------------------|--------------------------|
|
|  E E E  E E E E E    E E E  E  E  E  E  E
|-------------------|--------------------------|
|-------------------|--------------------------|
|-------------------|--------------------------|
|-------------------|--------------------------|
|--2-2-2--2-2-2-2-2-|--2-2-2--2--2--2--2--2----|
|--2-2-2--2-2-2-2-2-|--2-2-2--2--2--2--2--2----|


   T        T                T        T        T  T
   E  E  E  E  E  E  E  E    E  E  E  E  E  E  S  S  E
|-------------------------|----------------------------|
|-12--5h=8-12--8p=5p=0h=5-|-12--5h=8-12s15-12-20-19-15-|
|-------------------------|----------------------------|
|-------------------------|----------------------------|
|-------------------------|----------------------------|
|-------------------------|----------------------------|
|
|  E  E  E  E  E  E  E  E    E  E  E  E  E  E  E  E
|-------------------------|----------------------------|
|-------------------------|----------------------------|
|-------------------------|----------------------------|
|-------------------------|----------------------------|
|-10-10-10-10-10-10-10-10-|-10-10-10-10-10-10-10-10----|
|-10-10-10-10-10-10-10-10-|-10-10-10-10-10-10-10-10----|


   T      T            T      T        T  T
   E E E  E E E E E    E E E  E  E  E  S  S  E
|-------------------|--------------------------|
|-12-5h8-12-8p5p0h5-|-12-5h8-12s15-12-20-19-15-|
|-------------------|--------------------------|
|-------------------|--------------------------|
|-------------------|--------------------------|
|-------------------|--------------------------|
|
|  E E E  E E E E E    E E E  E  E  E  E  E
|-------------------|--------------------------|
|-------------------|--------------------------|
|-------------------|--------------------------|
|-------------------|--------------------------|
|--2-2-2--2-2-2-2-2-|--2-2-2--2--2--2--2--2----|
|--2-2-2--2-2-2-2-2-|--2-2-2--2--2--2--2--2----|


   T      T      T        T      T
   E E E  E E E  E E   E  E E E  E E E E
|--------------------|--------------------|
|-12-5h8-12-5h8-12-4h|=7-12-4h7-12-0h4h7--|
|--------------------|--------------------|
|--------------------|--------------------|
|--------------------|--------------------|
|--------------------|--------------------|
|
|  E E E  E E E  E E   E  E E E  E E E E
|--------------------|--------------------|
|--------------------|--------------------|
|--------------------|--------------------|
|--------------------|--------------------|
|--9-9-9--9-9-9--9-9-|-9--9-9-9--9-9-9-9--|
|--9-9-9--9-9-9--9-9-|-9--9-9-9--9-9-9-9--|


   T      T            T      T        T  T
   E E E  E E E E E    E E E  E  E  E  S  S  E
|-------------------|--------------------------|
|-12-5h8-12-8p5p0h5-|-12-5h8-12s15-12-20-19-15-|
|-------------------|--------------------------|
|-------------------|--------------------------|
|-------------------|--------------------------|
|-------------------|--------------------------|
|
|  E E E  E E E E E    E E E  E  E  E  E  E
|-------------------|--------------------------|
|-------------------|--------------------------|
|-------------------|--------------------------|
|-------------------|--------------------------|
|--2-2-2--2-2-2-2-2-|--2-2-2--2--2--2--2--2----|
|--2-2-2--2-2-2-2-2-|--2-2-2--2--2--2--2--2----|


   T        T                T        T        T  T
   E  E  E  E  E  E  E  E    E  E  E  E  E  E  S  S  E
|-------------------------|----------------------------|
|-12--5h=8-12--8p=5p=0h=5-|-12--5h=8-12s15-12-20-19-15-|
|-------------------------|----------------------------|
|-------------------------|----------------------------|
|-------------------------|----------------------------|
|-------------------------|----------------------------|
|
|  E  E  E  E  E  E  E  E    E  E  E  E  E  E  E  E
|-------------------------|----------------------------|
|-------------------------|----------------------------|
|-------------------------|----------------------------|
|-------------------------|----------------------------|
|-10-10-10-10-10-10-10-10-|-10-10-10-10-10-10-10-10----|
|-10-10-10-10-10-10-10-10-|-10-10-10-10-10-10-10-10----|


   T      T            T      T        T  T
   E E E  E E E E E    E E E  E  E  E  S  S  E
|-------------------|--------------------------|
|-12-5h8-12-8p5p0h5-|-12-5h8-12s15-12-20-19-15-|
|-------------------|--------------------------|
|-------------------|--------------------------|
|-------------------|--------------------------|
|-------------------|--------------------------|
|
|  E E E  E E E E E    E E E  E  E  E  E  E
|-------------------|--------------------------|
|-------------------|--------------------------|
|-------------------|--------------------------|
|-------------------|--------------------------|
|--2-2-2--2-2-2-2-2-|--2-2-2--2--2--2--2--2----|
|--2-2-2--2-2-2-2-2-|--2-2-2--2--2--2--2--2----|


   T      T      T      T      T      T
   E E E  E E E  E E    E E E  E E E  E E
|--------------------|---------------------|
|-17-4h7-17-4h7-17-4-|-19-4h7-19-4h7-19-4--|
|--------------------|---------------------|
|--------------------|---------------------|
|--------------------|---------------------|
|--------------------|---------------------|
|
|  E E E  E E E  E E    E E E  E E E  E E
|--------------------|---------------------|
|--------------------|---------------------|
|--------------------|---------------------|
|--------------------|---------------------|
|--9-9-9--9-9-9--9-9-|--9-9-9--9-9-9--9-9--|
|--9-9-9--9-9-9--9-9-|--9-9-9--9-9-9--9-9--|


and now the cool little fill part
i guess you'd call it the bridge

     T            T              T
     E E E E E E  E E   E E E E  E E E E
||--------------------|------------------|
||o-12-0h5h8p0h5-12-0h|=5h8p0h5-12-0h5h8-|
||--------------------|------------------|
||--------------------|------------------|
||o-------------------|------------------|
||--------------------|------------------|
|
|    E E E E E E  E E   E E E E  E E E E
||--------------------|------------------|
||o-------------------|------------------|
||--------------------|------------------|
||--------------------|------------------|
||o--2-2-2-2-2-2--2-2-|-2-2-2-2--2-2-2-2-|
||---2-2-2-2-2-2--2-2-|-2-2-2-2--2-2-2-2-|


         T                   T                 T
   E  E  E  E  E  E  E  E    E  E  E  E  E  E  E  E
|-------------------------|------------------------|
|--0h=5-12--0h=5h=8p=0h=5-|-12--0h=5h=8--0h=5-12--0|
|-------------------------|------------------------|
|-------------------------|------------------------|
|-------------------------|------------------------|
|-------------------------|------------------------|
|
|  E  E  E  E  E  E  E  E    E  E  E  E  E  E  E  E
|-------------------------|------------------------|
|-------------------------|------------------------|
|-------------------------|------------------------|
|-------------------------|------------------------|
|-10-10-10-10-10-10-10-10-|-10-10-10-10-10-10-10-10|
|-10-10-10-10-10-10-10-10-|-10-10-10-10-10-10-10-10|


                                       T      T      T        T      T
  E E E E E E E E   E E E E E E E E    E E E  E E E  E E   E  E E E  E E E E
|-----------------|-----------------|--------------------|--------------------||
|-8p5p0h8p5p0h8p5p|=0h8p5p0h8p5h8p5-|-10-4h7-10-4h7-10-4h|=7-10-4h7-10-0h4h7-o||
|-----------------|-----------------|--------------------|--------------------||
|-----------------|-----------------|--------------------|--------------------||
|-----------------|-----------------|--------------------|-------------------o||
|-----------------|-----------------|--------------------|--------------------||
|
| E E E E E E E E   E E E E E E E E    E E E  E E E  E E   E  E E E  E E E E
|-----------------|-----------------|--------------------|--------------------||
|-----------------|-----------------|--------------------|-------------------o||
|-----------------|-----------------|--------------------|--------------------||
|-----------------|-----------------|--------------------|--------------------||
|-2-2-2-2-2-2-2-2-|-2-2-2-2-2-2-2-2-|--9-9-9--9-9-9--9-9-|-9--9-9-9--9-9-9-9-o||
|-2-2-2-2-2-2-2-2-|-2-2-2-2-2-2-2-2-|--9-9-9--9-9-9--9-9-|-9--9-9-9--9-9-9-9--||

and the final chorus
isn't this song awesome??


   T      T            T       T        T  T
   E E E  E E E E E    E  E E  E  E  E  S  S  E
|-------------------|---------------------------|
|-12-5h8-12-8p5p0h5-|-12--5h8-12s15-12-20-19-15-|
|-------------------|---------------------------|
|-------------------|---------------------------|
|-------------------|---------------------------|
|-------------------|---------------------------|
|
|  W                  +W
|-------------------|---------------------------|
|-------------------|---------------------------|
|-------------------|---------------------------|
|-------------------|---------------------------|
|--2----------------|-(2)-----------------------|
|--2----------------|-(2)-----------------------|


   T      T             T       T        T  T
   E E E  E E E E E     E  E E  E  E  E  S  S  E
|-------------------|----------------------------|
|-12-5h8-12-8p5p0h5-|--12--5h8-12s15-12-20-19-15-|
|-------------------|----------------------------|
|-------------------|----------------------------|
|-------------------|----------------------------|
|-------------------|----------------------------|
|
|  W                   +W
|-------------------|----------------------------|
|-------------------|----------------------------|
|-------------------|----------------------------|
|-------------------|----------------------------|
|-10----------------|-(10)-----------------------|
|-10----------------|-(10)-----------------------|


   T      T            T       T        T  T
   E E E  E E E E E    E  E E  E  E  E  S  S  E
|-------------------|---------------------------|
|-12-5h8-12-8p5p0h5-|-12--5h8-12s15-12-20-19-15-|
|-------------------|---------------------------|
|-------------------|---------------------------|
|-------------------|---------------------------|
|-------------------|---------------------------|
|
|  W                  +W
|-------------------|---------------------------|
|-------------------|---------------------------|
|-------------------|---------------------------|
|-------------------|---------------------------|
|--2----------------|-(2)-----------------------|
|--2----------------|-(2)-----------------------|


   T      T      T        T      T
   E E E  E E E  E E   E  E E E  E E E E
|--------------------|--------------------|
|-12-5h8-12-5h8-12-4h|=7-12-4h7-12-0h4h7--|
|--------------------|--------------------|
|--------------------|--------------------|
|--------------------|--------------------|
|--------------------|--------------------|
|
|  W                   W
|--------------------|--------------------|
|--------------------|--------------------|
|--------------------|--------------------|
|--------------------|--------------------|
|--9-----------------|-9------------------|
|--9-----------------|-9------------------|


   T      T            T       T        T  T
   E E E  E E E E E    E  E E  E  E  E  S  S  E
|-------------------|---------------------------|
|-12-5h8-12-8p5p0h5-|-12--5h8-12s15-12-20-19-15-|
|-------------------|---------------------------|
|-------------------|---------------------------|
|-------------------|---------------------------|
|-------------------|---------------------------|
|
|  W                  +W
|-------------------|---------------------------|
|-------------------|---------------------------|
|-------------------|---------------------------|
|-------------------|---------------------------|
|--2----------------|-(2)-----------------------|
|--2----------------|-(2)-----------------------|


   T      T             T       T        T  T
   E E E  E E E E E     E  E E  E  E  E  S  S  E
|-------------------|----------------------------|
|-12-5h8-12-8p5p0h5-|--12--5h8-12s15-12-20-19-15-|
|-------------------|----------------------------|
|-------------------|----------------------------|
|-------------------|----------------------------|
|-------------------|----------------------------|
|
|  W                   +W
|-------------------|----------------------------|
|-------------------|----------------------------|
|-------------------|----------------------------|
|-------------------|----------------------------|
|-10----------------|-(10)-----------------------|
|-10----------------|-(10)-----------------------|


   T      T            T       T        T  T
   E E E  E E E E E    E  E E  E  E  E  S  S  E
|-------------------|---------------------------|
|-12-5h8-12-8p5p0h5-|-12--5h8-12s15-12-20-19-15-|
|-------------------|---------------------------|
|-------------------|---------------------------|
|-------------------|---------------------------|
|-------------------|---------------------------|
|
|  W                  +W
|-------------------|---------------------------|
|-------------------|---------------------------|
|-------------------|---------------------------|
|-------------------|---------------------------|
|--2----------------|-(2)-----------------------|
|--2----------------|-(2)-----------------------|


  H.=H
   T      T      T      T      T      T
   E E E  E E E  E E    E E E  E E E  E E
|--------------------|---------------------|
|-17-4h7-17-4h7-17-4-|-19-4h7-19-4h7-19-4--|
|--------------------|---------------------|
|--------------------|---------------------|
|--------------------|---------------------|
|--------------------|---------------------|
|
|  W                    W
|--------------------|---------------------|
|--------------------|---------------------|
|--------------------|---------------------|
|--------------------|---------------------|
|--9-----------------|--9------------------|
|--9-----------------|--9------------------|


   T
   W
|-------|
|-17----|
|-------|
|-------|
|-------|
|-------|
|
|  W
|-------|
|-------|
|-------|
|-------|
|--2----|
|--2----|

THE END
hope you understand everything
please rate and comment!


--------------------------------------------------------------------------------


Duration Legend
---------------
W - whole; H - half; Q - quarter; E - 8th; S - 16th; T - 32nd; X - 64th; a - acciaccatura
+ - note tied to previous; . - note dotted; .. - note double dotted
Uncapitalized letters represent notes that are staccato (1/2 duration)
Irregular groupings are notated above the duration line
Duration letters will always appear directly above the note/fret number it represents the
duration for.  Duration letters with no fret number below them represent rests.  Multi-
bar rests are notated in the form Wxn, where n is the number of bars to rest for.  Low
melody durations appear below the staff

Tablature Legend
----------------
 h   - hammer-on
 p   - pull-off
 b   - bend
 pb  - pre-bend
 r   - bend release (if no number after the r, then release immediately)
 /\  - slide into or out of (from/to "nowhere")
 s   - legato slide
 S   - shift slide
 - natural harmonic
[n]  - artificial harmonic
n(n) - tapped harmonic
 ~   - vibrato
 tr  - trill
 T   - tap
 TP  - trem. picking
 PM  - palm muting
\n/  - tremolo bar dip; n = amount to dip
 \n  - tremolo bar down
 n/  - tremolo bar up
/n\  - tremolo bar inverted dip
 =   - hold bend; also acts as connecting device for hammers/pulls
 <> - volume swell (louder/softer)
 x   - on rhythm slash represents muted slash
 o   - on rhythm slash represents single note slash

Misc Legend
-----------
 |  - bar
||  - double bar
||o - repeat start
o|| - repeat end
*|  - double bar (ending)
 :  - bar (freetime)
 $  - Segno
 &  - Coda
Tempo markers -  = BPM(8/16=s8/s16), where s8 = swing 8ths, s16 = swing 16ths

--------------------------------------------------------------------------------

** Generated using Power Tab Editor by Brad Larsen: The Official Power Tab Web Site
comments
print report bad tab
22 comments total. Showing first comments.
0 reply
spencer Cr wrote on September 17 2007, 04:08 pm

AMAZING TAB MAN 5*

0 reply
metalcore123 wrote on September 18 2007, 10:34 am

Did you export this from Guitar pro/powertab? mind posting one of those? great tab

0 reply
nubtub wrote on September 21 2007, 08:16 pm

awesome tab same as your others. 5/5

I want to post or [tab]
guest
You may want to rate the tab now too:
select rating
Please do not post tabs as comments. Select "correction" instead!