Oops, an error
Loading. Please wait.

Through Sruggle Tab

3,269 views 1 this week
1 commentread comment
1 2 3 4 5
please rate
Autoscroll
+/-
esc
set tempo
stop
Contributor
Hey! There's an official Ultimate Guitar app which is ideal
for learning songs when you're away from computer. Get the app
WARNING: You are trying to view
                                    content from Ultimate-Guitar.com
                                    in an unauthorized application,
                                    which is prohibited.

                                    Please use an official Ultimate
                                    Guitar Tabs application for iPhone,
                                    iPad or Android to access legitimate
                                    chords, guitar, bass, and drum tabs
                                    from Ultimate-Guitar.com database.

                                    Type "ultimate guitar tabs" in Apple
                                    App Store's or Android Market's
                                    search to find the application.
*-pinch harmonic
/-slide up to
\-slide down to
b-bend
p-pull off
h-hammer on
~-pick slide

Guitar 1 (Rhythm)
Guitar 2 (Lead)
 
Guitar 1
|--------------------------------------------------------------------------|
|--------------------------------------------------------------------------|
|--------------------------------------------------------------------------|
|--------------------------------------------------------------------------|
|-0----------------------------------0-------------------------------------|
|-0----------------------------------0-------------------------------------|

Guitar 2
|--------------------------------------------------------------------------|
|--------------------------------------------------------------------------|
|--------------------------------------------------------------------------|
|--------------------------------------------------------------------------|
|-0----------------------------------0-----------------------------~~~~~~~~|
|-0----------------------------------0-----------------------------~~~~~~~~|

Guitar 1
|--------------------------------------------------------------------------|
|--------------------------------------------------------------------------|
|--------------------------------------------------------------------------|
|--------------------------------------------------------------------------|
|-0-0-0---0-0-0---0-0-0--------0-0-0--------8-8-8---8-8-8---8-8-8----------|
|-0-0-0---0-0-0---0-0-0--------0-0-0--------8-8-8---8-8-8---8-8-8----------|

Guitar 2
|--------------------------------------------------------------------------|
|--------------------------------------------------------------------------|
|--------------------------------------------------------------------------|
|-------------------------------------------------3-------2-------0h2h3----|
|-------8-------7-------7h8h10-------10p8p7-1-1-1---1-1-1---1-1-1----------|
|-0-0-0---0-0-0---0-0-0--------0-0-0---------------------------------------|

Guitar 1
|--------------------------------------------------------------------------|
|--------------------------------------------------------------------------|
|--------------------------------------------------------------------------|
|--------------------------------------------------------------------------|
|-7-7-7-------0-0-0---0-0-0---0-0-0--------0-0-0--------8-8-8---8-8-8------|
|-7-7-7-------0-0-0---0-0-0---0-0-0--------0-0-0--------8-8-8---8-8-8------|

Guitar 2
|--------------------------------------------------------------------------|
|--------------------------------------------------------------------------|
|--------------------------------------------------------------------------|
|-------3p2p0-------------------------------------------------3-------2----|
|-0-0-0-------------8-------7-------7h8h10-------10p8p7-1-1-1---1-1-1------|
|-------------0-0-0---0-0-0---0-0-0--------0-0-0---------------------------|

Guitar 1
|--------------------------------------------------------------------------|
|--------------------------------------------------------------------------|
|--------------------------------------------------------------------------|
|--------------------------------------------------------------------------|
|-8-8-8--------7-7-7-----0-0-0----0-0-0----0-0-0-----------0-0-0-----------|
|-8-8-8--------7-7-7-----0-0-0----0-0-0----0-0-0-----------0-0-0-----------|

Guitar 2
|--------------------------------------------------------------------------|
|--------------------------------------------------------------------------|
|--------------------------------------------------------------------------|
|-------0h2h3-------3p2p0--------------------------------------------------|
|-1-1-1-------0-0-0-------------12-------10-------10h12h13-------13p12p10--|
|-------------------------0-0-0----0-0-0----0-0-0----------0-0-0-----------|

Guitar 1
|--------------------------------------------------------------------------|
|--------------------------------------------------------------------------|
|--------------------------------------------------------------------------|
|--------------------------------------------------------------------------|
|-8-8-8----8-8-8----8-8-8----------8-8-8----------0-0-0----0-0-0----0-0-0--|
|-8-8-8----8-8-8----8-8-8----------8-8-8----------0-0-0----0-0-0----0-0-0--|

Guitar 2
|--------------------------------------------------------------------------|
|--------------------------------------------------------------------------|
|--------------------------------------------------------------------------|
|--------------------------------------------------------------------------|
|-------12-------10-------10h12h13-------13p12p10-------12-------10--------|
|-8-8-8----8-8-8----8-8-8----------8-8-8----------0-0-0----0-0-0----0-0-0--|

Guitar 1
|--------------------------------------------------------------------------|
|--------------------------------------------------------------------------|
|--------------------------------------------------------------------------|
|--------------------------------------------------------------------------|
|----------0-0-0----------8-8-8-8----------5-5-5-5--0------0-----------5--0|
|----------0-0-0----------8-8-8-8----------5-5-5-5--0------0-----------5--0|

Guitar 2
|---------------------------------------------------------------16b19------|
|--------------------------------------------------------------------------|
|--------------------------------------------------------------------------|
|---------------------------------7-5--------------------------------------|
|-10h12h13-------13p12p10-8-8-8-8-----8-5--5-5-5-5--0-------0----------5--0|
|----------0-0-0----------8-8-8-8----------5-5-5-5--0-------0----------5--0|

Guitar 1
|--------------------------------------------------------------------------|
|--------------------------------------------------------------------------|
|--------------------------------------------------------------------------|
|------------------------------------------------7-------------------------|
|---5-8-5-10-8-7h8p7-8--12-10-8-5--7-8-7---5-8-5--10-8-7-10-8-7------------|
|-00-0-0-0--0-0------8-8--8--8--5-5-5-5--00-0-0-0---------------10---------|

Guitar 2
|--------------------------------------------------------------------------|
|--------------------------------------------------------------------------|
|--------------------------------------------------------------------------|
|------------------------------------------------7-------------------------|
|---5-8-5-10-8-7h8p7-8--12-10-8-5--7-8-7---5-8-5--10-8-7-10-8-7------------|
|-00-0-0-0--0-0------8-8--8--8--5-5-5-5--00-0-0-0---------------10---------|

Guitar 1
|---------------------|
|---------------------|
|---------------------|
|---------------------|
|-8--12-10-8-5--7-8-7-|
|-8-8--8--8--5-5-5-5--|

Guitar 2
|---------------------|
|---------------------|
|---------------------|
|---------------------|
|-8--12-10-8-5--7-8-7-|
|-8-8--8--8--5-5-5-5--|

Guitar 1
|--------------------------------------------------------------------------|
|--------------------------------------------------------------------------|
|--------------------------------------------------------------------------|
|--------------------------------------------------------------------------|
|-----8-8p7p5-----8-8p7p5-8-8-8-8p7p5-5-5-8-8p7p5-----8-8p7p5-----8-8p7p5--|
|-0-0---------0-0---------8-8---------5-5---------0-0---------0-0----------|

Guitar 2
|--------------------------------------------------------------------------|
|--------------------------------------------------------------------------|
|--------------------------------------------------------------------------|
|--------------------------------------------------------------------------|
|-----8-8p7p5-----8-8p7p5-8-8-8-8p7p5-5-5-8-8p7p5-----8-8p7p5-----8-8p7p5--|
|-0-0---------0-0---------8-8---------5-5---------0-0---------0-0----------|

Guitar 1
|--------------------------------------------------------------------------|
|--------------------------------------------------------------------------|
|--------------------------------------------------------------------------|
|-----------------------------7-7p5p3-----7-7p5p3-----7-7p5p3-----7-7p5p3--|
|-8-8-8-8p7p5-5-5-8-8p7p5--------------------------------------------------|
|-8-8---------5-5----------0-0--------0-0---------8-8---------5-5----------|

Guitar 2
|--------------------------------------------------------------------------|
|--------------------------------------------------------------------------|
|--------------------------------------------------------------------------|
|-----------------------------7-7p5p3-----7-7p5p3-----7-7p5p3-----7-7p5p3--|
|-8-8-8-8p7p5-5-5-8-8p7p5--------------------------------------------------|
|-8-8---------5-5----------0-0--------0-0---------8-8---------5-5----------|

Guitar 1
|--------------------------------------------------------------------------|
|--------------------------------------------------------------------------|
|--------------------------------------------------------------------------|
|-----7-7p5p3-----7-7p5p3-----7-7p5p3-----7-7p5p3------------------7-7-10--|
|-----------------------------------------------------------------8-8-8--10|
|-0-0---------0-0---------8-8---------5-5--------000-000-000-000-7---------|

Guitar 2
|--------------------------------------------------------------------------|
|--------------------------------------------------------------------------|
|--------------------------------------------------------------------------|
|-----7-7p5p3-----7-7p5p3-----7-7p5p3-----7-7p5p3------------------7-7-10--|
|-----------------------------------------------------------------8-8-8--10|
|-0-0---------0-0---------8-8---------5-5--------000-000-000-000-7---------|

Guitar 1
|--------------------------------------------------------------------------|
|--------------------------------------------------------------------------|
|--------------------------------------------------------------------------|
|--------------------------------------------7-7-10------------------------|
|------------------8-7-8-8------------------8-8-8--10---------------8-7-8-8|
|-000-000-000-000-5-----7--000-000-000-000-7----------000000000000-5-----7-|

Guitar 2
|--------------------------------------------------------------------------|
|--------------------------------------------------------------------------|
|--------------------------------------------------------------------------|
|--------------------------------------------7-7-10------------------------|
|------------------8-7-8-8------------------8-8-8--10---------------8-7-8-8|
|-000-000-000-000-5-----7--000-000-000-000-7----------000000000000-5-----7-|

Guitar 1
|--------------------------------------------------------------------------|
|--------------------------------------------------------------------------|
|--------------------------------------------------------------------------|
|-------------------7-7-10-------------------------------------------------|
|------------------8-8-8--10------------------8-7-8-8----------------------|
|-000-000-000-000-7----------000-000-000-000-5-----7--000-000-000-000------|

Guitar 2
|--------------------------------------------------------------------------|
|--------------------------------------------------------------------------|
|--------------------------------------------------------------------------|
|-------------------7-7-10-------------------------------------------------|
|------------------8-8-8--10------------------8-7-8-8----------------------|
|-000-000-000-000-7----------000-000-000-000-5-----7--000-000-000-000------|

Guitar 1
|--------------------------------------------------------------------------|
|--------------------------------------------------------------------------|
|--------------------------------------------------------------------------|
|---7-7-10-----------------------------------------------------------------|
|--8-8-8--10---------------8-7-8-8--0-0000-0-0-0-0-0000--0-0000-0000-000---|
|-7----------000000000000-5-----7---0-0000-0-0-0-0-0000--0-0000-0000-000---|

Guitar 2
|--------------------------------------------------------------------------|
|--------------------------------------------------------------------------|
|--------------------------------------------------------------------------|
|---7-7-10-----------------------------------------------------------------|
|--8-8-8--10---------------8-7-8-8--0-0000-0-0-0-0000--0-0000-0000-000-----|
|-7----------000000000000-5-----7---0-0000-0-0-0-0000--0-0000-0000-000-----|

Guitar 1
|--------------------------------------------------------------------------|
|--------------------------------------------------------------------------|
|--------------------------------------------------------------------------|
|--7--------------------------------------7-------------------7------------|
|-0-8-0-0000-0-0-0-0000--0-0000-0000-000-0-8-0-0000-0000-000-0-8-0---------|
|-----0-0000-0-0-0-0000--0-0000-0000-000-----0-0000-0000-000-----0---------|

Guitar 2
|--------------------------------------------------------------------------|
|--------------------------------------------------------------------------|
|--------------------------------------------------------------------------|
|--7--------------------------------------7-------------------7------------|
|-0-8-0-0000-0-0-0-0000--0-0000-0000-000-0-8-0-0000-0000-000-0-8-0---------|
|-----0-0000-0-0-0-0000--0-0000-0000-000-----0-0000-0000-000-----0---------|

Guitar 1
|--------------------------------------------------------------------------|
|--------------------------------------------------------------------------|
|--------------------------------------------------------------------------|
|-----------------------------------7--------------------------------------|
|-0000-0-0-0-0000--0-0000-0000-000-0-8-0-0000-0000-000---------------------|
|-0000-0-0-0-0000--0-0000-0000-000-----0-0000-0000-000---------------------|

Guitar 2
|--------------------------------------------------------------------------|
|--------------------------------------------------------------------------|
|--------------------------------------------------------------------------|
|-----------------------------------7--------------------------------------|
|-0000-0-0-0-0000--0-0000-0000-000-0-8-0-0000-0000-000-10p8p7--------------|
|-0000-0-0-0-0000--0-0000-0000-000-----0-0000-0000-000-------10p8p7h8------|

Guitar 1
|----------------------------------------------------------|
|----------------------------------------------------------|
|----------------------------------------------------------|
|---------10-----------10-----------10---------------------| X4
|-8-8-7-8----8-5-8-7-8----8-0-8-7-8----8-7-8-10-8-7--------|
|-8------------5------------0-----------------------10-8-7-|


Guitar 2
|----------------------------------------------------------|
|----------------------------------------------------------|
|----------------------------------------------------------|
|---------10-----------10-----------10---------------------| X4
|-8-8-7-8----8-5-8-7-8----8-0-8-7-8----8-7-8-10-8-7--------|
|-8------------5------------0-----------------------10-8-7-|

Guitar 1
|--------------------------------------------------------------------------|
|--------------------------------------------------------------------------|
|--------------------------------------------------------------------------|
|--------------------------------------------------------------------------|
|-8--5--0--5-8-5-10-8-7h8p7-8--12-10-8-5--7-8-7---5-8-5--10-8-7-10-8-7-----|
|-8--5--0-0-0-0-0--0-0------8-8--8--8--5-5-5-5--00-0-0-0---------------10--|

Guitar 2
|--------------------------------------------------------------------------|
|--------------------------------------------------------------------------|
|--------------------------------------------------------------------------|
|-------------------------------------------------------7------------------|
|-8--5--0--5-8-5-10-8-7h8p7-8--12-10-8-5--7-8-7---5-8-5---10-8-7-10-8-7----|
|-8--5--0-0-0-0-0--0-0------8-8--8--8--5-5-5-5--00-0-0-0----------------10-|

Guitar 1
|--------------------------------------------------------------------------|
|--------------------------------------------------------------------------|
|--------------------------------------------------------------------------|
|-------------------------------------------------7------------------------|
|---5-8-5-10-8-7h8p7-8--12-10-8-5--7-8-7---5-8-5----10-8-7-10-8-7----------|
|-00-0-0-0--0-0------8-8--8--8--5-5-5-5--00-0-0-0-----------------10-------|

Guitar 2
|--------------------------------------------------------------------------|
|--------------------------------------------------------------------------|
|--------------------------------------------------------------------------|
|-------------------------------------------------7------------------------|
|---5-8-5-10-8-7h8p7-8--12-10-8-5--7-8-7---5-8-5----10-8-7-10-8-7----------|
|-00-0-0-0--0-0------8-8--8--8--5-5-5-5--00-0-0-0-----------------10-------|

Guitar 1
|--------------------------------------------------------------------------|
|--------------------------------------------------------------------------|
|--------------------------------------------------------------------------|
|-------------------------------------------------7------------------------|
|---5-8-5-10-8-7h8p7-8--12-10-8-5--7-8-7---5-8-5----10-8-7-10-8-7----------|
|-00-0-0-0--0-0------8-8--8--8--5-5-5-5--00-0-0-0-----------------10-------|

Guitar 2
|--------------------------------------------------------------------------|
|--------------------------------------------------------------------------|
|--------------------------------------------------------------------------|
|-------------------------------------------------7------------------------|
|---5-8-5-10-8-7h8p7-8--12-10-8-5--7-8-7---5-8-5----10-8-7-10-8-7----------|
|-00-0-0-0--0-0------8-8--8--8--5-5-5-5--00-0-0-0-----------------10-------|


Guitar 1
|--------------------------------------------------------------------------|
|--------------------------------------------------------------------------|
|--------------------------------------------------------------------------|
|--------------------------------------------------------------------------|
|-----8-8p7p5-----8-8p7p5-8-8-8-8p7p5-5-5-8-8p7p5-----8-8p7p5-----8-8p7p5--|
|-0-0---------0-0---------8-8---------5-5---------0-0---------0-0----------|

Guitar 2
|--------------------------------------------------------------------------|
|--------------------------------------------------------------------------|
|--------------------------------------------------------------------------|
|--------------------------------------------------------------------------|
|-----8-8p7p5-----8-8p7p5-8-8-8-8p7p5-5-5-8-8p7p5-----8-8p7p5-----8-8p7p5--|
|-0-0---------0-0---------8-8---------5-5---------0-0---------0-0----------|

Guitar 1
|--------------------------------------------------------------------------|
|--------------------------------------------------------------------------|
|--------------------------------------------------------------------------|
|-----------------------------7-7p5p3-----7-7p5p3-----7-7p5p3-----7-7p5p3--|
|-8-8-8-8p7p5-5-5-8-8p7p5--------------------------------------------------|
|-8-8---------5-5----------0-0--------0-0---------8-8---------5-5----------|

Guitar 2
|--------------------------------------------------------------------------|
|--------------------------------------------------------------------------|
|--------------------------------------------------------------------------|
|-----------------------------7-7p5p3-----7-7p5p3-----7-7p5p3-----7-7p5p3--|
|-8-8-8-8p7p5-5-5-8-8p7p5--------------------------------------------------|
|-8-8---------5-5----------0-0--------0-0---------8-8---------5-5----------|

Guitar 1
|--------------------------------------------------------------------------|
|--------------------------------------------------------------------------|
|--------------------------------------------------------------------------|
|-----7-7p5p3-----7-7p5p3-----7-7p5p3-----7-7p5p3------------------7-7-10--|
|-----------------------------------------------------------------8-8-8--10|
|-0-0---------0-0---------8-8---------5-5--------000-000-000-000-7---------|

Guitar 2
|--------------------------------------------------------------------------|
|--------------------------------------------------------------------------|
|--------------------------------------------------------------------------|
|-----7-7p5p3-----7-7p5p3-----7-7p5p3-----7-7p5p3------------------7-7-10--|
|-----------------------------------------------------------------8-8-8--10|
|-0-0---------0-0---------8-8---------5-5--------000-000-000-000-7---------|

Guitar 1
|--------------------------------------------------------------------------|
|--------------------------------------------------------------------------|
|--------------------------------------------------------------------------|
|--------------------------------------------7-7-10------------------------|
|------------------8-7-8-8------------------8-8-8--10---------------8-7-8-8|
|-000-000-000-000-5-----7--000-000-000-000-7----------000000000000-5-----7-|

Guitar 2
|--------------------------------------------------------------------------|
|--------------------------------------------------------------------------|
|--------------------------------------------------------------------------|
|--------------------------------------------7-7-10------------------------|
|------------------8-7-8-8------------------8-8-8--10---------------8-7-8-8|
|-000-000-000-000-5-----7--000-000-000-000-7----------000000000000-5-----7-|

Guitar 1
|--------------------------------------------------------------------------|
|--------------------------------------------------------------------------|
|--------------------------------------------------------------------------|
|-------------------7-7-10-------------------------------------------------|
|------------------8-8-8--10------------------8-7-8-8----------------------|
|-000-000-000-000-7----------000-000-000-000-5-----7--000-000-000-000------|

Guitar 2
|--------------------------------------------------------------------------|
|--------------------------------------------------------------------------|
|--------------------------------------------------------------------------|
|-------------------7-7-10-------------------------------------------------|
|------------------8-8-8--10------------------8-7-8-8----------------------|
|-000-000-000-000-7----------000-000-000-000-5-----7--000-000-000-000------|

Guitar 1
|--------------------------------------------------------------------------|
|--------------------------------------------------------------------------|
|--------------------------------------------------------------------------|
|---7-7-10-----------------------------------------------------------------|
|--8-8-8--10---------------8-7-8-8--0-0000-0-0-0-0-0000--0-0000-0000-000---|
|-7----------000000000000-5-----7---0-0000-0-0-0-0-0000--0-0000-0000-000---|

Guitar 2
|--------------------------------------------------------------------------|
|--------------------------------------------------------------------------|
|--------------------------------------------------------------------------|
|---7-7-10-----------------------------------------------------------------|
|--8-8-8--10---------------8-7-8-8--0-0000-0-0-0-0000--0-0000-0000-000-----|
|-7----------000000000000-5-----7---0-0000-0-0-0-0000--0-0000-0000-000-----|

Guitar 1
|--------------------------------------------------------------------------|
|--------------------------------------------------------------------------|
|--------------------------------------------------------------------------|
|--7--------------------------------------7-------------------7------------|
|-0-8-0-0000-0-0-0-0000--0-0000-0000-000-0-8-0-0000-0000-000-0-8-0---------|
|-----0-0000-0-0-0-0000--0-0000-0000-000-----0-0000-0000-000-----0---------|

Guitar 2
|--------------------------------------------------------------------------|
|--------------------------------------------------------------------------|
|--------------------------------------------------------------------------|
|--7--------------------------------------7-------------------7------------|
|-0-8-0-0000-0-0-0-0000--0-0000-0000-000-0-8-0-0000-0000-000-0-8-0---------|
|-----0-0000-0-0-0-0000--0-0000-0000-000-----0-0000-0000-000-----0---------|

Guitar 1
|--------------------------------------------------------------------------|
|--------------------------------------------------------------------------|
|--------------------------------------------------------------------------|
|-----------------------------------7--------------------------------------|
|-0000-0-0-0-0000--0-0000-0000-000-0-8-0-0000-0000-000---------------------|
|-0000-0-0-0-0000--0-0000-0000-000-----0-0000-0000-000---------------------|

Guitar 2
|--------------------------------------------------------------------------|
|--------------------------------------------------------------------------|
|--------------------------------------------------------------------------|
|-----------------------------------7--------------------------------------|
|-0000-0-0-0-0000--0-0000-0000-000-0-8-0-0000-0000-000-10p8p7--------------|
|-0000-0-0-0-0000--0-0000-0000-000-----0-0000-0000-000-------10p8p7h8------|

Guitar 1
|----------------------------------------------------------|
|----------------------------------------------------------|
|----------------------------------------------------------|
|---------10-----------10-----------10---------------------| X4
|-8-8-7-8----8-5-8-7-8----8-0-8-7-8----8-7-8-10-8-7--------|
|-8------------5------------0-----------------------10-8-7-|


Guitar 2
|----------------------------------------------------------|
|----------------------------------------------------------|
|----------------------------------------------------------|
|---------10-----------10-----------10---------------------| X4
|-8-8-7-8----8-5-8-7-8----8-0-8-7-8----8-7-8-10-8-7--------|
|-8------------5------------0-----------------------10-8-7-|

Guitar 1
|--------------------------------------------------------------------------|
|--------------------------------------------------------------------------|
|--------------------------------------------------------------------------|
|-------------------------------------------------7------------------------|
|---5-8-5-10-8-7h8p7-8--12-10-8-5--7-8-7---5-8-5----10-8-7-10-8-7----------|
|-00-0-0-0--0-0------8-8--8--8--5-5-5-5--00-0-0-0-----------------10-------|

Guitar 2
|--------------------------------------------------------------------------|
|--------------------------------------------------------------------------|
|--------------------------------------------------------------------------|
|-------------------------------------------------7------------------------|
|---5-8-5-10-8-7h8p7-8--12-10-8-5--7-8-7---5-8-5----10-8-7-10-8-7----------|
|-00-0-0-0--0-0------8-8--8--8--5-5-5-5--00-0-0-0-----------------10-------|

Guitar 1
|--------------------------------------------------------------------------|
|--------------------------------------------------------------------------|
|--------------------------------------------------------------------------|
|-------------------------------------------------7------------------------|
|---5-8-5-10-8-7h8p7-8--12-10-8-5--7-8-7---5-8-5----10-8-7-10-8-7----------|
|-00-0-0-0--0-0------8-8--8--8--5-5-5-5--00-0-0-0-----------------10-------|

Guitar 2
|--------------------------------------------------------------------------|
|--------------------------------------------------------------------------|
|--------------------------------------------------------------------------|
|-------------------------------------------------7------------------------|
|---5-8-5-10-8-7h8p7-8--12-10-8-5--7-8-7---5-8-5----10-8-7-10-8-7----------|
|-00-0-0-0--0-0------8-8--8--8--5-5-5-5--00-0-0-0-----------------10-------|

Guitar 1
|--------------------------------------------------------------------------|
|--------------------------------------------------------------------------|
|--------------------------------------------------------------------------|
|--------------------------------------------------------------------------|
|-8--12-10-8-5--7-8-7-8--12-10-8-5--7-8-7-8--12-10-8-5-5-5-5-5-5-5-5-5-5-5-|
|-8-8--8--8--5-5-5-5--8-8--8--8--5-5-5-5--8-8--8--8--5-5-5-5-5-5-5-5-5-5-5-|

Guitar 2
|--------------------------------------------------------------------------|
|--------------------------------------------------------------------------|
|--------------------------------------------------------------------------|
|--------------------------------------------------------------------------|
|-8--12-10-8-5--7-8-7-8--12-10-8-5--7-8-7-8--12-10-8-5-5-5-5-5-5-5-5-5-5-5-|
|-8-8--8--8--5-5-5-5--8-8--8--8--5-5-5-5--8-8--8--8--5-5-5-5-5-5-5-5-5-5-5-|

Guitar 1
|-------------------------------|
|-------------------------------|
|-------------------------------|
|-------------------------------|X4
|-------------------------------|
|-000-000--0000-000-000-000-000-|

Guitar 2
|-------------------------------|
|-------------------------------|
|-------------------------------|
|-------------------------------|X4
|-------------------------------|
|-000-000--0000-000-000-000-000-|

Guitar 1
|--------------------------------------------------------------------------|
|--------------------------------------------------------------------------|
|--------------------------------------------------------------------------|
|--------------------------------------------------------------------------|
|-3*-----------------------------------------------------------------------|
|----000-000--0000-000-000-000-000-----000-000--0000-000-000-000-000-------|

Guitar 2
|--------------------------------------------------------------------------|
|--------------------------------------------------------------------------|
|--------------------------------------------------------------------------|
|-3*--------------------------------7--------------------------------------|
|----------------------------------0-8-------------------------------------|
|----000-000--0000-000-000-000-000-----000-000--0000-000-000-000-000-------|

Guitar 1
|--------------------------------------------------------------------------|
|--------------------------------------------------------------------------|
|--------------------------------------------------------------------------|
|--------------------------------------------------------------------------|
|--------------------------------------------------------------------------|
|----------------000-000--0000-000-000-000-000-----000-000--0000-000-000---|

Guitar 2
|--------------------------------------------------------------------------|
|--------------------------------------------------------------------------|
|--------------------------------------------------------------------------|
|-----------------------------------------------7--------------------------|
|-10p8p7---------------------------------------0-8-------------------------|
|-------10p8p7h8-000-000--0000-000-000-000-000-----000-000--0000-000-000---|

Guitar 1
|--------------------------------------------------------------------------|
|--------------------------------------------------------------------------|
|--------------------------------------------------------------------------|
|--------------------------------------------------------------------------|
|--------------------------------------------------------------------------|
|-000-000------------------------------------------------------------------|

Guitar 2
|--------------------------------------------------------------------------|
|--------------------------------------------------------------------------|
|--------------------------------------------------------------------------|
|-----------------------7--------------------------------------------------|
|---------10p8p7---------8-------------------------------------------------|
|-000-000-------10p8p7h8---------------------------------------------------|

comments
We did not receive enough feedback on this tab! Please rate:
print report bad tab
1 2 3 4 5
1 comment total.
0 reply
basspunk709 wrote on June 12 2009, 07:48 am

what is this song, through sruggle?
is it similar to the song through struggle???\

also im confused as to wether or not put this
under comment or correction......ill just go with
comment.

I want to post or [tab]
guest
You may want to rate the tab now too:
select rating
Please do not post tabs as comments. Select "correction" instead!