Oops, an error
Loading. Please wait.

Through Struggle Tab

ver3
ver3

Whole song

More versions @911Tabs.com
19,158 views 18 this week
11 commentsread comments
1 2 3 4 5
excellent!
x 13
Autoscroll
+/-
esc
set tempo
stop
Contributor
Hey! There's an official Ultimate Guitar app which is ideal
for learning songs when you're away from computer. Get the app
WARNING: You are trying to view
                                    content from Ultimate-Guitar.com
                                    in an unauthorized application,
                                    which is prohibited.

                                    Please use an official Ultimate
                                    Guitar Tabs application for iPhone,
                                    iPad or Android to access legitimate
                                    chords, guitar, bass, and drum tabs
                                    from Ultimate-Guitar.com database.

                                    Type "ultimate guitar tabs" in Apple
                                    App Store's or Android Market's
                                    search to find the application.
Artist: As I Lay Dying
Song: Through Struggle



 Guitars:I,II
D||------------------------------------------------||
A||------------------------------------------------||
F||------------------------------------------------||
C||---0-------------------0------------------------||
G||---0-------------------0------------------X\\\--||
C||---0-------------------0------------------X\\\--||


  Guitar:I
|-----------------------------------------------------------------------||
|-----------------------------------------------------------------------||
|-----------------------------------------------------------------------||
|--------------------------------------------------------------3p2------||
|------8-----7-----7h8h10-----10p8p7-----8-----7-----5h7h8--000----4----||
|---000---000---000--------000--------888---888---555-------------------||\
 |                                                                          X2
 |Guitar:II                                                                 /
|-----------------------------------------------------------------------||
|-----------------------------------------------------------------------||
|-----------------------------------------------------------------------||
|-----------------------------------------------------------------------||
|---0000--0000--0000-------0000----------8------7-----5--------7--------||
|---0000--0000--0000-------0000-------8888---8888--5555-----7777--------||

  Guitar:I
|-----------------------------------------------------------------------||
|-----------------------------------------------------------------------||
|-----------------------------------------------------------------------||
|---------------------------------------------------------------3p2-----||
|------8-----7-----7h8h10------10p8p7-----8-----7-----5h7h8--000----4---||
|---000---000---000---------000--------888---888---555------------------||
 |
 |Guitar:II
|-----------------------------------------------------------------------||
|-----------------------------------------------------------------------||
|-----------------------------------------------------------------------||
|------------------------------------------------------3h5h7----7p5-----||
|------12----10----10h12h13----13p12p10----12----10----------000----7---||
|---000---000---000---------000---------888---888---555-----------------||

  Guitar:I
||-----------------------------------------------------------------------||
||-----------------------------------------------------------------------||
||-----------------------------------------------------------------------||
||-----------------------------------------------------------------------||
||------8-----7-----7h8h10------10p8p7---8888-----8p7p5--------5555------||
||---000---000---000---------000---------8888-----------8\-----5555------||
 |
 |Guitar:II
||-----------------------------------------------------------------------||
||-----------------------------------------------------------------------||
||-----------------------------------------------------------------------||
||-----------------------------------------------------------------------||
||------12----10----10h12h13----13p12p10-8888----12p10p8-------5555------||
||---000---000---000---------000---------8888------------12\---5555------||

   Guitar:I
||-----------------------------------------------||
||-----------------------------------------------||
||-----------------------------------------------||
||---0--------0--------0--------8----5-----------||
||---0--------0--------0--------8----5-----X\\---||
||---0--------0--------0--------8----5-----X\\---||
 |
 |Guitar:II
||-----------------------------------------------||
||-----------------------------------------------||
||-----------------------------------------------||
||---0--------0-------7*b-------8----5-----------||
||---0--------0-----------------8----5----X\\----||
||---0--------0-----------------8----5----X\\----||


   Guitar:I,II
||----------------------------------------------------------------------||
||----------------------------------------------------------------------||
||----------------------------------------------------------------------||
||---0-------------------------------8----------------------------------||
||---0----5---8---5---10---8---7h8p7-8----8---12---10p8-----7---8---4---||
||---0--0---0---0---0----0---0-------8--8---8----8------5-5---5---5-----||


 Guitar:I
||----------------------------------------------------------------------||
||----------------------------------------------------------------------||
||----------------------------------------------------------------------||
||---0-------------------------------8----------------------------------||
||---0----5---8---5-88-7-5-3-7-5-3---8----8---12---10p8-----7---8---4---||
||---0--0---0---0--------------------8--8---8----8------5-5---5---5-----||
 |
 |Guitar:II
||-------------------------------------------------------------------------||
||-------------------------------------------------------------------------||
||-------------------------------------------------------------------------||
||---0----------------------------------8----------------------------------||
||---0----5---8---5-1212-10-8-7-10-8-7--8----8---12---10p8-----7---8---4---||
||---0--0---0---0-----------------------8--8---8----8------5-5---5---5-----||


  Guitar:I
||---------------------------------------------------------------------||
||---------------------------------------------------------------------||
||---------------------------------------------------------------------||
||----------------------------------3----------------------------------||
||--------5---5p3---------5---5p3p0-1--1--5-1-5p3p1-5-----5----5p3-----||
||--0---0---0-----0-0---0---0-----------------------5---5---5------5---||
  |
  Guitar:II
||---------------------------------------------------------------------||
||---------------------------------------------------------------------||
||---------------------------------------------------------------------||
||---------------------------------------------------------------------||
||--------8---8p7---------8---8p7----------8---8p7---------8---8p7-----||
||--0---0---0-----0-0---0---0-----10-8---8---8-----8-5---5---5-----5---||


   Guitar:I
||---------------------------------------------------------------------||
||---------------------------------------------------------------------||
||---------------------------------------------------------------------||
||----------------------------------3----------------------------------||
||--------5---5p3---------5---5p3p0-1--1--5-1-5p3p1-5-----5----5p3-----||
||--0---0---0-----0-0---0---0-----------------------5---5---5------5---||
  |
  |Guitar:II
||----------------------------------------------------------------------||
||----------------------------------------------------------------------||
||----------------------------------------------------------------------||
||-------------------------------------------------------------5h7p5----||
||--------8---8p7---------8---8p7----------8---8p7---------8---------8--||
||--0---0---0-----0-0---0---0-----10-8---8---8-----8-5---5---5----------||


   Guitar:I
||---------------------------------------------------------------------||
||---------------------------------------------------------------------||
||---------------------------------------------------------------------||
||----------------------------------3----------------------------------||
||--------5---5p3---------5---5p3p0-1--1--5-1-5p3p1-5-----5----5p3-----||
||--0---0---0-----0-0---0---0-----------------------5---5---5------5---||
  |
  |Guitar:II
||-----------------------------------------------------------------------||
||-----------------------------------------------------------------------||
||-----------------------------------------------------------------------||
||-----------------------------------------------------------7---7p5-----||
||--------12--12p10----12-12p10--------8----12--12p10--------------------||
||--0---0---0------0-0---0-----0-------8---8---8-----8-5---5---5-----5---||


   Guitar:I
||-----------------------------------------------------------------------||
||-----------------------------------------------------------------------||
||-----------------------------------------------------------------------||
||----------------------------------3-------------------------2h3p2---2--||
||--------5---5p3---------5---5p3p0-1---1-5-1-5p3p0-------5---------3----||
||--0---0---0-----0-0---0---0-----------------------5---5---5------------||
  |
  |Guitar:II
||-------------------------------------------------------------------------||
||-------------------------------------------------------------------------||
||-------------------------------------------------------------------------||
||----------------------------------------------------------7---5h7p5---7--||
||--------12--12p10------------------8-----12--12p10------------------8----||
||--0---0----0-----0-0---0---0-------8---8----8-----8-5---5---5------------||


   Guitar:I,II
||------------------------------------------------------------------------||
||------------------------------------------------------------------------||
||------------------------------------------------------------------------||
||------------------------------------------------------------------------||
||-------------------0-8-12--12-8---10-------------------8-7-8-0-8--------||
||---000-000-000-000--------8-----10---000-000-000-000-5-----------0-0----||\
                                                                              X2
||------------------------------------------------------------------------||/
||------------------------------------------------------------------------||
||------------------------------------------------------------------------||
||------------------------------------------------------------------------||
||-------------------0-8-12--12-8---10-------------------8-7-8-0-8--------||
||---000-000-000-000--------8-----10---0-0-0-0-0-0-0-0--5-----------0-0---||

   Guitar:I,II
||----------------------------------------------------||X2
||----------------------------------------------------||
||----------------------------------------------------||
||---0--------------------0---------------------7-----||
||---0--00000-0-0-0-000-0-0--00000-00000-0000-0---8---||
||---0--00000-0-0-0-000-0-0--00000-00000-0000---------||


   Guitar:I
||------------------------------------------------------------||
||------------------------------------------------------------||
||------------------------------------------------------------||
||--0---------------------7---0--------------------------7----||
||--0--00000-00000-0000-0---8-0--00000-0-10p8p7------------8--||
||--0--00000-00000-0000-------0--00000-0--------10p8p7-8------||
  |
  |Guitar:II
||------------------------------------------------------------||
||------------------------------------------------------------||
||------------------------------------------------------------||
||--0---------------------7---0-------------------------------||
||--0--00000-00000-0000-0---8-0--00000-0--0-----0-----000--0--||
||--0--00000-00000-0000-------0--00000-0--0-----0-----000--0--||


   Guitar:I
||-----------------------------------------------------------||
||-----------------------------------------------------------||
||-----------------------------------------------------------||
||--0---------------------7---0------------------------------||
||--0--00000-00000-0000-0---8-0--00000-0--0-----0----000--0--||
||--0--00000-00000-0000-------0--00000-0--0-----0----000--0--||
  |
  |Guitar:II
||------------------------------------------------------------||
||------------------------------------------------------------||
||------------------------------------------------------------||
||--0---------------------7---0-------------------------------||
||--0--00000-00000-0000-0---8-0--00000-0-10p8p7---------------||
||--0--00000-00000-0000-------0--00000-0--------10p8p7-10-7---||


   Guitar:I
||-------------------------------------------------------------------------||
||-------------------------------------------------------------------------||
||-------------------------------------------------------------------------||
||--8----------10---5----------10---0---------10---------------------7-----||
||--8----8-7-8----8-5----8-7-8---8--0---8-7-8----8-7-10p8p7------------8---||
||--8---------------5---------------0-----------------------10p8p7-8-------|| \
  |                                                                             x2
  |Guitar:II                                                                    /
||--------------------------------------------------------------------------||
||--------------------------------------------------------------------------||
||--------------------------------------------------------------------------||
||--8-8-8-8-8-8-8-8-5-5-5-5-5-5-5-5-0-0-0-0-0-0-0-0-0-10-10-10-10-7-7-7-7---||
||--8-8-8-8-8-8-8-8-5-5-5-5-5-5-5-5-0-0-0-0-0-0-0-0-0-10-10-10-10-7-7-7-7---||
||--8-8-8-8-8-8-8-8-5-5-5-5-5-5-5-5-0-0-0-0-0-0-0-0-0-10-10-10-10-7-7-7-7---||


   Guitar:I
||--------------------------------------------------------------------------||
||--------------------------------------------------------------------------||
||--------------------------------------------------------------------------||
||---8----------10---5----------10---0---------10---------------------7-----||
||---8----8-7-8----8-5----8-7-8---8--0---8-7-8----8-7-10p8p7------------8---||
||---8---------------5---------------0-----------------------10p8p7-8-------||
  |
  |Guitar:II
||---------------------------------------------------------------------------||
||---------------------------------------------------------------------------||
||-----------14141414--------12121212----------1010101012-12-12-12-9-9-9-9---||
||---8-8-8-8-x-x-x-x-5-5-5-5-x-x-x-x-0-0-0-0-0-x-x-x-x-10-10-10-10-7-7-7-7---||
||---8-8-8-8-121212125-5-5-5-101010100-0-0-0-0-8-8-8-8-10-10-10-10-7-7-7-7---||
||---8-8-8-8---------5-5-5-5---------0-0-0-0-0---------10-10-10-10-7-7-7-7---||


   Guitar:I
||--------------------------------------------------------------------------||
||--------------------------------------------------------------------------||
||--------------------------------------------------------------------------||
||---8----------10---5----------10---0---------10---------------------7-----||
||---8----8-7-8----8-5----8-7-8---8--0---8-7-8----8-7-10p8p7------------8---||
||---8---------------5---------------0-----------------------10p8p7-8-------||
  |
  |Guitar:II
||--------------------------------------------------------------------------||
||--------------------------------------------------------------------------||
||-----------10101010--------9-9-9-9-----------7-7-7-7----------------------||
||---8-8-8-8-x-x-x-x-5-5-5-5-x-x-x-x-0-0-0-0-0-x-x-x-x-10-10---7-7----------||
||---8-8-8-8-8-8-8-8-5-5-5-5-7-7-7-7-0-0-0-0-0-5-5-5-5-10-10---7-7----------||
||---8-8-8-8---------5-5-5-5---------0-0-0-0-0---------10-10---7-7----------||

   Guitar:I
||------------------------------------||
||------------------------------------||
||------------------------------------||
||---8---------10---5---------10--0---||
||---8---8-7-8----8-5---8-7-8---8-0---||
||---8--------------5-------------0---||
  |
  |Guitar:II
||------------------------------------||
||------------------------------------||
||------------------------------------||
||---8--------------5-------------0---||
||---8--------------5-------------0---||
||---8--------------5-------------0---||


   Guitar:I,II
||------------------------------------------------------------------------||X2
||------------------------------------------------------------------------||
||------------------------------------------------------------------------||
||------------------------------------------------------------------------||
||------------------0-8-12--12p8---10-------------------8-7-8-0-8---------||
||---000-000-000-000--------8-----10---000-000-000-000-5-----------0-0----||


   Guitar:I
||------------------------------------------------------------------------||
||------------------------------------------------------------------------||
||------------------------------------------------------------------------||
||------------------------------------------------------------------------||
||-------------------0-8-12--12p8---10-------------------8-7-8-0-8--------||
||---000-000-000-000--------8-----10---000-000-000-000-5-----------0-0----|| \
  |                                                                            X2
  |Guitar:II                                                                   /
||-------------------------------------------------------------------------||
||-------------------------------------------------------------------------||
||-------------------------------------------------------------------------||
||---------------------0-3---3-0---2-----------------7-5-7---7-------------||
||-------------------0-----1-----3-------------------------0---------------||
||---000-000-000-000---------------000-000-000-000-5-----------------------||


  Guitar I
||--------------------------------------------------------------------------||
||--------------------------------------------------------------------------||
||--------------------------------------------------------------------------||
||---8----------10---5----------10---0---------10---------------------7-----||
||---8----8-7-8----8-5----8-7-8---8--0---8-7-8----8-7-10p8p7------------8---||
||---8---------------5---------------0-----------------------10p8p7-8-------||
 |                                                                         \
 |                                                                          X2
 |Guitar:II                                                                 /
||-----------------------------------------------------------------------||
||-----------------------------------------------------------------------||
||-----------------------------------------------------------------------||
||---8--------------5-------------0--------------------------------------||
||---8--------------5-------------0--------------------------------------||
||---8--------------5-------------0--------------------------------------||


  Guitar:I
||--------------------------------------------------------------------------||
||--------------------------------------------------------------------------||
||--------------------------------------------------------------------------||
||---8----------10---5----------10---0---------10---------------------7-----||
||---8----8-7-8----8-5----8-7-8---8--0---8-7-8----8-7-10p8p7------------8---||
||---8---------------5---------------0-----------------------10p8p7-8-------||
 |
 |
 |Guitar:II
||-----------------------------------------------------------------------||
||-----------------------------------------------------------------------||
||-----------------------------------------------------------------------||
||---12-------------8-------------7--------------------------------------||
||---8--------------5-------------0--------------------------------------||
||---8--------------5-------------0--------------------------------------||


  Guitar:I
||------------------------------------||
||------------------------------------||
||------------------------------------||
||---8---------10---5---------10--0---||
||---8---8-7-8----8-5---8-7-8---8-0---||
||---8--------------5-------------0---||
 |
 |Guitar:II
||----------------------------------||
||----------------------------------||
||----------------------------------||
||---10-------------8---------------||
||---8--------------5---------------||
||---8--------------5---------------||


  Guitar:I
||----------------------------------------------------------------------||
||----------------------------------------------------------------------||
||----------------------------------------------------------------------||
||---0-------------------------------8----------------------------------||
||---0----5---8---5---10---8---7h8p7-8----8---12---10p8-----7---8---4---||
||---0--0---0---0---0----0---0-------8--8---8----8------5-5---5---5-----||
 |
 |Guitar:II
||----------------------------------------------------------------------||
||----------------------------------------------------------------------||
||----------------------------------------------------------------------||
||---0-------------------------5h7p5-8----------------------------------||
||---0-----------------0---0---------8----8---12---10p8-----7---8---4---||
||---0-----------------0---0---------8--8---8----8------8-5---5---5-----||


   Guitar:I
||----------------------------------------------------------------------||
||----------------------------------------------------------------------||
||----------------------------------------------------------------------||
||---0----------------3--------------8----------------------------------||
||---0----5---8-3h5h7---7-5-3-7-5-3--8----8---12---10p8-----7---8---4---||
||---0--0---0------------------------8--8---8----8------8-5---5---5-----||
 |
 |Guitar:II
||--------------------------------------------------------------------------||
||--------------------------------------------------------------------------||
||--------------------------------------------------------------------------||
||---0------------------7----------------8----------------------------------||
||---0----5---8--7h8h10---10-8-7-10-8-7--8----8---12---10p8-----7---8---4---||
||---0--0---0----------------------------8--8---8----8------8-5---5---5-----||


  Guitar:I,II
||----------------------------------------------------------------------||
||----------------------------------------------------------------------||
||----------------------------------------------------------------------||
||---0-------------------------------8----------------------------------||
||---0----5---8---5---10---8---7h8p7-8----8---12---10p8-----7---8---4---||
||---0--0---0---0---0----0---0-------8--8---8----8------8-5---5---5-----||


  Guitar:I
||----------------------------------------------------------------------||
||----------------------------------------------------------------------||
||----------------------------------------------------------------------||
||---0----------------3--------------8----------------------------------||
||---0----5---8-3h5h7---7-5-3-7-5-3--8----8---12---10p8-----7---8---4---||
||---0--0---0------------------------8--8---8----8------8-5---5---5-----||
 |
 |Guitar:II
||--------------------------------------------------------------------------||
||--------------------------------------------------------------------------||
||--------------------------------------------------------------------------||
||---0------------------7----------------8----------------------------------||
||---0----5---8--7h8h10---10-8-7-10-8-7--8----8---12---10p8-----7---8---4---||
||---0--0---0----------------------------8--8---8----8------8-5---5---5-----||


  Guitar:I,II
||--------------------------------------||
||--------------------------------------||
||--------------------------------------||
||---8----------------------------------||
||---8----8---12---10p8-----7---8---4---||
||---8--8---8----8------8-5---5---5-----||

||---------------------------------------||
||---------------------------------------||
||---------------------------------------||
||---8-----------------------------------||
||---8----8---12---10p8-5-5-5-5-5-5-5-5--||
||---8--8---8----8------5-5-5-5-5-5-5-5--||

  Guitar:I,II
||-------------------------------------||X3
||-------------------------------------||
||-------------------------------------||
||-------------------------------------||
||---000-000---000-0-000-000-000-000---||
||---000-000---000-0-000-000-000-000---||

||-----------------------------------------||
||-----------------------------------------||
||-----------------------------------------||
||-----------------------------------------||
||---000-000---000-0-000-000--\\-----------||
||---000-000---000-0-000-000---\\--3*------||

  Guitar:I
||------------------------------------------------------------------------------------||X2
||------------------------------------------------------------------------------------||
||------------------------------------------------------------------------------------||
||----------------------------------------------------------------------------7-------||
||---000-000---000-0-000-000--10p8p7----------000-000---000-0-10p8p7------------8-4---||
||---000-000---000-0-000-000---------10p8p7---000-000---000-0--------10p8p7-8---------||
 |
 |Guitar:II
||---------------------------------------------------------------------||X2
||---------------------------------------------------------------------||
||---------------------------------------------------------------------||
||---------------------------------------------------------------------||
||---000-000---000-0-000-000-000-000-000-000---000-0-000-000-000-000---||
||---000-000---000-0-000-000-000-000-000-000---000-0-000-000-000-000---||
comments
print report bad tab
11 comments total. Showing first comments.
0 reply
guitarwannabe16 wrote on January 8 2007, 01:56 pm

Best Through Struggle Tab ive seen on this website. Finally, someone who knows what they're doing.

0 reply
ImBarkerRarrrrr wrote on January 8 2007, 04:05 pm

disagree with a few things on where there played but other than that good job

0 reply
ImBarkerRarrrrr wrote on January 8 2007, 04:20 pm

oh and i have to add

someone really has to tab out beneath the encasing of ashes its nowhere to be found anywhere.

I want to post or [tab]
guest
You may want to rate the tab now too:
select rating
Please do not post tabs as comments. Select "correction" instead!