Oops, an error
Loading. Please wait.

Unwound Tab

ver1
ver1

Whole song

Interactive

More versions @911Tabs.com
748 views 1 this week
1 commentread comment
1 2 3 4 5
excellent!
x 2
Autoscroll
+/-
esc
set tempo
stop
Contributor
Difficulty
Tuning
intermediate
C G C F A D
Hey! There's an official Ultimate Guitar app which is ideal
for learning songs when you're away from computer. Get the app
WARNING: You are trying to view
                                    content from Ultimate-Guitar.com
                                    in an unauthorized application,
                                    which is prohibited.

                                    Please use an official Ultimate
                                    Guitar Tabs application for iPhone,
                                    iPad or Android to access legitimate
                                    chords, guitar, bass, and drum tabs
                                    from Ultimate-Guitar.com database.

                                    Type "ultimate guitar tabs" in Apple
                                    App Store's or Android Market's
                                    search to find the application.
----------------------------------------------------------------------------
                               Unwound
                           As I Lay Dying
----------------------------------------------------------------------------

This is my favorite song off of Awakening. The chorus is just so beautiful and 
powerful it is almost impossible to resist. The B-side of this album sure is a masterpiece. Enjoy!

Username: dkm817 (same on X box live)
Youtube Cover: http://www.youtube.com/watch?v=WYT2z8sdPjo
Email: guitardrums@rockfan.com

Guitar 1 Rhythmic (C G C F A D)
Guitar 2 Lead     (C G C F A D)

NOTE: This was exported off of guitar pro.


Guitar 1

      S S S  S S S  S S S S S S S S S S     S S S  S S S  S S S S S S S S S S  
D||-------------------------------------|-------------------------------------|
A||-------------------------------------|-------------------------------------|
F||-------------------------------------|-------------------------------------|
C||-------------------------------------|-------------------------------------|
G||-------------------------------------|-------------------------------------|
C||--12-0-0-14-0-0-12-0-----------------|--12-0-0-14-0-0-12-0-----------------|


   S S S  S S S  S S S S S S S S S S     S S S  S S S  S S S S S S S S S S  
-------------------------------------|-------------------------------------|
-------------------------------------|-------------------------------------|
-------------------------------------|-------------------------------------|
-------------------------------------|-------------------------------------|
-------------------------------------|-------------------------------------|
--12-0-0-14-0-0-12-0-----------------|--12-0-0-14-0-0-12-0-----------------|


   S S S  S S S  S S  S S S  S S S  S S  
----------------------------------------|
----------------------------------------|
----------------------------------------|
----------------------------------------|
----------------------------------------|
--12-0-0-14-0-0-12-0-15-0-0-14-0-0-14-0-|


   S S S  S S S  S S  S S S  S S S  S S  
----------------------------------------|
----------------------------------------|
----------------------------------------|
----------------------------------------|
----------------------------------------|
--12-0-0-14-0-0-12-0-15-0-0-14-0-0-14-0-|


   S S S  S S S  S S  S S S  S S S  S S  
----------------------------------------|
----------------------------------------|
----------------------------------------|
----------------------------------------|
----------------------------------------|
--12-0-0-14-0-0-12-0-15-0-0-14-0-0-14-0-|


   S S S  S S S  S S  S S S  S S S  S S       
----------------------------------------|----|
----------------------------------------|----|
----------------------------------------|----|
----------------------------------------|----|
----------------------------------------|----|
--12-0-0-14-0-0-12-0-15-0-0-14-0-0-14-0-|----|


     PM PM    PM PM      PM      PM   PM   PM  
   S S  S   S S  S  S  S S  S  S S  S S  S S   
----------------------------------------------|
----------------------------------------------|
----------------------------------------------|
----------------------------------------------|
----------------------------------------------|
--12-0--0--12-0--0--0-12-0--0-12-0--8-0--7-0--|


        PM   PM       PM             PM   PM 
   S  S S  S S   S  S S  S S S  S S  S S  S  
--------------------------------------------|
--------------------------------------------|
--------------------------------------------|
--------------------------------------------|
----------------------------------8----7----|
--10-12-0--0-0--10-12-0--0-7-8-10---10---10-|


     PM PM    PM PM      PM      PM   PM   PM  
   S S  S   S S  S  S  S S  S  S S  S S  S S   
----------------------------------------------|
----------------------------------------------|
----------------------------------------------|
----------------------------------------------|
----------------------------------------------|
--12-0--0--12-0--0--0-12-0--0-12-0--8-0--7-0--|


        PM   PM       PM   PM PM PM PM PM PM PM  
   S  S S  S S   S  S S  S S  S  S  S  S  S  S   
------------------------------------------------|
------------------------------------------------|
------------------------------------------------|
-------------------------0-0--0--0--0--0--0--0--|
-------------------------0-0--0--0--0--0--0--0--|
--10-12-0--0-0--10-12-0--0-0--0--0--0--0--0--0--|


     PM PM    PM PM      PM      PM   PM   PM  
   S S  S   S S  S  S  S S  S  S S  S S  S S   
----------------------------------------------|
----------------------------------------------|
----------------------------------------------|
----------------------------------------------|
----------------------------------------------|
--12-0--0--12-0--0--0-12-0--0-12-0--8-0--7-0--|


        PM   PM       PM             PM   PM 
   S  S S  S S   S  S S  S S S  S S  S S  S  
--------------------------------------------|
--------------------------------------------|
--------------------------------------------|
--------------------------------------------|
----------------------------------8----7----|
--10-12-0--0-0--10-12-0--0-7-8-10---10---10-|


     PM PM    PM PM      PM      PM   PM   PM  
   S S  S   S S  S  S  S S  S  S S  S S  S S   
----------------------------------------------|
----------------------------------------------|
----------------------------------------------|
----------------------------------------------|
----------------------------------------------|
--12-0--0--12-0--0--0-12-0--0-12-0--8-0--7-0--|


        PM   PM       PM   PM PM PM PM PM PM PM  
   S  S S  S S   S  S S  S S  S  S  S  S  S  S   
------------------------------------------------|
------------------------------------------------|
------------------------------------------------|
-------------------------0-0--0--0--0--0--0--0--|
-------------------------0-0--0--0--0--0--0--0--|
--10-12-0--0-0--10-12-0--0-0--0--0--0--0--0--0--|


  PM PM PM   PM PM PM PM   PM   PM   PM      
  S  S  S  S S  S  S  S  S S  S S  S S  S S  
--------------------------------------------|
--------------------------------------------|
--------------------------------------------|
--0--0--0--L-0--0--0--0--L-0--L-0--L-0--L---|
--0--0--0--L-0--0--0--0--L-0--L-0--L-0--L---|
--0--0--0--L-0--0--0--0--L-0--L-0--L-0--L---|


    PM   PM   PM PM PM   PM PM   PM PM PM    
  S S  S S  S S  S  S  S S  S  S S  S  S  S  
--------------------------------------------|
--------------------------------------------|
--------------------------------------------|
----0--L-0--L-0--0--0--L-0--0--L-0--0--0--L-|
----0--L-0--L-0--0--0--L-0--0--L-0--0--0--L-|
----0--L-0--L-0--0--0--L-0--0--L-0--0--0--L-|


      PM PM   PM   PM   PM PM PM   PM   PM  
  S S S  S  S S  S S  S S  S  S  S S  S S   
-------------------------------------------|
-------------------------------------------|
-------------------------------------------|
------0--0--L-0--L-0--L-0--0--0--L-0--L-0--|
------0--0--L-0--L-0--L-0--0--0--L-0--L-0--|
------0--0--L-0--L-0--L-0--0--0--L-0--L-0--|


  PM PM       PM PM PM PM   PM PM   PM      
  S  S  S S S S  S  S  S  S S  S  S S  S S  
-------------------------------------------|
-------------------------------------------|
-------------------------------------------|
--0--0--L-----0--0--0--0--L-0--0--L-0--L---|
--0--0--L-----0--0--0--0--L-0--0--L-0--L---|
--0--0--L-----0--0--0--0--L-0--0--L-0--L---|


  PM PM PM   PM PM PM PM   PM   PM   PM      
  S  S  S  S S  S  S  S  S S  S S  S S  S S  
--------------------------------------------|
--------------------------------------------|
--------------------------------------------|
--0--0--0--L-0--0--0--0--L-0--L-0--L-0--L---|
--0--0--0--L-0--0--0--0--L-0--L-0--L-0--L---|
--0--0--0--L-0--0--0--0--L-0--L-0--L-0--L---|


    PM PM PM PM PM   PM   PM PM   PM PM PM    
  S S  S  S  S  S  S S  S S  S  S S  S  S  S  
---------------------------------------------|
---------------------------------------------|
---------------------------------------------|
----0--0--0--0--0--L-0--L-0--0--L-0--0--0--L-|
----0--0--0--0--0--L-0--L-0--0--L-0--0--0--L-|
----0--0--0--0--0--L-0--L-0--0--L-0--0--0--L-|


      PM PM   PM   PM   PM PM PM   PM   PM  
  S S S  S  S S  S S  S S  S  S  S S  S S   
-------------------------------------------|
-------------------------------------------|
-------------------------------------------|
------0--0--L-0--L-0--L-0--0--0--L-0--L-0--|
------0--0--L-0--L-0--L-0--0--0--L-0--L-0--|
------0--0--L-0--L-0--L-0--0--0--L-0--L-0--|


  PM PM       PM PM PM PM   PM PM   PM                                    
  S  S  S S S S  S  S  S  S S  S  S S  S S    E  S E  S E  S E  S E  S S  
-------------------------------------------|-----------------------------|
-------------------------------------------|-----------------------------|
-------------------------------------------|--9--L-9--L-9--L-9--L-9--9-9-|
--0--0--L-----0--0--0--0--L-0--0--L-0--L---|--7--L-7--L-7--L-7--L-7--7-7-|
--0--0--L-----0--0--0--0--L-0--0--L-0--L---|--7--L-7--L-7--L-7--L-7--7-7-|
--0--0--L-----0--0--0--0--L-0--0--L-0--L---|--7--L-7--L-7--L-7--L-7--7-7-|


  E  S E  S E  S E  S E  S S    E  S E  S E  S E  S E  S S  
-----------------------------|-----------------------------|
-----------------------------|-----------------------------|
--7--L-7--L-7--L-7--L-7--7-7-|--7--L-7--L-7--L-7--L-7--7-7-|
--5--L-5--L-5--L-5--L-5--5-5-|--7--L-7--L-7--L-7--L-7--7-7-|
--5--L-5--L-5--L-5--L-5--5-5-|--5--L-5--L-5--L-5--L-5--5-5-|
--5--L-5--L-5--L-5--L-5--5-5-|-----------------------------|


  E  S E  S E  S E  S E  S S    E  S E  S E  S E  S E  S S  
-----------------------------|-----------------------------|
--5--L-5--L-5--L-5--L-5--5-5-|-----------------------------|
-----------------------------|--9--L-9--L-9--L-9--L-9--9-9-|
--2--L-2--L-2--L-2--L-2--2-2-|--7--L-7--L-7--L-7--L-7--7-7-|
--2--L-2--L-2--L-2--L-2--2-2-|--7--L-7--L-7--L-7--L-7--7-7-|
--2--L-2--L-2--L-2--L-2--2-2-|--7--L-7--L-7--L-7--L-7--7-7-|


  E  S E  S E  S E  S E  S S    E  S E  S E  S E  S E  S S  
-----------------------------|-----------------------------|
-----------------------------|-----------------------------|
--7--L-7--L-7--L-7--L-7--7-7-|--7--L-7--L-7--L-7--L-7--7-7-|
--5--L-5--L-5--L-5--L-5--5-5-|--7--L-7--L-7--L-7--L-7--7-7-|
--5--L-5--L-5--L-5--L-5--5-5-|--5--L-5--L-5--L-5--L-5--5-5-|
--5--L-5--L-5--L-5--L-5--5-5-|-----------------------------|


  E  S E  S E  E  E  S S S S    E  S E  S E  E  S E  S E   
-----------------------------|----------------------------|
--5--L-5--L-5--5--5--5-5-5-5-|----------------------------|
-----------------------------|----------------------------|
--2--L-2--L-2--2--2--2-2-2-2-|--3--L-3--L-3--3--L-3--L-3--|
--2--L-2--L-2--2--2--2-2-2-2-|--3--L-3--L-3--3--L-3--L-3--|
--2--L-2--L-2--2--2--2-2-2-2-|--3--L-3--L-3--3--L-3--L-3--|


  E  S E  S E  E  S E  S E     E  S E  S E  E  S E  S E   
----------------------------|----------------------------|
----------------------------|----------------------------|
----------------------------|----------------------------|
--7--L-7--L-7--7--L-7--L-7--|--3--L-3--L-3--3--L-3--L-3--|
--7--L-7--L-7--7--L-7--L-7--|--3--L-3--L-3--3--L-3--L-3--|
--7--L-7--L-7--7--L-7--L-7--|--3--L-3--L-3--3--L-3--L-3--|


  E  S E  S E  E  E  E  E     E  S E  S E  E  S E  S E   
---------------------------|----------------------------|
---------------------------|----------------------------|
--5--L-5--L-5--------------|----------------------------|
--5--L-5--L-5--5--5--5--5--|--3--L-3--L-3--3--L-3--L-3--|
--3--L-5--L-3--5--5--5--5--|--3--L-3--L-3--3--L-3--L-3--|
---------------5--5--5--5--|--3--L-3--L-3--3--L-3--L-3--|


  E  S E  S E  E  S E  S E     E  S E  S E  E  S E  S E   
----------------------------|----------------------------|
----------------------------|----------------------------|
----------------------------|----------------------------|
--7--L-7--L-7--7--L-7--L-7--|--3--L-3--L-3--3--L-3--L-3--|
--7--L-7--L-7--7--L-7--L-7--|--3--L-3--L-3--3--L-3--L-3--|
--7--L-7--L-7--7--L-7--L-7--|--3--L-3--L-3--3--L-3--L-3--|


                                  PM PM PM   PM PM PM PM   PM   PM   PM      
  E  S E  S E  S S S S S S S S    S  S  S  S S  S  S  S  S S  S S  S S  S S  
-------------------------------|--------------------------------------------|
-------------------------------|--------------------------------------------|
--5--L-5--L-5--9-9-9-9-9-9-9-9-|--------------------------------------------|
--5--L-5--L-5--9-9-9-9-9-9-9-9-|--0--0--0--L-0--0--0--0--L-0--L-0--L-0--L---|
--3--L-5--L-3--7-7-7-7-7-7-7-7-|--0--0--0--L-0--0--0--0--L-0--L-0--L-0--L---|
-------------------------------|--0--0--0--L-0--0--0--0--L-0--L-0--L-0--L---|


    PM   PM   PM PM PM   PM PM   PM PM PM    
  S S  S S  S S  S  S  S S  S  S S  S  S  S  
--------------------------------------------|
--------------------------------------------|
--------------------------------------------|
----0--L-0--L-0--0--0--L-0--0--L-0--0--0--L-|
----0--L-0--L-0--0--0--L-0--0--L-0--0--0--L-|
----0--L-0--L-0--0--0--L-0--0--L-0--0--0--L-|


      PM PM   PM   PM   PM PM PM   PM   PM  
  S S S  S  S S  S S  S S  S  S  S S  S S   
-------------------------------------------|
-------------------------------------------|
-------------------------------------------|
------0--0--L-0--L-0--L-0--0--0--L-0--L-0--|
------0--0--L-0--L-0--L-0--0--0--L-0--L-0--|
------0--0--L-0--L-0--L-0--0--0--L-0--L-0--|


  PM PM       PM PM PM PM   PM PM   PM      
  S  S  S S S S  S  S  S  S S  S  S S  S S  
-------------------------------------------|
-------------------------------------------|
-------------------------------------------|
--0--0--L-----0--0--0--0--L-0--0--L-0--L---|
--0--0--L-----0--0--0--0--L-0--0--L-0--L---|
--0--0--L-----0--0--0--0--L-0--0--L-0--L---|


  PM PM PM   PM PM PM PM   PM   PM   PM      
  S  S  S  S S  S  S  S  S S  S S  S S  S S  
--------------------------------------------|
--------------------------------------------|
--------------------------------------------|
--0--0--0--L-0--0--0--0--L-0--L-0--L-0--L---|
--0--0--0--L-0--0--0--0--L-0--L-0--L-0--L---|
--0--0--0--L-0--0--0--0--L-0--L-0--L-0--L---|


    PM PM PM PM PM   PM   PM PM   PM PM PM    
  S S  S  S  S  S  S S  S S  S  S S  S  S  S  
---------------------------------------------|
---------------------------------------------|
---------------------------------------------|
----0--0--0--0--0--L-0--L-0--0--L-0--0--0--L-|
----0--0--0--0--0--L-0--L-0--0--L-0--0--0--L-|
----0--0--0--0--0--L-0--L-0--0--L-0--0--0--L-|


      PM PM   PM   PM   PM PM PM   PM   PM  
  S S S  S  S S  S S  S S  S  S  S S  S S   
-------------------------------------------|
-------------------------------------------|
-------------------------------------------|
------0--0--L-0--L-0--L-0--0--0--L-0--L-0--|
------0--0--L-0--L-0--L-0--0--0--L-0--L-0--|
------0--0--L-0--L-0--L-0--0--0--L-0--L-0--|


  PM PM       PM PM PM PM   PM PM   PM                                   
  S  S  S S S S  S  S  S  S S  S  S S  S S    E  S E  S E  E  S E  S E   
-------------------------------------------|----------------------------|
-------------------------------------------|----------------------------|
-------------------------------------------|----------------------------|
--0--0--L-----0--0--0--0--L-0--0--L-0--L---|--3--L-3--L-3--3--L-3--L-3--|
--0--0--L-----0--0--0--0--L-0--0--L-0--L---|--3--L-3--L-3--3--L-3--L-3--|
--0--0--L-----0--0--0--0--L-0--0--L-0--L---|--3--L-3--L-3--3--L-3--L-3--|


  E  S E  S E  E  S E  S E     E  S E  S E  E  S E  S E   
----------------------------|----------------------------|
----------------------------|----------------------------|
----------------------------|----------------------------|
--7--L-7--L-7--7--L-7--L-7--|--3--L-3--L-3--3--L-3--L-3--|
--7--L-7--L-7--7--L-7--L-7--|--3--L-3--L-3--3--L-3--L-3--|
--7--L-7--L-7--7--L-7--L-7--|--3--L-3--L-3--3--L-3--L-3--|


  E  S E  S E  E  E  E  E     E  S E  S E  E  S E  S E   
---------------------------|----------------------------|
---------------------------|----------------------------|
--5--L-5--L-5--------------|----------------------------|
--5--L-5--L-5--5--5--5--5--|--3--L-3--L-3--3--L-3--L-3--|
--3--L-5--L-3--5--5--5--5--|--3--L-3--L-3--3--L-3--L-3--|
---------------5--5--5--5--|--3--L-3--L-3--3--L-3--L-3--|


  E  S E  S E  E  S E  S E     E  S E  S E  E  S E  S E   
----------------------------|----------------------------|
----------------------------|----------------------------|
----------------------------|----------------------------|
--7--L-7--L-7--7--L-7--L-7--|--3--L-3--L-3--3--L-3--L-3--|
--7--L-7--L-7--7--L-7--L-7--|--3--L-3--L-3--3--L-3--L-3--|
--7--L-7--L-7--7--L-7--L-7--|--3--L-3--L-3--3--L-3--L-3--|


  E  S E  S E  S S S S S S S S    E  S E  S E  E  S E  S E   
-------------------------------|----------------------------|
-------------------------------|----------------------------|
--5--L-5--L-5--9-9-9-9-9-9-9-9-|----------------------------|
--5--L-5--L-5--9-9-9-9-9-9-9-9-|--3--L-3--L-3--3--L-3--L-3--|
--3--L-5--L-3--7-7-7-7-7-7-7-7-|--3--L-3--L-3--3--L-3--L-3--|
-------------------------------|--3--L-3--L-3--3--L-3--L-3--|


  E  S E  S E  E  S E  S E     E  S E  S E  E  S E  S E   
----------------------------|----------------------------|
----------------------------|----------------------------|
----------------------------|----------------------------|
--7--L-7--L-7--7--L-7--L-7--|--3--L-3--L-3--3--L-3--L-3--|
--7--L-7--L-7--7--L-7--L-7--|--3--L-3--L-3--3--L-3--L-3--|
--7--L-7--L-7--7--L-7--L-7--|--3--L-3--L-3--3--L-3--L-3--|


  E  S E  S E  E  E  E  E     E  S E  S E  E  S E  S E   
---------------------------|----------------------------|
---------------------------|----------------------------|
--5--L-5--L-5--------------|----------------------------|
--5--L-5--L-5--5--5--5--5--|--3--L-3--L-3--3--L-3--L-3--|
--3--L-5--L-3--5--5--5--5--|--3--L-3--L-3--3--L-3--L-3--|
---------------5--5--5--5--|--3--L-3--L-3--3--L-3--L-3--|


  E  S E  S E  E  S E  S E     E  S E  S E  E  S E  S E   
----------------------------|----------------------------|
----------------------------|----------------------------|
----------------------------|----------------------------|
--7--L-7--L-7--7--L-7--L-7--|--3--L-3--L-3--3--L-3--L-3--|
--7--L-7--L-7--7--L-7--L-7--|--3--L-3--L-3--3--L-3--L-3--|
--7--L-7--L-7--7--L-7--L-7--|--3--L-3--L-3--3--L-3--L-3--|


  E  S E  S E  S S S S S S S S     S S S  S S S  S S S S S S S S S S  
-------------------------------|-------------------------------------|
-------------------------------|-------------------------------------|
--5--L-5--L-5--9-9-9-9-9-9-9-9-|-------------------------------------|
--5--L-5--L-5--9-9-9-9-9-9-9-9-|-------------------------------------|
--3--L-5--L-3--7-7-7-7-7-7-7-7-|-------------------------------------|
-------------------------------|--12-0-0-14-0-0-12-0-----------------|


   S S S  S S S  S S S S S S S S S S     S S S  S S S  S S S S S S S S S S  
-------------------------------------|-------------------------------------|
-------------------------------------|-------------------------------------|
-------------------------------------|-------------------------------------|
-------------------------------------|-------------------------------------|
-------------------------------------|-------------------------------------|
--12-0-0-14-0-0-12-0-----------------|--12-0-0-14-0-0-12-0-----------------|


   S S S  S S S  S S S S S S S S S S  
-------------------------------------|
-------------------------------------|
-------------------------------------|
-------------------------------------|
-------------------------------------|
--12-0-0-14-0-0-12-0-----------------|


    PM PM   PM PM     PM PM   PM PM   PM PM  
  S S  S  S S  S  S S S  S  S S  S  S S  S   
--------------------------------------------|
--------------------------------------------|
--------------------------------------------|
--------------------------------------------|
--------------------------------------------|
--0-0--0--0-0--0--0-0-0--0--0-0--0--0-0--0--|


    PM PM   PM PM PM   PM PM   PM PM   PM PM  
  S S  S  S S  S  S  S S  S  S S  S  S S  S   
---------------------------------------------|
---------------------------------------------|
---------------------------------------------|
---------------------------------------------|
---------------------------------------------|
--0-0--0--0-0--0--0--0-0--0--0-0--0--0-0--0--|


    PM PM   PM PM     PM PM   PM PM   PM PM  
  S S  S  S S  S  S S S  S  S S  S  S S  S   
--------------------------------------------|
--------------------------------------------|
--------------------------------------------|
--------------------------------------------|
--------------------------------------------|
--0-0--0--0-0--0--0-0-0--0--0-0--0--0-0--0--|


      PM   PM PM PM   PM PM   PM PM   PM PM  
  S S S  S S  S  S  S S  S  S S  S  S S  S   
--------------------------------------------|
--------------------------------------------|
--------------------------------------------|
--------------------------------------------|
--------------------------------------------|
--0-0-0--0-0--0--0--0-0--0--0-0--0--0-0--0--|


    PM PM   PM PM     PM PM   PM PM   PM PM  
  S S  S  S S  S  S S S  S  S S  S  S S  S   
--------------------------------------------|
--------------------------------------------|
--------------------------------------------|
--------------------------------------------|
--------------------------------------------|
--0-0--0--0-0--0--0-0-0--0--0-0--0--0-0--0--|


    PM PM   PM PM PM   PM PM   PM PM   PM PM  
  S S  S  S S  S  S  S S  S  S S  S  S S  S   
---------------------------------------------|
---------------------------------------------|
---------------------------------------------|
---------------------------------------------|
---------------------------------------------|
--0-0--0--0-0--0--0--0-0--0--0-0--0--0-0--0--|


    PM PM   PM PM     PM PM   PM PM   PM PM  
  S S  S  S S  S  S S S  S  S S  S  S S  S   
--------------------------------------------|
--------------------------------------------|
--------------------------------------------|
--------------------------------------------|
--------------------------------------------|
--0-0--0--0-0--0--0-0-0--0--0-0--0--0-0--0--|


      PM   PM PM PM   PM PM   PM PM   PM PM  
  S S S  S S  S  S  S S  S  S S  S  S S  S   
--------------------------------------------|
--------------------------------------------|
--------------------------------------------|
--------------------------------------------|
--------------------------------------------|
--0-0-0--0-0--0--0--0-0--0--0-0--0--0-0--0--|


    PM PM   PM PM     PM PM   PM PM   PM PM  
  S S  S  S S  S  S S S  S  S S  S  S S  S   
--------------------------------------------|
--------------------------------------------|
--------------------------------------------|
--------------------------------------------|
--------------------------------------------|
--0-0--0--0-0--0--0-0-0--0--0-0--0--0-0--0--|


    PM PM   PM PM PM   PM PM   PM PM   PM PM  
  S S  S  S S  S  S  S S  S  S S  S  S S  S   
---------------------------------------------|
---------------------------------------------|
---------------------------------------------|
---------------------------------------------|
---------------------------------------------|
--0-0--0--0-0--0--0--0-0--0--0-0--0--0-0--0--|


    PM PM   PM PM     PM PM   PM PM   PM PM  
  S S  S  S S  S  S S S  S  S S  S  S S  S   
--------------------------------------------|
--------------------------------------------|
--------------------------------------------|
--------------------------------------------|
--------------------------------------------|
--0-0--0--0-0--0--0-0-0--0--0-0--0--0-0--0--|


      PM   PM PM PM   PM PM   PM PM   PM PM  
  S S S  S S  S  S  S S  S  S S  S  S S  S   
--------------------------------------------|
--------------------------------------------|
--------------------------------------------|
--------------------------------------------|
--------------------------------------------|
--0-0-0--0-0--0--0--0-0--0--0-0--0--0-0--0--|


    PM PM   PM PM     PM PM   PM PM   PM PM  
  S S  S  S S  S  S S S  S  S S  S  S S  S   
--------------------------------------------|
--------------------------------------------|
--------------------------------------------|
--------------------------------------------|
--------------------------------------------|
--0-0--0--0-0--0--0-0-0--0--0-0--0--0-0--0--|


    PM PM   PM PM PM   PM PM   PM PM   PM PM  
  S S  S  S S  S  S  S S  S  S S  S  S S  S   
---------------------------------------------|
---------------------------------------------|
---------------------------------------------|
---------------------------------------------|
---------------------------------------------|
--0-0--0--0-0--0--0--0-0--0--0-0--0--0-0--0--|


    PM PM   PM PM     PM PM   PM PM   PM PM  
  S S  S  S S  S  S S S  S  S S  S  S S  S   
--------------------------------------------|
--------------------------------------------|
--------------------------------------------|
--------------------------------------------|
--------------------------------------------|
--0-0--0--0-0--0--0-0-0--0--0-0--0--0-0--0--|


      PM   PM PM PM   PM PM   PM PM   PM PM  
  S S S  S S  S  S  S S  S  S S  S  S S  S   
--------------------------------------------|
--------------------------------------------|
--------------------------------------------|
--------------------------------------------|
--------------------------------------------|
--0-0-0--0-0--0--0--0-0--0--0-0--0--0-0--0--|


    PM PM   PM PM     PM PM   PM PM   PM PM  
  S S  S  S S  S  S S S  S  S S  S  S S  S   
--------------------------------------------|
--------------------------------------------|
--------------------------------------------|
--------------------------------------------|
--------------------------------------------|
--0-0--0--0-0--0--0-0-0--0--0-0--0--0-0--0--|


    PM PM   PM PM PM   PM PM   PM PM   PM PM  
  S S  S  S S  S  S  S S  S  S S  S  S S  S   
---------------------------------------------|
---------------------------------------------|
---------------------------------------------|
---------------------------------------------|
---------------------------------------------|
--0-0--0--0-0--0--0--0-0--0--0-0--0--0-0--0--|


    PM PM   PM PM     PM PM   PM PM   PM PM  
  S S  S  S S  S  S S S  S  S S  S  S S  S   
--------------------------------------------|
--------------------------------------------|
--------------------------------------------|
--------------------------------------------|
--------------------------------------------|
--0-0--0--0-0--0--0-0-0--0--0-0--0--0-0--0--|


      PM   PM PM PM   PM PM   PM PM   PM PM                                     
  S S S  S S  S  S  S S  S  S S  S  S S  S     S S S S S S S S S S S S S S S S  
--------------------------------------------|----------------------------------|
--------------------------------------------|----------------------------------|
--------------------------------------------|----------------------------------|
--------------------------------------------|----------------------------------|
--------------------------------------------|----------------------------------|
--0-0-0--0-0--0--0--0-0--0--0-0--0--0-0--0--|--0-----0-----0-0-----0-----0-----|


  S S S S S S S S S S S S S S S S    S S S S S S S S S S S S S S S S  
----------------------------------|----------------------------------|
----------------------------------|----------------------------------|
----------------------------------|----------------------------------|
----------------------------------|----------------------------------|
----------------------------------|----------------------------------|
--0-----0-------0-----0-----0-----|--0-----0-----0-0-----0-----0-----|


                   Pickslide                                              
  S S S S S S S S  T         T  T  T  T  T  T  T  T  T  T  T  T  T  T  T  
------------------30--------29-28-27-26-25-24-23-22-21-20-19-18-17-16-15-|
------------------30--------29-28-27-26-25-24-23-22-21-20-19-18-17-16-15-|
-------------------------------------------------------------------------|
-------------------------------------------------------------------------|
-------------------------------------------------------------------------|
--0-0---0-------0--------------------------------------------------------|


  E  S E  S E  S E  S E  S S    E  S E  S E  S E  S E  S S  
-----------------------------|-----------------------------|
-----------------------------|-----------------------------|
--9--L-9--L-9--L-9--L-9--9-9-|--7--L-7--L-7--L-7--L-7--7-7-|
--7--L-7--L-7--L-7--L-7--7-7-|--5--L-5--L-5--L-5--L-5--5-5-|
--7--L-7--L-7--L-7--L-7--7-7-|--5--L-5--L-5--L-5--L-5--5-5-|
--7--L-7--L-7--L-7--L-7--7-7-|--5--L-5--L-5--L-5--L-5--5-5-|


  E  S E  S E  S E  S E  S S    E  S E  S E  S E  S E  S S  
-----------------------------|-----------------------------|
-----------------------------|--5--L-5--L-5--L-5--L-5--5-5-|
--7--L-7--L-7--L-7--L-7--7-7-|-----------------------------|
--7--L-7--L-7--L-7--L-7--7-7-|--2--L-2--L-2--L-2--L-2--2-2-|
--5--L-5--L-5--L-5--L-5--5-5-|--2--L-2--L-2--L-2--L-2--2-2-|
-----------------------------|--2--L-2--L-2--L-2--L-2--2-2-|


  E  S E  S E  S E  S E  S S    E  S E  S E  S E  S E  S S  
-----------------------------|-----------------------------|
-----------------------------|-----------------------------|
--9--L-9--L-9--L-9--L-9--9-9-|--7--L-7--L-7--L-7--L-7--7-7-|
--7--L-7--L-7--L-7--L-7--7-7-|--5--L-5--L-5--L-5--L-5--5-5-|
--7--L-7--L-7--L-7--L-7--7-7-|--5--L-5--L-5--L-5--L-5--5-5-|
--7--L-7--L-7--L-7--L-7--7-7-|--5--L-5--L-5--L-5--L-5--5-5-|


  E  S E  S E  S E  S E  S S    E  S E  S E  E  E  S S S S  
-----------------------------|-----------------------------|
-----------------------------|--5--L-5--L-5--5--5--5-5-5-5-|
--7--L-7--L-7--L-7--L-7--7-7-|-----------------------------|
--7--L-7--L-7--L-7--L-7--7-7-|--2--L-2--L-2--2--2--2-2-2-2-|
--5--L-5--L-5--L-5--L-5--5-5-|--2--L-2--L-2--2--2--2-2-2-2-|
-----------------------------|--2--L-2--L-2--2--2--2-2-2-2-|


  T T T T T T T T T T T T  T T  T T T T T T T T T T  T T  T T T T T T  
----------------------------------------------------------------------|
----------------------------------------------------10---10-----------|
--------------------------10---10---9---9-----------------------------|
--7---7---7---7---7---7---------------------7---7-------------7---7---|
----------------------------------------------------------------------|
----------------------------------------------------------------------|


  T T T T  T T  T T  T T  T T T T T T T T T T T T T T T T T T T T T T  
----------------------------------------------------------------------|
----------------------------------------------------------------------|
--------------------10---10-----------9---9---9---9---9---9---9---9---|
--9---9---10---10-------------7---7-----------------------------------|
----------------------------------------------------------------------|
----------------------------------------------------------------------|


  E  S E  S E  E  S E  S E     E  S E  S E  E  S E  S E   
----------------------------|----------------------------|
----------------------------|----------------------------|
----------------------------|----------------------------|
--3--L-3--L-3--3--L-3--L-3--|--7--L-7--L-7--7--L-7--L-7--|
--3--L-3--L-3--3--L-3--L-3--|--7--L-7--L-7--7--L-7--L-7--|
--3--L-3--L-3--3--L-3--L-3--|--7--L-7--L-7--7--L-7--L-7--|


  E  S E  S E  E  S E  S E     E  S E  S E  E  E  E  E   
----------------------------|---------------------------|
----------------------------|---------------------------|
----------------------------|--5--L-5--L-5--------------|
--3--L-3--L-3--3--L-3--L-3--|--5--L-5--L-5--5--5--5--5--|
--3--L-3--L-3--3--L-3--L-3--|--3--L-5--L-3--5--5--5--5--|
--3--L-3--L-3--3--L-3--L-3--|---------------5--5--5--5--|


  E  S E  S E  E  S E  S E     E  S E  S E  E  S E  S E   
----------------------------|----------------------------|
----------------------------|----------------------------|
----------------------------|----------------------------|
--3--L-3--L-3--3--L-3--L-3--|--7--L-7--L-7--7--L-7--L-7--|
--3--L-3--L-3--3--L-3--L-3--|--7--L-7--L-7--7--L-7--L-7--|
--3--L-3--L-3--3--L-3--L-3--|--7--L-7--L-7--7--L-7--L-7--|


  E  S E  S E  E  S E  S E     E  S E  S E  S S S S S S S S  
----------------------------|-------------------------------|
----------------------------|-------------------------------|
----------------------------|--5--L-5--L-5--9-9-9-9-9-9-9-9-|
--3--L-3--L-3--3--L-3--L-3--|--5--L-5--L-5--9-9-9-9-9-9-9-9-|
--3--L-3--L-3--3--L-3--L-3--|--3--L-5--L-3--7-7-7-7-7-7-7-7-|
--3--L-3--L-3--3--L-3--L-3--|-------------------------------|


  E  S E  S E  E  S E  S E     E  S E  S E  E  S E  S E   
----------------------------|----------------------------|
----------------------------|----------------------------|
----------------------------|----------------------------|
--3--L-3--L-3--3--L-3--L-3--|--7--L-7--L-7--7--L-7--L-7--|
--3--L-3--L-3--3--L-3--L-3--|--7--L-7--L-7--7--L-7--L-7--|
--3--L-3--L-3--3--L-3--L-3--|--7--L-7--L-7--7--L-7--L-7--|


  E  S E  S E  E  S E  S E     E  S E  S E  E  E  E  E   
----------------------------|---------------------------|
----------------------------|---------------------------|
----------------------------|--5--L-5--L-5--------------|
--3--L-3--L-3--3--L-3--L-3--|--5--L-5--L-5--5--5--5--5--|
--3--L-3--L-3--3--L-3--L-3--|--3--L-5--L-3--5--5--5--5--|
--3--L-3--L-3--3--L-3--L-3--|---------------5--5--5--5--|


  E  S E  S E  E  S E  S E     E  S E  S E  E  S E  S E   
----------------------------|----------------------------|
----------------------------|----------------------------|
----------------------------|----------------------------|
--3--L-3--L-3--3--L-3--L-3--|--7--L-7--L-7--7--L-7--L-7--|
--3--L-3--L-3--3--L-3--L-3--|--7--L-7--L-7--7--L-7--L-7--|
--3--L-3--L-3--3--L-3--L-3--|--7--L-7--L-7--7--L-7--L-7--|


  E  S E  S E  E  S E  S E     E  S E  S E  S S S S S S S S  
----------------------------|-------------------------------|
----------------------------|-------------------------------|
----------------------------|--5--L-5--L-5--9-9-9-9-9-9-9-9-|
--3--L-3--L-3--3--L-3--L-3--|--5--L-5--L-5--9-9-9-9-9-9-9-9-|
--3--L-3--L-3--3--L-3--L-3--|--3--L-5--L-3--7-7-7-7-7-7-7-7-|
--3--L-3--L-3--3--L-3--L-3--|-------------------------------|


     PM PM    PM PM      PM      PM   PM   PM  
   S S  S   S S  S  S  S S  S  S S  S S  S S   
----------------------------------------------|
----------------------------------------------|
----------------------------------------------|
----------------------------------------------|
----------------------------------------------|
--12-0--0--12-0--0--0-12-0--0-12-0--8-0--7-0--|


        PM   PM       PM             PM   PM 
   S  S S  S S   S  S S  S S S  S S  S S  S  
--------------------------------------------|
--------------------------------------------|
--------------------------------------------|
--------------------------------------------|
----------------------------------8----7----|
--10-12-0--0-0--10-12-0--0-7-8-10---10---10-|


     PM PM    PM PM      PM      PM   PM   PM  
   S S  S   S S  S  S  S S  S  S S  S S  S S   
----------------------------------------------|
----------------------------------------------|
----------------------------------------------|
----------------------------------------------|
----------------------------------------------|
--12-0--0--12-0--0--0-12-0--0-12-0--8-0--7-0--|


        PM   PM       PM   PM PM PM PM PM PM PM  
   S  S S  S S   S  S S  S S  S  S  S  S  S  S   
------------------------------------------------|
------------------------------------------------|
------------------------------------------------|
-------------------------0-0--0--0--0--0--0--0--|
-------------------------0-0--0--0--0--0--0--0--|
--10-12-0--0-0--10-12-0--0-0--0--0--0--0--0--0--|


     PM PM    PM PM      PM      PM   PM   PM  
   S S  S   S S  S  S  S S  S  S S  S S  S S   
----------------------------------------------|
----------------------------------------------|
----------------------------------------------|
----------------------------------------------|
----------------------------------------------|
--12-0--0--12-0--0--0-12-0--0-12-0--8-0--7-0--|


        PM   PM       PM             PM   PM 
   S  S S  S S   S  S S  S S S  S S  S S  S  
--------------------------------------------|
--------------------------------------------|
--------------------------------------------|
--------------------------------------------|
----------------------------------8----7----|
--10-12-0--0-0--10-12-0--0-7-8-10---10---10-|


     PM PM    PM PM      PM      PM   PM   PM  
   S S  S   S S  S  S  S S  S  S S  S S  S S   
----------------------------------------------|
----------------------------------------------|
----------------------------------------------|
----------------------------------------------|
----------------------------------------------|
--12-0--0--12-0--0--0-12-0--0-12-0--8-0--7-0--|


        PM   PM       PM   PM PM PM PM PM PM PM   
   S  S S  S S   S  S S  S S  S  S  S  S  S  S    
------------------------------------------------||
------------------------------------------------||
------------------------------------------------||
-------------------------0-0--0--0--0--0--0--0--||
-------------------------0-0--0--0--0--0--0--0--||
--10-12-0--0-0--10-12-0--0-0--0--0--0--0--0--0--||


Guitar 2

      S S S  S S S  S S  S S S  S S S  S S  
D||----------------------------------------|
A||----------------------------------------|
F||----------------------------------------|
C||----------------------------------------|
G||----------------------------------------|
C||--12-0-0-14-0-0-12-0-15-0-0-14-0-0-14-0-|


   S S S  S S S  S S  S S S  S S S  S S  
----------------------------------------|
----------------------------------------|
----------------------------------------|
----------------------------------------|
----------------------------------------|
--12-0-0-14-0-0-12-0-15-0-0-14-0-0-14-0-|


   S S S  S S S  S S  S S S  S S S  S S  
----------------------------------------|
----------------------------------------|
----------------------------------------|
----------------------------------------|
----------------------------------------|
--12-0-0-14-0-0-12-0-15-0-0-14-0-0-14-0-|


   S S S  S S S  S S  S S S  S S S  S S  
----------------------------------------|
----------------------------------------|
----------------------------------------|
----------------------------------------|
----------------------------------------|
--12-0-0-14-0-0-12-0-15-0-0-14-0-0-14-0-|


   S S S  S S S  S S  S S S  S S S  S S  
----------------------------------------|
----------------------------------------|
----------------------------------------|
----------------------------------------|
----------------------------------------|
--12-0-0-14-0-0-12-0-15-0-0-14-0-0-14-0-|


   S S S  S S S  S S  S S S  S S S  S S  
----------------------------------------|
----------------------------------------|
----------------------------------------|
----------------------------------------|
----------------------------------------|
--12-0-0-14-0-0-12-0-15-0-0-14-0-0-14-0-|


   S S S  S S S  S S  S S S  S S S  S S  
----------------------------------------|
----------------------------------------|
----------------------------------------|
----------------------------------------|
----------------------------------------|
--12-0-0-14-0-0-12-0-15-0-0-14-0-0-14-0-|


   S S S  S S S  S S  S S S  S S S  S S       
----------------------------------------|----|
----------------------------------------|----|
----------------------------------------|----|
----------------------------------------|----|
----------------------------------------|----|
--12-0-0-14-0-0-12-0-15-0-0-14-0-0-14-0-|----|


     PM PM    PM PM      PM      PM   PM   PM  
   S S  S   S S  S  S  S S  S  S S  S S  S S   
----------------------------------------------|
----------------------------------------------|
----------------------------------------------|
----------------------------------------------|
----------------------------------------------|
--12-0--0--12-0--0--0-12-0--0-12-0--8-0--7-0--|


        PM   PM       PM             PM   PM 
   S  S S  S S   S  S S  S S S  S S  S S  S  
--------------------------------------------|
--------------------------------------------|
--------------------------------------------|
--------------------------------------------|
----------------------------------8----7----|
--10-12-0--0-0--10-12-0--0-7-8-10---10---10-|


     PM PM    PM PM      PM      PM   PM   PM  
   S S  S   S S  S  S  S S  S  S S  S S  S S   
----------------------------------------------|
----------------------------------------------|
----------------------------------------------|
----------------------------------------------|
----------------------------------------------|
--12-0--0--12-0--0--0-12-0--0-12-0--8-0--7-0--|


        PM   PM       PM   PM PM PM PM PM PM PM  
   S  S S  S S   S  S S  S S  S  S  S  S  S  S   
------------------------------------------------|
------------------------------------------------|
------------------------------------------------|
-------------------------0-0--0--0--0--0--0--0--|
-------------------------0-0--0--0--0--0--0--0--|
--10-12-0--0-0--10-12-0--0-0--0--0--0--0--0--0--|


     PM PM    PM PM      PM      PM   PM   PM  
   S S  S   S S  S  S  S S  S  S S  S S  S S   
----------------------------------------------|
----------------------------------------------|
----------------------------------------------|
----------------------------------------------|
----------------------------------------------|
--12-0--0--12-0--0--0-12-0--0-12-0--8-0--7-0--|


        PM   PM       PM             PM   PM 
   S  S S  S S   S  S S  S S S  S S  S S  S  
--------------------------------------------|
--------------------------------------------|
--------------------------------------------|
--------------------------------------------|
----------------------------------8----7----|
--10-12-0--0-0--10-12-0--0-7-8-10---10---10-|


     PM PM    PM PM      PM      PM   PM   PM  
   S S  S   S S  S  S  S S  S  S S  S S  S S   
----------------------------------------------|
----------------------------------------------|
----------------------------------------------|
----------------------------------------------|
----------------------------------------------|
--12-0--0--12-0--0--0-12-0--0-12-0--8-0--7-0--|


        PM   PM       PM   PM PM PM PM PM PM PM  
   S  S S  S S   S  S S  S S  S  S  S  S  S  S   
------------------------------------------------|
------------------------------------------------|
------------------------------------------------|
-------------------------0-0--0--0--0--0--0--0--|
-------------------------0-0--0--0--0--0--0--0--|
--10-12-0--0-0--10-12-0--0-0--0--0--0--0--0--0--|


  PM PM PM   PM PM PM PM   PM   PM   PM      
  S  S  S  S S  S  S  S  S S  S S  S S  S S  
--------------------------------------------|
--------------------------------------------|
--------------------------------------------|
--0--0--0--L-0--0--0--0--L-0--L-0--L-0--L---|
--0--0--0--L-0--0--0--0--L-0--L-0--L-0--L---|
--0--0--0--L-0--0--0--0--L-0--L-0--L-0--L---|


    PM   PM   PM PM PM   PM PM   PM PM PM    
  S S  S S  S S  S  S  S S  S  S S  S  S  S  
--------------------------------------------|
--------------------------------------------|
--------------------------------------------|
----0--L-0--L-0--0--0--L-0--0--L-0--0--0--L-|
----0--L-0--L-0--0--0--L-0--0--L-0--0--0--L-|
----0--L-0--L-0--0--0--L-0--0--L-0--0--0--L-|


      PM PM   PM   PM   PM PM PM   PM   PM  
  S S S  S  S S  S S  S S  S  S  S S  S S   
-------------------------------------------|
-------------------------------------------|
-------------------------------------------|
------0--0--L-0--L-0--L-0--0--0--L-0--L-0--|
------0--0--L-0--L-0--L-0--0--0--L-0--L-0--|
------0--0--L-0--L-0--L-0--0--0--L-0--L-0--|


  PM PM       PM PM PM PM   PM PM   PM      
  S  S  S S S S  S  S  S  S S  S  S S  S S  
-------------------------------------------|
-------------------------------------------|
-------------------------------------------|
--0--0--L-----0--0--0--0--L-0--0--L-0--L---|
--0--0--L-----0--0--0--0--L-0--0--L-0--L---|
--0--0--L-----0--0--0--0--L-0--0--L-0--L---|


  PM PM PM   PM PM PM PM   PM   PM   PM      
  S  S  S  S S  S  S  S  S S  S S  S S  S S  
--------------------------------------------|
--------------------------------------------|
--------------------------------------------|
--0--0--0--L-0--0--0--0--L-0--L-0--L-0--L---|
--0--0--0--L-0--0--0--0--L-0--L-0--L-0--L---|
--0--0--0--L-0--0--0--0--L-0--L-0--L-0--L---|


    PM PM PM PM PM   PM   PM PM   PM PM PM    
  S S  S  S  S  S  S S  S S  S  S S  S  S  S  
---------------------------------------------|
---------------------------------------------|
---------------------------------------------|
----0--0--0--0--0--L-0--L-0--0--L-0--0--0--L-|
----0--0--0--0--0--L-0--L-0--0--L-0--0--0--L-|
----0--0--0--0--0--L-0--L-0--0--L-0--0--0--L-|


      PM PM   PM   PM   PM PM PM   PM   PM  
  S S S  S  S S  S S  S S  S  S  S S  S S   
-------------------------------------------|
-------------------------------------------|
-------------------------------------------|
------0--0--L-0--L-0--L-0--0--0--L-0--L-0--|
------0--0--L-0--L-0--L-0--0--0--L-0--L-0--|
------0--0--L-0--L-0--L-0--0--0--L-0--L-0--|


  PM PM       PM PM PM PM   PM PM   PM                                    
  S  S  S S S S  S  S  S  S S  S  S S  S S    E  S E  S S E  E  S E  S S  
-------------------------------------------|-----------------------------|
-------------------------------------------|-----------------------------|
-------------------------------------------|--5--L-5--L-5-2--2--L-2--2-2-|
--0--0--L-----0--0--0--0--L-0--0--L-0--L---|--x----x----x-x--x----x--x-x-|
--0--0--L-----0--0--0--0--L-0--0--L-0--L---|--3--L-3----3-0--0--L-0--0-0-|
--0--0--L-----0--0--0--0--L-0--0--L-0--L---|-----------------------------|


  E  S E  S S E  E  S E  S S    E  S E  S S E  E  S E  S S  
-----------------------------|-----------------------------|
-----------------------------|-----------------------------|
--4--L-4--L-4-2--2--L-2--2-2-|--5--L-5--L-5-2--2--L-2--2-2-|
--x----x----x-x--x----x--x-x-|--x----x----x-x--x----x--x-x-|
--2--L-2----2-0--0--L-0--0-0-|--3--L-3----3-0--0--L-0--0-0-|
-----------------------------|-----------------------------|


  E  S E  S S E  E  S E  S S    E  S E  S S E  E  S E  S S  
-----------------------------|-----------------------------|
-----------------------------|-----------------------------|
--7--L-7--L-7-4--4--L-4--4-4-|--5--L-5--L-5-2--2--L-2--2-2-|
--x----x----x-x--x----x--x-x-|--x----x----x-x--x----x--x-x-|
--5--L-5----5-2--2--L-2--2-2-|--3--L-3----3-0--0--L-0--0-0-|
-----------------------------|-----------------------------|


  E  S E  S S E  E  S E  S S    E  S E  S E  S E  S E  S S  
-----------------------------|-----------------------------|
-----------------------------|-----------------------------|
--4--L-4--L-4-2--2--L-2--2-2-|--2--L-2--L-2--L-2--L-2--2-2-|
--x----x----x-x--x----x--x-x-|--x--L-x--L-x--L-x--L-x--x-x-|
--2--L-2----2-0--0--L-0--0-0-|--0--L-0--L-0--L-0--L-0--0-0-|
-----------------------------|-----------------------------|


  E  S E  S E  E  E  S S S S    E  E  E  E  E  E  E  E   
-----------------------------|-----------0--------0-----|
-----------------------------|--------6--------------6--|
--4--L-4--L-4--4--4--4-4-4-4-|-----5-----------5--------|
--x----x----x--x--x--x-x-x-x-|--7-----------7-----------|
--2--L-2----2--2--2--2-2-2-2-|--------------------------|
-----------------------------|--------------------------|


  E  E  E  E  E  E  E  E     E  E  E  E  E  E  E  E   
--------5-----------5-----|-----------0--------0-----|
-----8-----8-----8-----8--|--------6--------------6--|
--5-----------5-----------|-----5-----------5--------|
--------------------------|--7-----------7-----------|
--------------------------|--------------------------|
--------------------------|--------------------------|


  E  E  E  E  E  E  E  E     E  E  E  E  E  E  E  E   
--------------------------|-----------0--------0-----|
--------3-----------------|--------6--------------6--|
-----5-----5--4--4--4--4--|-----5-----------5--------|
--7-----------------------|--7-----------7-----------|
--------------------------|--------------------------|
--------------------------|--------------------------|


  E  E  E  E  E  E  E  E     E  E  E  E  E  E  E  E   
--------5-----------5-----|--------3-----------3-----|
-----8-----8-----8-----8--|-----3-----3-----3-----3--|
--5-----------5-----------|--5-----------5-----------|
--------------------------|--------------------------|
--------------------------|--------------------------|
--------------------------|--------------------------|


  E  E  E  E  E  E  E  E     S S S S S S S S S S S S S S S S  
--------3-----------3-----|----------------------------------|
-----3-----3-----3-----3--|----------------------------------|
--4-----------4-----------|--9-9-9-9-9-9-9-9-9-9-9-9-9-9-9-9-|
--------------------------|----------------------------------|
--------------------------|----------------------------------|
--------------------------|----------------------------------|


  S S S S S S S S S S  S  S  S  S  S  S     S  S  S S S S S S S S S S S S S S  
-----------------------------------------|------------------------------------|
--------------------6--6--6--6--6--6--6--|--6--6------------------------------|
--9-9-9-9-9-9-9-9-9-9b-9b-9b-9b-9b-9b-9b-|--9b-9b-9-9-9-9-9-9-9-9-9-9-9-9-9-9-|
-----------------------------------------|------------------------------------|
-----------------------------------------|------------------------------------|
-----------------------------------------|------------------------------------|


  S S S S S S S S S S S S S S S S    S S S S S S S S S S S S S S S S  
----------------------------------|----------------------------------|
----------------------------------|----------------------------------|
--9-9-9-9-9-9-9-9-9-9-9-9-9-9-9-9-|--9-9-9-9-9-9-9-9-9-9-9-9-9-9-9-9-|
----------------------------------|----------------------------------|
----------------------------------|----------------------------------|
----------------------------------|----------------------------------|


  S S S S S S S S S S  S  S  S  S  S  S     S  S  S S S S S S S S S S S S S S  
-----------------------------------------|------------------------------------|
--------------------6--6--6--6--6--6--6--|--6--6------------------------------|
--9-9-9-9-9-9-9-9-9-9b-9b-9b-9b-9b-9b-9b-|--9b-9b-9-9-9-9-9-9-9-9-9-9-9-9-9-9-|
-----------------------------------------|------------------------------------|
-----------------------------------------|------------------------------------|
-----------------------------------------|------------------------------------|


  S S S S S S S S S S S S S S S S    E  E  E  E  E  E  E  E   
----------------------------------|-----------0--------0-----|
----------------------------------|--------6--------------6--|
--9-9-9-9-9-9-9-9-9-9-9-9-9-9-9-9-|-----5-----------5--------|
----------------------------------|--7-----------7-----------|
----------------------------------|--------------------------|
----------------------------------|--------------------------|


  E  E  E  E  E  E  E  E     E  E  E  E  E  E  E  E   
--------5-----------5-----|-----------0--------0-----|
-----8-----8-----8-----8--|--------6--------------6--|
--5-----------5-----------|-----5-----------5--------|
--------------------------|--7-----------7-----------|
--------------------------|--------------------------|
--------------------------|--------------------------|


  E  E  E  E  E  E  E  E     E  E  E  E  E  E  E  E   
--------------------------|-----------0--------0-----|
--------3-----------------|--------6--------------6--|
-----5-----5--4--4--4--4--|-----5-----------5--------|
--7-----------------------|--7-----------7-----------|
--------------------------|--------------------------|
--------------------------|--------------------------|


  E  E  E  E  E  E  E  E     E  E  E  E  E  E  E  E   
--------5-----------5-----|--------3-----------3-----|
-----8-----8-----8-----8--|-----3-----3-----3-----3--|
--5-----------5-----------|--5-----------5-----------|
--------------------------|--------------------------|
--------------------------|--------------------------|
--------------------------|--------------------------|


  E  E  E  E  E  E  E  E     E  E  E  E  E  E  E  E   
--------3-----------3-----|-----------0--------0-----|
-----3-----3-----3-----3--|--------6--------------6--|
--4-----------4-----------|-----5-----------5--------|
--------------------------|--7-----------7-----------|
--------------------------|--------------------------|
--------------------------|--------------------------|


  E  E  E  E  E  E  E  E     E  E  E  E  E  E  E  E   
--------5-----------5-----|-----------0--------0-----|
-----8-----8-----8-----8--|--------6--------------6--|
--5-----------5-----------|-----5-----------5--------|
--------------------------|--7-----------7-----------|
--------------------------|--------------------------|
--------------------------|--------------------------|


  E  E  E  E  E  E  E  E     E  E  E  E  E  E  E  E   
--------------------------|-----------0--------0-----|
--------3-----------------|--------6--------------6--|
-----5-----5--4--4--4--4--|-----5-----------5--------|
--7-----------------------|--7-----------7-----------|
--------------------------|--------------------------|
--------------------------|--------------------------|


  E  E  E  E  E  E  E  E     E  E  E  E  E  E  E  E   
--------5-----------5-----|--------3-----------3-----|
-----8-----8-----8-----8--|-----3-----3-----3-----3--|
--5-----------5-----------|--5-----------5-----------|
--------------------------|--------------------------|
--------------------------|--------------------------|
--------------------------|--------------------------|


  E  E  E  E  E  E  E  E      S S S  S S S  S S  S S S  S S S  S S  
--------3-----------3-----|----------------------------------------|
-----3-----3-----3-----3--|----------------------------------------|
--4-----------4-----------|----------------------------------------|
--------------------------|----------------------------------------|
--------------------------|----------------------------------------|
--------------------------|--12-0-0-14-0-0-12-0-15-0-0-14-0-0-14-0-|


   S S S  S S S  S S  S S S  S S S  S S  
----------------------------------------|
----------------------------------------|
----------------------------------------|
----------------------------------------|
----------------------------------------|
--12-0-0-14-0-0-12-0-15-0-0-14-0-0-14-0-|


   S S S  S S S  S S  S S S  S S S  S S  
----------------------------------------|
----------------------------------------|
----------------------------------------|
----------------------------------------|
----------------------------------------|
--12-0-0-14-0-0-12-0-15-0-0-14-0-0-14-0-|


   S S S  S S S  S S  S S S  S S S  S S  
----------------------------------------|
----------------------------------------|
----------------------------------------|
----------------------------------------|
----------------------------------------|
--12-0-0-14-0-0-12-0-15-0-0-14-0-0-14-0-|


    PM PM   PM PM     PM PM   PM PM   PM PM  
  S S  S  S S  S  S S S  S  S S  S  S S  S   
--------------------------------------------|
--------------------------------------------|
--------------------------------------------|
--------------------------------------------|
--------------------------------------------|
--0-0--0--0-0--0--0-0-0--0--0-0--0--0-0--0--|


    PM PM   PM PM PM   PM PM   PM PM   PM PM  
  S S  S  S S  S  S  S S  S  S S  S  S S  S   
---------------------------------------------|
---------------------------------------------|
---------------------------------------------|
---------------------------------------------|
---------------------------------------------|
--0-0--0--0-0--0--0--0-0--0--0-0--0--0-0--0--|


    PM PM   PM PM     PM PM   PM PM   PM PM  
  S S  S  S S  S  S S S  S  S S  S  S S  S   
--------------------------------------------|
--------------------------------------------|
--------------------------------------------|
--------------------------------------------|
--------------------------------------------|
--0-0--0--0-0--0--0-0-0--0--0-0--0--0-0--0--|


      PM   PM PM PM   PM PM   PM PM   PM PM  
  S S S  S S  S  S  S S  S  S S  S  S S  S   
--------------------------------------------|
--------------------------------------------|
--------------------------------------------|
--------------------------------------------|
--------------------------------------------|
--0-0-0--0-0--0--0--0-0--0--0-0--0--0-0--0--|


    PM PM   PM PM     PM PM   PM PM   PM PM  
  S S  S  S S  S  S S S  S  S S  S  S S  S   
--------------------------------------------|
--------------------------------------------|
--------------------------------------------|
--------------------------------------------|
--------------------------------------------|
--0-0--0--0-0--0--0-0-0--0--0-0--0--0-0--0--|


    PM PM   PM PM PM   PM PM   PM PM   PM PM  
  S S  S  S S  S  S  S S  S  S S  S  S S  S   
---------------------------------------------|
---------------------------------------------|
---------------------------------------------|
---------------------------------------------|
---------------------------------------------|
--0-0--0--0-0--0--0--0-0--0--0-0--0--0-0--0--|


    PM PM   PM PM     PM PM   PM PM   PM PM  
  S S  S  S S  S  S S S  S  S S  S  S S  S   
--------------------------------------------|
--------------------------------------------|
--------------------------------------------|
--------------------------------------------|
--------------------------------------------|
--0-0--0--0-0--0--0-0-0--0--0-0--0--0-0--0--|


      PM   PM PM PM   PM PM   PM PM   PM PM  
  S S S  S S  S  S  S S  S  S S  S  S S  S   
--------------------------------------------|
--------------------------------------------|
--------------------------------------------|
--------------------------------------------|
--------------------------------------------|
--0-0-0--0-0--0--0--0-0--0--0-0--0--0-0--0--|


    PM PM   PM PM     PM PM   PM PM   PM PM  
  S S  S  S S  S  S S S  S  S S  S  S S  S   
--------------------------------------------|
--------------------------------------------|
--------------------------------------------|
--------------------------------------------|
--------------------------------------------|
--0-0--0--0-0--0--0-0-0--0--0-0--0--0-0--0--|


    PM PM   PM PM PM   PM PM   PM PM   PM PM  
  S S  S  S S  S  S  S S  S  S S  S  S S  S   
---------------------------------------------|
---------------------------------------------|
---------------------------------------------|
---------------------------------------------|
---------------------------------------------|
--0-0--0--0-0--0--0--0-0--0--0-0--0--0-0--0--|


    PM PM   PM PM     PM PM   PM PM   PM PM  
  S S  S  S S  S  S S S  S  S S  S  S S  S   
--------------------------------------------|
--------------------------------------------|
--------------------------------------------|
--------------------------------------------|
--------------------------------------------|
--0-0--0--0-0--0--0-0-0--0--0-0--0--0-0--0--|


      PM   PM PM PM   PM PM   PM PM   PM PM  
  S S S  S S  S  S  S S  S  S S  S  S S  S   
--------------------------------------------|
--------------------------------------------|
--------------------------------------------|
--------------------------------------------|
--------------------------------------------|
--0-0-0--0-0--0--0--0-0--0--0-0--0--0-0--0--|


    PM PM   PM PM     PM PM   PM PM   PM PM  
  S S  S  S S  S  S S S  S  S S  S  S S  S   
--------------------------------------------|
--------------------------------------------|
--------------------------------------------|
--------------------------------------------|
--------------------------------------------|
--0-0--0--0-0--0--0-0-0--0--0-0--0--0-0--0--|


    PM PM   PM PM PM   PM PM   PM PM   PM PM  
  S S  S  S S  S  S  S S  S  S S  S  S S  S   
---------------------------------------------|
---------------------------------------------|
---------------------------------------------|
---------------------------------------------|
---------------------------------------------|
--0-0--0--0-0--0--0--0-0--0--0-0--0--0-0--0--|


    PM PM   PM PM     PM PM   PM PM   PM PM  
  S S  S  S S  S  S S S  S  S S  S  S S  S   
--------------------------------------------|
--------------------------------------------|
--------------------------------------------|
--------------------------------------------|
--------------------------------------------|
--0-0--0--0-0--0--0-0-0--0--0-0--0--0-0--0--|


      PM   PM PM PM   PM PM   PM PM   PM PM  
  S S S  S S  S  S  S S  S  S S  S  S S  S   
--------------------------------------------|
--------------------------------------------|
--------------------------------------------|
--------------------------------------------|
--------------------------------------------|
--0-0-0--0-0--0--0--0-0--0--0-0--0--0-0--0--|


    PM PM   PM PM     PM PM   PM PM   PM PM  
  S S  S  S S  S  S S S  S  S S  S  S S  S   
--------------------------------------------|
--------------------------------------------|
--------------------------------------------|
--------------------------------------------|
--------------------------------------------|
--0-0--0--0-0--0--0-0-0--0--0-0--0--0-0--0--|


    PM PM   PM PM PM   PM PM   PM PM   PM PM  
  S S  S  S S  S  S  S S  S  S S  S  S S  S   
---------------------------------------------|
---------------------------------------------|
---------------------------------------------|
---------------------------------------------|
---------------------------------------------|
--0-0--0--0-0--0--0--0-0--0--0-0--0--0-0--0--|


    PM PM   PM PM     PM PM   PM PM   PM PM  
  S S  S  S S  S  S S S  S  S S  S  S S  S   
--------------------------------------------|
--------------------------------------------|
--------------------------------------------|
--------------------------------------------|
--------------------------------------------|
--0-0--0--0-0--0--0-0-0--0--0-0--0--0-0--0--|


      PM   PM PM PM   PM PM   PM PM   PM PM                                     
  S S S  S S  S  S  S S  S  S S  S  S S  S     S S S S S S S S S S S S S S S S  
--------------------------------------------|----------------------------------|
--------------------------------------------|----------------------------------|
--------------------------------------------|----------------------------------|
--------------------------------------------|----------------------------------|
--------------------------------------------|----------------------------------|
--0-0-0--0-0--0--0--0-0--0--0-0--0--0-0--0--|--0-----0-----0-0-----0-----0-----|


  S S S S S S S S S S S S S S S S    S S S S S S S S S S S S S S S S  
----------------------------------|----------------------------------|
----------------------------------|----------------------------------|
----------------------------------|----------------------------------|
----------------------------------|----------------------------------|
----------------------------------|----------------------------------|
--0-----0-------0-----0-----0-----|--0-----0-----0-0-----0-----0-----|


  S S S S S S S S S S S S S S S S    E  S E  S S E  E  S E  S S  
----------------------------------|-----------------------------|
----------------------------------|-----------------------------|
----------------------------------|--5--L-5--L-5-2--2--L-2--2-2-|
----------------------------------|--x----x----x-x--x----x--x-x-|
----------------------------------|--3--L-3----3-0--0--L-0--0-0-|
--0-0---0-------0-----0-----0-----|-----------------------------|


  E  S E  S S E  E  S E  S S    E  S E  S S E  E  S E  S S  
-----------------------------|-----------------------------|
-----------------------------|-----------------------------|
--4--L-4--L-4-2--2--L-2--2-2-|--5--L-5--L-5-2--2--L-2--2-2-|
--x----x----x-x--x----x--x-x-|--x----x----x-x--x----x--x-x-|
--2--L-2----2-0--0--L-0--0-0-|--3--L-3----3-0--0--L-0--0-0-|
-----------------------------|-----------------------------|


  E  S E  S S E  E  S E  S S    E  S E  S S E  E  S E  S S  
-----------------------------|-----------------------------|
-----------------------------|-----------------------------|
--7--L-7--L-7-4--4--L-4--4-4-|--5--L-5--L-5-2--2--L-2--2-2-|
--x----x----x-x--x----x--x-x-|--x----x----x-x--x----x--x-x-|
--5--L-5----5-2--2--L-2--2-2-|--3--L-3----3-0--0--L-0--0-0-|
-----------------------------|-----------------------------|


  E  S E  S S E  E  S E  S S    E  S E  S E  S E  S E  S S  
-----------------------------|-----------------------------|
-----------------------------|-----------------------------|
--4--L-4--L-4-2--2--L-2--2-2-|--2--L-2--L-2--L-2--L-2--2-2-|
--x----x----x-x--x----x--x-x-|--x--L-x--L-x--L-x--L-x--x-x-|
--2--L-2----2-0--0--L-0--0-0-|--0--L-0--L-0--L-0--L-0--0-0-|
-----------------------------|-----------------------------|


  E  S E  S E  E  E  S S S S              E  E  E  E  E  E  E  E   
-----------------------------|----|----|-----------0--------0-----|
-----------------------------|----|----|--------6--------------6--|
--4--L-4--L-4--4--4--4-4-4-4-|----|----|-----5-----------5--------|
--x----x----x--x--x--x-x-x-x-|----|----|--7-----------7-----------|
--2--L-2----2--2--2--2-2-2-2-|----|----|--------------------------|
-----------------------------|----|----|--------------------------|


  E  E  E  E  E  E  E  E     E  E  E  E  E  E  E  E   
--------5-----------5-----|-----------0--------0-----|
-----8-----8-----8-----8--|--------6--------------6--|
--5-----------5-----------|-----5-----------5--------|
--------------------------|--7-----------7-----------|
--------------------------|--------------------------|
--------------------------|--------------------------|


  E  E  E  E  E  E  E  E     E  E  E  E  E  E  E  E   
--------------------------|-----------0--------0-----|
--------3-----------------|--------6--------------6--|
-----5-----5--4--4--4--4--|-----5-----------5--------|
--7-----------------------|--7-----------7-----------|
--------------------------|--------------------------|
--------------------------|--------------------------|


  E  E  E  E  E  E  E  E     E  E  E  E  E  E  E  E   
--------5-----------5-----|--------3-----------3-----|
-----8-----8-----8-----8--|-----3-----3-----3-----3--|
--5-----------5-----------|--5-----------5-----------|
--------------------------|--------------------------|
--------------------------|--------------------------|
--------------------------|--------------------------|


  E  E  E  E  E  E  E  E     E  E  E  E  E  E  E  E   
--------3-----------3-----|-----------0--------0-----|
-----3-----3-----3-----3--|--------6--------------6--|
--4-----------4-----------|-----5-----------5--------|
--------------------------|--7-----------7-----------|
--------------------------|--------------------------|
--------------------------|--------------------------|


  E  E  E  E  E  E  E  E     E  E  E  E  E  E  E  E   
--------5-----------5-----|-----------0--------0-----|
-----8-----8-----8-----8--|--------6--------------6--|
--5-----------5-----------|-----5-----------5--------|
--------------------------|--7-----------7-----------|
--------------------------|--------------------------|
--------------------------|--------------------------|


  E  E  E  E  E  E  E  E     E  E  E  E  E  E  E  E   
--------------------------|-----------0--------0-----|
--------3-----------------|--------6--------------6--|
-----5-----5--4--4--4--4--|-----5-----------5--------|
--7-----------------------|--7-----------7-----------|
--------------------------|--------------------------|
--------------------------|--------------------------|


  E  E  E  E  E  E  E  E     E  E  E  E  E  E  E  E   
--------5-----------5-----|--------3-----------3-----|
-----8-----8-----8-----8--|-----3-----3-----3-----3--|
--5-----------5-----------|--5-----------5-----------|
--------------------------|--------------------------|
--------------------------|--------------------------|
--------------------------|--------------------------|


                                PM PM    PM PM      PM      PM   PM   PM  
  E  E  E  E  E  E  E  E      S S  S   S S  S  S  S S  S  S S  S S  S S   
--------3-----------3-----|----------------------------------------------|
-----3-----3-----3-----3--|----------------------------------------------|
--4-----------4-----------|----------------------------------------------|
--------------------------|----------------------------------------------|
--------------------------|----------------------------------------------|
--------------------------|--12-0--0--12-0--0--0-12-0--0-12-0--8-0--7-0--|


        PM   PM       PM             PM   PM 
   S  S S  S S   S  S S  S S S  S S  S S  S  
--------------------------------------------|
--------------------------------------------|
--------------------------------------------|
--------------------------------------------|
----------------------------------8----7----|
--10-12-0--0-0--10-12-0--0-7-8-10---10---10-|


     PM PM    PM PM      PM      PM   PM   PM  
   S S  S   S S  S  S  S S  S  S S  S S  S S   
----------------------------------------------|
----------------------------------------------|
----------------------------------------------|
----------------------------------------------|
----------------------------------------------|
--12-0--0--12-0--0--0-12-0--0-12-0--8-0--7-0--|


        PM   PM       PM   PM PM PM PM PM PM PM  
   S  S S  S S   S  S S  S S  S  S  S  S  S  S   
------------------------------------------------|
------------------------------------------------|
------------------------------------------------|
-------------------------0-0--0--0--0--0--0--0--|
-------------------------0-0--0--0--0--0--0--0--|
--10-12-0--0-0--10-12-0--0-0--0--0--0--0--0--0--|


     PM PM    PM PM      PM      PM   PM   PM  
   S S  S   S S  S  S  S S  S  S S  S S  S S   
----------------------------------------------|
----------------------------------------------|
----------------------------------------------|
----------------------------------------------|
----------------------------------------------|
--12-0--0--12-0--0--0-12-0--0-12-0--8-0--7-0--|


        PM   PM       PM             PM   PM 
   S  S S  S S   S  S S  S S S  S S  S S  S  
--------------------------------------------|
--------------------------------------------|
--------------------------------------------|
--------------------------------------------|
----------------------------------8----7----|
--10-12-0--0-0--10-12-0--0-7-8-10---10---10-|


     PM PM    PM PM      PM      PM   PM   PM  
   S S  S   S S  S  S  S S  S  S S  S S  S S   
----------------------------------------------|
----------------------------------------------|
----------------------------------------------|
----------------------------------------------|
----------------------------------------------|
--12-0--0--12-0--0--0-12-0--0-12-0--8-0--7-0--|


        PM   PM       PM   PM PM PM PM PM PM PM   
   S  S S  S S   S  S S  S S  S  S  S  S  S  S    
------------------------------------------------||
------------------------------------------------||
------------------------------------------------||
-------------------------0-0--0--0--0--0--0--0--||
-------------------------0-0--0--0--0--0--0--0--||
--10-12-0--0-0--10-12-0--0-0--0--0--0--0--0--0--||


Duration Legend
---------------
W - whole
H - half
Q - quarter
E - 8th
S - 16th
T - 32nd
X - 64th
. - note dotted
|-n-|  - n-tuplets


Tablature Legend
----------------
L - tied note
x - dead note
g - grace note
(n) - ghost note
> - accentuded note
NH - natural harmonic
AH - artificial harmonic
TH - tapped harmonic
SH - semi harmonic
PH - pitch harmonic
h - hammer on
p - pull off
b - bend
br - bendRelease
pb - preBend
pbr - preBendRelease
brb - bendReleaseBend
\n/ - tremolo bar dip
\n - tremolo bar dive
-/n - tremolo bar Release up
/n\ - tremolo bar inverted dip
/n - tremolo bar return
-\n - tremolo bar Release down
S - shift slide
s - legato slide
/ -  slide into from below or out of upwards
\ -  slide into from above or out of downwards
~ - vibrato
W - wide vibrato
tr - trill
TP - tremolo picking
T - tapping
S - slap
P - pop
< - fade in
^ - brush up
v - brush down


That is all! I hope this helped, and be sure to check out my cover if you are
having problems with the tab. Thanks, oh and one last thing... ROCK OUT!!!!
comments
We did not receive enough feedback on this tab! Please rate:
print report bad tab
1 2 3 4 5
1 comment total.
0 reply
Etaan5 wrote on January 11 2013, 01:59 am

awesome, im glad you put effort into this tab, unlike other 'tab writers'... really accurate, thanks

I want to post or [tab]
guest
You may want to rate the tab now too:
select rating
Please do not post tabs as comments. Select "correction" instead!