Oops, an error
Loading. Please wait.

Whispering Silence Tab

ver1
ver1

Solo

Whole song

Interactive

More versions @911Tabs.com
4,948 views 18 this week
no commentswrite comment
1 2 3 4 5
excellent!
x 1
Autoscroll
+/-
esc
set tempo
stop
Contributor
Difficulty
Tuning
advanced
C# G# C# F# A# D#
Hey! There's an official Ultimate Guitar app which is ideal
for learning songs when you're away from computer. Get the app
WARNING: You are trying to view
                                    content from Ultimate-Guitar.com
                                    in an unauthorized application,
                                    which is prohibited.

                                    Please use an official Ultimate
                                    Guitar Tabs application for iPhone,
                                    iPad or Android to access legitimate
                                    chords, guitar, bass, and drum tabs
                                    from Ultimate-Guitar.com database.

                                    Type "ultimate guitar tabs" in Apple
                                    App Store's or Android Market's
                                    search to find the application.
----------------------------------------------------------------------------
                           Whispering Silence
                            As I Lay Dying
----------------------------------------------------------------------------

Fact: As I Lay Dying originated from San Diego, California. Fact: I live in San
Diego, California. Coincidence? Enjoy!

Username: dkm817 (same on X box live)
Youtube Cover: http://www.youtube.com/watch?v=VM_D0-OUybo
Email: guitardrums@rockfan.com

Guitar 1 Rhythmic (C# G# C# F# A# D#) (The whole tab shows Drop C but it is
Guitar 2 Lead     (C# G# C# F# A# D#) actually Drop C#.)
Guitar 3 Lead     (C# G# C# F# A# D#)


Tab Guide...
==================================================================
(end of measures)

==================================================================
==================================================================
(end of parts)

==================================================================
==================================================================
==================================================================
(end of song)
(If there is a “continued” it is because the numbers could not
fit on 1 line or connecting times played.)


==================================================================
Guitar 1
==================================================================


Intro 1

==================================================================
Rest
==================================================================


==================================================================
==================================================================


Intro 2

(x3)

Guitar 1
D-----------------------------------------------------------------|
A-----------------------------------------------------------------|
F-----------------------------------------------------------------|
C-0---0---0---0---0---0---0---0---0---0---0---0---0---0---0---0---|
G-0---0---0---0---0---0---0---0---0---0---0---0---0---0---0---0---|
C-0---0---0---0---0---0---0---0---0---0---0---0---0---0---0---0---|

==================================================================

Guitar 1
D-----------------------------------------------------------------|
A-----------------------------------------------------------------|
F-----------------------------------------------------------------|
C-5---5---5---5---5---5---5---5---5---8---8---8---8---3---3---3---|
G-5---5---5---5---5---5---5---5---5---8---8---8---8---3---3---3---|
C-5---5---5---5---5---5---5---5---5---8---8---8---8---3---3---3---|

==================================================================
==================================================================


Break Off 1

Guitar 1
D-----------------------------------------------------------------|
A-----------------------------------------------------------------|
F-----------------------------------------------------------------|
C-0~~~~~~~~~~~~~~~~~~~~~~~~~~~~~~~~~~~~~~~~~~~~~~~~~~~~~~~~~~~~~~-
G-0~~~~~~~~~~~~~~~~~~~~~~~~~~~~~~~~~~~~~~~~~~~~~~~~~~~~~~~~~~~~~~-
C-0~~~~~~~~~~~~~~~~~~~~~~~~~~~~~~~~~~~~~~~~~~~~~~~~~~~~~~~~~~~~~~-

==================================================================
==================================================================


Verse 1

(x2)

Guitar 1
D-----------------------------------------------------------------|
A-----------------------------------------------------------------|
F-7~~-------------7~~---3~~---3~~-7~~-------------7~~---3~~---3~~-|
C-7~~-0-0-0-0-0-0-7~~-0-3~~-0-3~~-7~~-0-0-0-0-0-0-7~~-0-3~~-0-3~~-|
G-5~~-0-0-0-0-0-0-5~~-0-1~~-0-1~~-5~~-0-0-0-0-0-0-5~~-0-1~~-0-1~~-|
C-----0-0-0-0-0-0-----0-----0---------0-0-0-0-0-0-----0-----0-----|
Pm    . . . . . .     .     .         . . . . . .     .     .

==================================================================

Guitar 1
D-----------------------------------------------------------------|
A-----------------------------------------------------------------|
F-7~~-------------7~~---3~~---3~~-7~~-------------7~~---5~~---5~~-|
C-7~~-0-0-0-0-0-0-7~~-0-3~~-0-3~~-7~~-0-0-0-0-0-0-7~~-0-5~~-0-5~~-|
G-5~~-0-0-0-0-0-0-5~~-0-1~~-0-1~~-5~~-0-0-0-0-0-0-5~~-0-3~~-0-3~~-|
C-----0-0-0-0-0-0-----0-----0---------0-0-0-0-0-0-----0-----0-----|
Pm    . . . . . .     .     .         . . . . . .     .     .

==================================================================
==================================================================


Pre Chorus 1

Guitar 1 (x3)
D-----------------------------------------------------------------|
A-----------------------------------------------------------------|
F-----------------------------------------------------------------|
C-----------------------------------------------------------------|
G-5-5-5-5-5-5-5-5-5-5-5-5---------5-5-5-5-5-5-5-5-5-5-5-5---------|
C-------------------------0-0-0-0-------------------------8-8-8-8-|

==================================================================

Guitar 1
D-----------------------------------------------------------------|
A-----------------------------------------------------------------|
F-----------------------------------------------------------------|
C---------------------------------0-0-0-0---0-0---0-0-0-0-0-0-0-0-|
G-5-5-5-5-5-5-5-5-5-5-5-5---------0-0-0-0---0-0---0-0-0-0-0-0-0-0-|
C-------------------------0-0-0-0-0-0-0-0---0-0---0-0-0-0-0-0-0-0-|
Pm                                . . . .   . .   . . . . . . . .

==================================================================
==================================================================


Chorus 1

(x4)

Guitar 1
D-----------------------------------------------------------------|
A-----------------------------------------------------------------|
F-----------------------------------------------------------------|
C-0---0---0---0---0---0---0---0---0---0---0---0---0---0---0---0---|
G-0---0---0---0---0---0---0---0---0---0---0---0---0---0---0---0---|
C-0---0---0---0---0---0---0---0---0---0---0---0---0---0---0---0---|

==================================================================

Guitar 1
D-----------------------------------------------------------------|
A-----------------------------------------------------------------|
F-----------------------------------------------------------------|
C-5---5---5---5---5---5---5---5---5---8---8---8---8---3---3---3---|
G-5---5---5---5---5---5---5---5---5---8---8---8---8---3---3---3---|
C-5---5---5---5---5---5---5---5---5---8---8---8---8---3---3---3---|

==================================================================
==================================================================


Break Off 2

Guitar 1
D---------------------------------|
A---------------------------------|
F-7~~-------------7~~---3~~---3~~-|
C-7~~-0-0-0-0-0-0-7~~-0-3~~-0-3~~-|
G-5~~-0-0-0-0-0-0-5~~-0-1~~-0-1~~-|
C-----0-0-0-0-0-0-----0-----0-----|
Pm    . . . . . .     .     .

==================================================================
==================================================================


Verse 2

(x2)

Guitar 1
D-----------------------------------------------------------------|
A-----------------------------------------------------------------|
F-7~~-------------7~~---3~~---3~~-7~~-------------7~~---3~~---3~~-|
C-7~~-0-0-0-0-0-0-7~~-0-3~~-0-3~~-7~~-0-0-0-0-0-0-7~~-0-3~~-0-3~~-|
G-5~~-0-0-0-0-0-0-5~~-0-1~~-0-1~~-5~~-0-0-0-0-0-0-5~~-0-1~~-0-1~~-|
C-----0-0-0-0-0-0-----0-----0---------0-0-0-0-0-0-----0-----0-----|
Pm    . . . . . .     .     .         . . . . . .     .     .

==================================================================

Guitar 1
D-----------------------------------------------------------------|
A-----------------------------------------------------------------|
F-7~~-------------7~~---3~~---3~~-7~~-------------7~~---5~~---5~~-|
C-7~~-0-0-0-0-0-0-7~~-0-3~~-0-3~~-7~~-0-0-0-0-0-0-7~~-0-5~~-0-5~~-|
G-5~~-0-0-0-0-0-0-5~~-0-1~~-0-1~~-5~~-0-0-0-0-0-0-5~~-0-3~~-0-3~~-|
C-----0-0-0-0-0-0-----0-----0---------0-0-0-0-0-0-----0-----0-----|
Pm    . . . . . .     .     .         . . . . . .     .     .

==================================================================
==================================================================


Pre Chorus 2

Guitar 1
D-----------------------------------------------------------------|
A-----------------------------------------------------------------|
F-----------------------------------------------------------------|
C-----------------------------------------------------------------|
G-5-5-5-5-5-5-5-5-5-5-5-5---------5-5-5-5-5-5-5-5-5-5-5-5---------|
C-------------------------0-0-0-0-------------------------8-8-8-8-|

==================================================================

Guitar 1
D-----------------------------------------------------------------|
A-----------------------------------------------------------------|
F-----------------------------------------------------------------|
C---------------------------------0-0-0-0---0-0---0-0-0-0-0-0-0-0-|
G-5-5-5-5-5-5-5-5-5-5-5-5---------0-0-0-0---0-0---0-0-0-0-0-0-0-0-|
C-------------------------0-0-0-0-0-0-0-0---0-0---0-0-0-0-0-0-0-0-|
Pm                                . . . .   . .   . . . . . . . .

==================================================================
==================================================================


Chorus 1

(x4)

Guitar 1
D-----------------------------------------------------------------|
A-----------------------------------------------------------------|
F-----------------------------------------------------------------|
C-0---0---0---0---0---0---0---0---0---0---0---0---0---0---0---0---|
G-0---0---0---0---0---0---0---0---0---0---0---0---0---0---0---0---|
C-0---0---0---0---0---0---0---0---0---0---0---0---0---0---0---0---|

==================================================================

Guitar 1
D-----------------------------------------------------------------|
A-----------------------------------------------------------------|
F-----------------------------------------------------------------|
C-5---5---5---5---5---5---5---5---5---8---8---8---8---3---3---3---|
G-5---5---5---5---5---5---5---5---5---8---8---8---8---3---3---3---|
C-5---5---5---5---5---5---5---5---5---8---8---8---8---3---3---3---|

==================================================================
==================================================================


Interlude

Guitar 1
D-----------------------------------------------------------------|
A-----------------------------------------------------------------|
F-----------------------------------------------------------------|
C-8---8---8---8---8---8---8---8---8---8---8---8---8---8---8---8---|
G-8---8---8---8---8---8---8---8---8---8---8---8---8---8---8---8---|
C-8---8---8---8---8---8---8---8---8---8---8---8---8---8---8---8---|

==================================================================

Guitar 1
D-----------------------------------------------------------------|
A-----------------------------------------------------------------|
F-----------------------------------------------------------------|
C-5---5---5---5---5---5---5---5---5---5---5---5---5---5---5---5---|
G-5---5---5---5---5---5---5---5---5---5---5---5---5---5---5---5---|
C-5---5---5---5---5---5---5---5---5---5---5---5---5---5---5---5---|

==================================================================

Guitar 1
D-----------------------------------------------------------------|
A-----------------------------------------------------------------|
F-----------------------------------------------------------------|
C-0---0---0---0---0---0---0---0---0---0---0---0---0---0---0---0---|
G-0---0---0---0---0---0---0---0---0---0---0---0---0---0---0---0---|
C-0---0---0---0---0---0---0---0---0---0---0---0---0---0---0---0---|

==================================================================

Guitar 1
D-----------------------------------------------------------------|
A-----------------------------------------------------------------|
F-----------------------------------------------------------------|
C-7---7---7---7---7---7---7---7---7---7---7---7---7---7---7---7---|
G-7---7---7---7---7---7---7---7---7---7---7---7---7---7---7---7---|
C-7---7---7---7---7---7---7---7---7---7---7---7---7---7---7---7---|

==================================================================

Guitar 1
D-----------------------------------------------------------------|
A-----------------------------------------------------------------|
F-----------------------------------------------------------------|
C-8---8---8---8---8---8---8---8---8---8---8---8---8---8---8---8---|
G-8---8---8---8---8---8---8---8---8---8---8---8---8---8---8---8---|
C-8---8---8---8---8---8---8---8---8---8---8---8---8---8---8---8---|

==================================================================

Guitar 1
D-----------------------------------------------------------------|
A-----------------------------------------------------------------|
F-----------------------------------------------------------------|
C-5---5---5---5---5---5---5---5---5---5---5---5---5---5---5---5---|
G-5---5---5---5---5---5---5---5---5---5---5---5---5---5---5---5---|
C-5---5---5---5---5---5---5---5---5---5---5---5---5---5---5---5---|

==================================================================

Guitar 1
D-----------------------------------------------------------------|
A-----------------------------------------------------------------|
F-----------------------------------------------------------------|
C-7---7---7---7---7---7---7---7---7---7---7---7---7---7---7---7---|
G-7---7---7---7---7---7---7---7---7---7---7---7---7---7---7---7---|
C-7---7---7---7---7---7---7---7---7---7---7---7---7---7---7---7---|

==================================================================

Guitar 1
D-----------------------------------------------------------------|
A-----------------------------------------------------------------|
F-----------------------------------------------------------------|
C-----------------------------------------------------------------|
G-----------------------------------------------------------------|
C-7~~~~~~~~~~~~~~-5~~~~~~~~~~~~~~-3~~~~~~~~~~~~~~-2~~~~~~~~~~~~~~-|

==================================================================
==================================================================


Bridge

Guitar 1
D-----------------------------------------------------------------|
A-----------------------------------------------------------------|
F-----------------------------------------------------------------|
C-----------------------------------------------------------------|
G-----------------------------------------------------------------|
C-0~~~~~~~~~~~~~~~~~~~~~~~~~~~~~~~~~~~~~~~~~~~~~~~~~~~~~~~~~~~~~~-

==================================================================

==================================================================
Rest
==================================================================


==================================================================

Guitar 1
D-----------------------------------------------------------------|
A-----------------------------------------------------------------|
F-----------------------------------------------------------------|
C-0---0---0---0---0---0---0---0---0---0---0---0---0---0---0---0---|
G-0---0---0---0---0---0---0---0---0---0---0---0---0---0---0---0---|
C-0---0---0---0---0---0---0---0---0---0---0---0---0---0---0---0---|
Pm.   .   .   .   .   .   .   .   .   .   .   .   .   .   .   .

==================================================================

Guitar 1
D-----------------------------------------------------------------|
A-----------------------------------------------------------------|
F-----------------------------------------------------------------|
C-5---5---5---5---5---5---5---5---8---8---8---8---8---------------|
G-5---5---5---5---5---5---5---5---8---8---8---8---8---------------|
C-5---5---5---5---5---5---5---5---8---8---8---8---8---------------|
Pm.   .   .   .

==================================================================
==================================================================


Guitar Solo

Guitar 1
D-----------------------------------------------------------------|
A-----------------------------------------------------------------|
F-----------------------------------------------------------------|
C-0~~~~~~~~~~~~~~~~~~~~~~~~~~~~~~~~~~~~~~~~~~~~~~~~~~-5---8---7---|
G-0~~~~~~~~~~~~~~~~~~~~~~~~~~~~~~~~~~~~~~~~~~~~~~~~~~-5---8---7---|
C-0~~~~~~~~~~~~~~~~~~~~~~~~~~~~~~~~~~~~~~~~~~~~~~~~~~-5---8---7---|
Pm                                                    .   .   .

==================================================================

Guitar 1
D-----------------------------------------------------------------|
A-----------------------------------------------------------------|
F-----------------------------------------------------------------|
C-3~~~~~~~~~~~~~~~~~~~~~~~~~~~~~~-5~~~~~~~~~~~~~~~~~~~~~~~~~~~~~~-
G-3~~~~~~~~~~~~~~~~~~~~~~~~~~~~~~-5~~~~~~~~~~~~~~~~~~~~~~~~~~~~~~-
C-3~~~~~~~~~~~~~~~~~~~~~~~~~~~~~~-5~~~~~~~~~~~~~~~~~~~~~~~~~~~~~~-

==================================================================

Guitar 1
D-----------------------------------------------------------------|
A-----------------------------------------------------------------|
F-----------------------------------------------------------------|
C-0~~~~~~~~~~~~~~~~~~~~~~~~~~~~~~~~~~~~~~~~~~~~~~~~~~-5---8---7---|
G-0~~~~~~~~~~~~~~~~~~~~~~~~~~~~~~~~~~~~~~~~~~~~~~~~~~-5---8---7---|
C-0~~~~~~~~~~~~~~~~~~~~~~~~~~~~~~~~~~~~~~~~~~~~~~~~~~-5---8---7---|
Pm                                                    .   .   .

==================================================================

Guitar 1
D-----------------------------------------------------------------|
A-----------------------------------------------------------------|
F-----------------------------------------------------------------|
C-8~~~~~~~~~~~~~~~~~~~~~~~~~~~~~~-12~~~~~~~~~~~~~-7~~~~~~-/12\~~~-|
G-8~~~~~~~~~~~~~~~~~~~~~~~~~~~~~~-10~~~~~~~~~~~~~-7~~~~~~-/12\~~~-|
C-8~~~~~~~~~~~~~~~~~~~~~~~~~~~~~~-10~~~~~~~~~~~~~-7~~~~~~-/12\~~~-|

==================================================================

Guitar 1
D-----------------------------------------------------------------|
A-----------------------------------------------------------------|
F-----------------------------------------------------------------|
C-0---0---0---0---0---0---0---0---0---0---0---0---0---5---8---7---|
G-0---0---0---0---0---0---0---0---0---0---0---0---0---5---8---7---|
C-0---0---0---0---0---0---0---0---0---0---0---0---0---5---8---7---|

==================================================================

Guitar 1
D-----------------------------------------------------------------|
A-----------------------------------------------------------------|
F-----------------------------------------------------------------|
C-3---3---3---3---3---3---3---3---5---5---5---5---5---5---5---5---|
G-3---3---3---3---3---3---3---3---5---5---5---5---5---5---5---5---|
C-3---3---3---3---3---3---3---3---5---5---5---5---5---5---5---5---|

==================================================================

Guitar 1
D-----------------------------------------------------------------|
A-----------------------------------------------------------------|
F-----------------------------------------------------------------|
C-0---0---0---0---0---0---0---0---0---0---0---0---0---5---8---7---|
G-0---0---0---0---0---0---0---0---0---0---0---0---0---5---8---7---|
C-0---0---0---0---0---0---0---0---0---0---0---0---0---5---8---7---|

==================================================================

Guitar 1
D-----------------------------------------------------------------|
A-----------------------------------------------------------------|
F-----------------------------------------------------------------|
C-8---8---8---8---8---8---8---8---12--12--12--12--7---7---7---7---|
G-8---8---8---8---8---8---8---8---10--10--10--10--7---7---7---7---|
C-8---8---8---8---8---8---8---8---10--10--10--10--7---7---7---7---|

==================================================================
==================================================================


Break Off 3

Guitar 1
D---------------------------------|
A---------------------------------|
F---------0~~~~~~~~~~~~~~-0~~~~~~-|
C-----7~~~~-7~~-7~~~~-7~~~~~~~~~~-|
G---5~~-5~~~~-5~~~~-5~~-5~~~~~~~~-|
C-0~~~~~~~~~~~~~~-0~~~~~~~~~~~~~~-

==================================================================
==================================================================


Chorus 2

(x6)

Guitar 1
D-----------------------------------------------------------------|
A-----------------------------------------------------------------|
F-----------------------------------------------------------------|
C-0---0---0---0---0---0---0---0---0---0---0---0---0---0---0---0---|
G-0---0---0---0---0---0---0---0---0---0---0---0---0---0---0---0---|
C-0---0---0---0---0---0---0---0---0---0---0---0---0---0---0---0---|

==================================================================

Guitar 1
D-----------------------------------------------------------------|
A-----------------------------------------------------------------|
F-----------------------------------------------------------------|
C-5---5---5---5---5---5---5---5---5---8---8---8---8---3---3---3---|
G-5---5---5---5---5---5---5---5---5---8---8---8---8---3---3---3---|
C-5---5---5---5---5---5---5---5---5---8---8---8---8---3---3---3---|

==================================================================
==================================================================


Break Off 4

Guitar 1
D-----------------------------------------------------------------|
A-----------------------------------------------------------------|
F-----------------------------------------------------------------|
C-0-0-0-0---0-0---0-0-0-0-0-0-0-0-0-0-0-0---0-0---0-0-0-0-0-0-0-0-|
G-0-0-0-0---0-0---0-0-0-0-0-0-0-0-0-0-0-0---0-0---0-0-0-0-0-0-0-0-|
C-0-0-0-0---0-0---0-0-0-0-0-0-0-0-0-0-0-0---0-0---0-0-0-0-0-0-0-0-|
Pm. . . .   . .   . . . . . . . . . . . .   . .   . . . . . . . .

==================================================================

Guitar 1
D-----------------------------------------------------------------|
A-----------------------------------------------------------------|
F-----------------------------------------------------------------|
C-0-0-0-0---0-0---0-0-0-0-0-0-0-0-0-0-0-0---0-0---0---------------|
G-0-0-0-0---0-0---0-0-0-0-0-0-0-0-0-0-0-0---0-0---0---------------|
C-0-0-0-0---0-0---0-0-0-0-0-0-0-0-0-0-0-0---0-0---0---------------|
Pm. . . .   . .   . . . . . . . . . . . .   . .   .

==================================================================
==================================================================


Outro

Guitar 1 (x10000000) (Fade Out)
D-----------------------------------------------------------------|
A-----------------------------------------------------------------|
F-----------------------------------------------------------------|
C-0-0-0-0---0-0---0-0-0-0-0-0-0-0-0-0-0-0---0-0---0-0-0-0-0-0-0-0-|
G-0-0-0-0---0-0---0-0-0-0-0-0-0-0-0-0-0-0---0-0---0-0-0-0-0-0-0-0-|
C-0-0-0-0---0-0---0-0-0-0-0-0-0-0-0-0-0-0---0-0---0-0-0-0-0-0-0-0-|
Pm. . . .   . .   . . . . . . . . . . . .   . .   . . . . . . . .

==================================================================
==================================================================
==================================================================


==================================================================
Guitar 2
==================================================================


Intro 1

Guitar 2
D-----------------------------------------------------------------|
A-----------------------------------------------------------------|
F-7---7---7---7---7---7---7---7---7---7---7---7---7---7---7---7---|
C-x---x---x---x---x---x---x---x---x---x---x---x---x---x---x---x---|
G-5---5---5---5---5---5---5---5---5---5---5---5---5---5---5---5---|
C-----------------------------------------------------------------|

==================================================================

Guitar 2
D-----------------------------------------------------------------|
A---------------------------------8---8---8---8---8---8---8---8---|
F-7---7---7---7---7---7---7---7---7---7---7---7---7---7---7---7---|
C-x---x---x---x---x---x---x---x---x---x---x---x---x---x---x---x---|
G-5---5---5---5---5---5---5---5---5---5---5---5---5---5---5---5---|
C-----------------------------------------------------------------|

==================================================================
==================================================================


Intro 2

Guitar 2 (x2)
D-----------------------------------------------------------------|
A-----------------------------------------------------------------|
F-7---7---7---7---7---7---7---7---7---7---7---7---7---7---7---7---|
C-x---x---x---x---x---x---x---x---x---x---x---x---x---x---x---x---|
G-5---5---5---5---5---5---5---5---5---5---5---5---5---5---5---5---|
C-----------------------------------------------------------------|

==================================================================

Guitar 2
D-------------------------------------15~~~~~~~~~-----------------|
A-15~~~~~~~~~-17~~~~~~~~~-18~~~~~~~~~-------------18~~~~~-17~~~~~-|
F-----------------------------------------------------------------|
C-----------------------------------------------------------------|
G-----------------------------------------------------------------|
C-----------------------------------------------------------------|

==================================================================

Guitar 2
D-----------------------------------------------------------------|
A-----------------------------------------------------------------|
F-17~~~~~~~~~-19~~~~~~~~~-15~~~~~~~~~~~~~~~~~~~~~~~~~~~~~~~~~~~~~-|
C-----------------------------------------------------------------|
G-----------------------------------------------------------------|
C-----------------------------------------------------------------|

==================================================================

Guitar 2
D-------------------------------------15~~~~~~~~~-17~~~~~-15~~~~~-|
A-15~~~~~~~~~-17~~~~~~~~~-18~~~~~~~~~-----------------------------|
F-----------------------------------------------------------------|
C-----------------------------------------------------------------|
G-----------------------------------------------------------------|
C-----------------------------------------------------------------|

==================================================================

Guitar 2
D-------------15~~~~~~~~~------------------------------------------|
A-18~~~~~~~~~-------------17~~~~~~~~~~~~~~~~~~~~~~~~~~~~~~~~~~~~~~-|
F------------------------------------------------------------------|
C------------------------------------------------------------------|
G------------------------------------------------------------------|
C------------------------------------------------------------------|

==================================================================
==================================================================


Break Off 1

Guitar 2
D-----------------------------------------------------------------|
A-~~~~~~~~~~~~~~~~~~~~~~~~~~~~~~~---------------------------------|
F-----------------------------------------------------------------|
C---------------------------------ps\~~~~~~~~~~~~~~~~~~~~~~~~~~~~-|
G---------------------------------ps\~~~~~~~~~~~~~~~~~~~~~~~~~~~~-|
C---------------------------------ps\~~~~~~~~~~~~~~~~~~~~~~~~~~~~-|

==================================================================
==================================================================


Verse 1

(x2)

Guitar 2
D-----------------------------------------------------------------|
A-----------------------------------------------------------------|
F-7~~-------------7~~---3~~---3~~-7~~-------------7~~---3~~---3~~-|
C-7~~-0-0-0-0-0-0-7~~-0-3~~-0-3~~-7~~-0-0-0-0-0-0-7~~-0-3~~-0-3~~-|
G-5~~-0-0-0-0-0-0-5~~-0-1~~-0-1~~-5~~-0-0-0-0-0-0-5~~-0-1~~-0-1~~-|
C-----0-0-0-0-0-0-----0-----0---------0-0-0-0-0-0-----0-----0-----|
Pm    . . . . . .     .     .         . . . . . .     .     .

==================================================================

Guitar 2
D-----------------------------------------------------------------|
A-----------------------------------------------------------------|
F-7~~-------------7~~---3~~---3~~-7~~-------------7~~---5~~---5~~-|
C-7~~-0-0-0-0-0-0-7~~-0-3~~-0-3~~-7~~-0-0-0-0-0-0-7~~-0-5~~-0-5~~-|
G-5~~-0-0-0-0-0-0-5~~-0-1~~-0-1~~-5~~-0-0-0-0-0-0-5~~-0-3~~-0-3~~-|
C-----0-0-0-0-0-0-----0-----0---------0-0-0-0-0-0-----0-----0-----|
Pm    . . . . . .     .     .         . . . . . .     .     .

==================================================================
==================================================================


Pre Chorus 1

Guitar 2
D-----------------------------------------------------------------|
A-------------------------10~~~~~~~~~~~~~~~~~~~~~-11~~~~~~~~~~~~~-|
F-------------12~~~~~~~~~-----------------------------------------|
C-12~~~~~~~~~-----------------------------------------------------|
G-----------------------------------------------------------------|
C-----------------------------------------------------------------|

==================================================================

Guitar 2
D-----------------------------------------------------------------|
A-10~~~~~~~~~-------------10~~~~~~~~~~~~~~~~~~~~~~~~~~~~~~~~~~~~~-|
F-----------------------------------------------------------------|
C-------------12~~~~~~~~~-----------------------------------------|
G-----------------------------------------------------------------|
C-----------------------------------------------------------------|

==================================================================

Guitar 2
D-----------------------------------------------------------------|
A-------------------------10~~~~~~~~~~~~~~~~~~~~~-11~~~~~~~~~~~~~-|
F-------------12~~~~~~~~~-----------------------------------------|
C-12~~~~~~~~~-----------------------------------------------------|
G-----------------------------------------------------------------|
C-----------------------------------------------------------------|

==================================================================

Guitar 2
D-----------------------------------------------------------------|
A-10~~~~~~~~~~~~~~~~~~~~~~~~~~~~~---------------------------------|
F-----------------------------------------------------------------|
C---------------------------------0-0-0-0---0-0---0-0-0-0-0-0-0-0-|
G---------------------------------0-0-0-0---0-0---0-0-0-0-0-0-0-0-|
C---------------------------------0-0-0-0---0-0---0-0-0-0-0-0-0-0-|
Pm                                . . . .   . .   . . . . . . . .

==================================================================
==================================================================


Chorus 1

Guitar 2 (x4)
D-----------------------------------------------------------------|
A-----------------------------------------------------------------|
F-7---7---7---7---7---7---7---7---7---7---7---7---7---7---7---7---|
C-x---x---x---x---x---x---x---x---x---x---x---x---x---x---x---x---|
G-5---5---5---5---5---5---5---5---5---5---5---5---5---5---5---5---|
C-----------------------------------------------------------------|

==================================================================

Guitar 2
D-------------------------------------15~~~~~~~~~-----------------|
A-15~~~~~~~~~-17~~~~~~~~~-18~~~~~~~~~-------------18~~~~~-17~~~~~-|
F-----------------------------------------------------------------|
C-----------------------------------------------------------------|
G-----------------------------------------------------------------|
C-----------------------------------------------------------------|

==================================================================

Guitar 2
D-----------------------------------------------------------------|
A-----------------------------------------------------------------|
F-17~~~~~~~~~-19~~~~~~~~~-15~~~~~~~~~~~~~~~~~~~~~~~~~~~~~~~~~~~~~-|
C-----------------------------------------------------------------|
G-----------------------------------------------------------------|
C-----------------------------------------------------------------|

==================================================================

Guitar 2
D-------------------------------------15~~~~~~~~~-17~~~~~-15~~~~~-|
A-15~~~~~~~~~-17~~~~~~~~~-18~~~~~~~~~-----------------------------|
F-----------------------------------------------------------------|
C-----------------------------------------------------------------|
G-----------------------------------------------------------------|
C-----------------------------------------------------------------|

==================================================================

Guitar 2
D-------------15~~~~~~~~~------------------------------------------|
A-18~~~~~~~~~-------------17~~~~~~~~~~~~~~~~~~~~~~~~~~~~~~~~~~~~~~-|
F------------------------------------------------------------------|
C------------------------------------------------------------------|
G------------------------------------------------------------------|
C------------------------------------------------------------------|

==================================================================
==================================================================


Break Off 2

Guitar 2
D---------------------------------
A-~~~~~~~~~~~~~~~~~~~~~~~~~~~~~~~-
F---------------------------------|
C---------------------------------|
G---------------------------------|
C---------------------------------|

==================================================================
==================================================================


Verse 2

(x2)

Guitar 2
D-----------------------------------------------------------------|
A-----------------------------------------------------------------|
F-7~~-------------7~~---3~~---3~~-7~~-------------7~~---3~~---3~~-|
C-7~~-0-0-0-0-0-0-7~~-0-3~~-0-3~~-7~~-0-0-0-0-0-0-7~~-0-3~~-0-3~~-|
G-5~~-0-0-0-0-0-0-5~~-0-1~~-0-1~~-5~~-0-0-0-0-0-0-5~~-0-1~~-0-1~~-|
C-----0-0-0-0-0-0-----0-----0---------0-0-0-0-0-0-----0-----0-----|
Pm    . . . . . .     .     .         . . . . . .     .     .

==================================================================

Guitar 2
D-----------------------------------------------------------------|
A-----------------------------------------------------------------|
F-7~~-------------7~~---3~~---3~~-7~~-------------7~~---5~~---5~~-|
C-7~~-0-0-0-0-0-0-7~~-0-3~~-0-3~~-7~~-0-0-0-0-0-0-7~~-0-5~~-0-5~~-|
G-5~~-0-0-0-0-0-0-5~~-0-1~~-0-1~~-5~~-0-0-0-0-0-0-5~~-0-3~~-0-3~~-|
C-----0-0-0-0-0-0-----0-----0---------0-0-0-0-0-0-----0-----0-----|
Pm    . . . . . .     .     .         . . . . . .     .     .

==================================================================
==================================================================


Pre Chorus 1

Guitar 2
D-----------------------------------------------------------------|
A-------------------------10~~~~~~~~~~~~~~~~~~~~~-11~~~~~~~~~~~~~-|
F-------------12~~~~~~~~~-----------------------------------------|
C-12~~~~~~~~~-----------------------------------------------------|
G-----------------------------------------------------------------|
C-----------------------------------------------------------------|

==================================================================

Guitar 2
D-----------------------------------------------------------------|
A-10~~~~~~~~~~~~~~~~~~~~~~~~~~~~~---------------------------------|
F---------------------------------7-7-7-7-7-7-7-7-7-7-7-7-7-7-7-7-|
C---------------------------------x-x-x-x-x-x-x-x-x-x-x-x-x-x-x-x-|
G---------------------------------5-5-5-5-5-5-5-5-5-5-5-5-5-5-5-5-|
C-----------------------------------------------------------------|

==================================================================
==================================================================


Chorus 1

Guitar 2 (x4)
D-----------------------------------------------------------------|
A-----------------------------------------------------------------|
F-7---7---7---7---7---7---7---7---7---7---7---7---7---7---7---7---|
C-x---x---x---x---x---x---x---x---x---x---x---x---x---x---x---x---|
G-5---5---5---5---5---5---5---5---5---5---5---5---5---5---5---5---|
C-----------------------------------------------------------------|

==================================================================

Guitar 2
D-------------------------------------15~~~~~~~~~-----------------|
A-15~~~~~~~~~-17~~~~~~~~~-18~~~~~~~~~-------------18~~~~~-17~~~~~-|
F-----------------------------------------------------------------|
C-----------------------------------------------------------------|
G-----------------------------------------------------------------|
C-----------------------------------------------------------------|

==================================================================

Guitar 2
D-----------------------------------------------------------------|
A-----------------------------------------------------------------|
F-17~~~~~~~~~-19~~~~~~~~~-15~~~~~~~~~~~~~~~~~~~~~~~~~~~~~~~~~~~~~-|
C-----------------------------------------------------------------|
G-----------------------------------------------------------------|
C-----------------------------------------------------------------|

==================================================================

Guitar 2
D-------------------------------------15~~~~~~~~~-17~~~~~-15~~~~~-|
A-15~~~~~~~~~-17~~~~~~~~~-18~~~~~~~~~-----------------------------|
F-----------------------------------------------------------------|
C-----------------------------------------------------------------|
G-----------------------------------------------------------------|
C-----------------------------------------------------------------|

==================================================================

Guitar 2
D-------------15~~~~~~~~~------------------------------------------|
A-18~~~~~~~~~-------------17~~~~~~~~~~~~~~~~~~~~~~~~~~~~~~~~~~~~~~-|
F------------------------------------------------------------------|
C------------------------------------------------------------------|
G------------------------------------------------------------------|
C------------------------------------------------------------------|

==================================================================
==================================================================


Interlude

Guitar 2
D-----------------------------------------------------------------|
A-----------------------------------------------------------------|
F/7~~~~~~~~~~~~~~-7-9-7----9~~~~~~~~~~~~~~~~~~~~~-10--10--10--10--|
C-----------------------10----------------------------------------|
G-----------------------------------------------------------------|
C-----------------------------------------------------------------|

==================================================================

Guitar 2
D-----------------------------------------------------------------|
A-----------------------------------------------------------------|
F-----------------7-9-7---9~~~~~~~~~~~~~~~~~~~~~~-10--10--10--10--|
C-8~~~~~~~~~~~~~~-------8-----------------------------------------|
G-----------------------------------------------------------------|
C-----------------------------------------------------------------|

==================================================================

Guitar 2
D-----------------------------------------------------------------|
A-----------------------------------------------------------------|
F-----------------7-9-7---9~~~~~~~~~~~~~~~~~~~~~~-10--10--10--10--|
C-7~~~~~~~~~~~~~~-------7-----------------------------------------|
G-----------------------------------------------------------------|
C-----------------------------------------------------------------|

==================================================================

Guitar 2
D-----------------------------------------------------------------|
A------------------------------8---10~~b~~r~~~-8-10-8-------------|
F-9~~~~~~~~~~~~~~~~~~~-9---10-------------------------10--9---10--|
C-----------------------------------------------------------------|
G-----------------------------------------------------------------|
C-----------------------------------------------------------------|

==================================================================

Guitar 2
D-----------------------------------------------------------------|
A-----------------------------------------------------------------|
F-7~~~~~~~~~~~~~~-7-9-7----9~~~~~~~~~~~~~~~~~~~~~-10--10--10--10--|
C-----------------------10----------------------------------------|
G-----------------------------------------------------------------|
C-----------------------------------------------------------------|

==================================================================

Guitar 2
D-----------------------------------------------------------------|
A-----------------------------------------------------------------|
F-----------------7-9-7---9~~~~~~~~~~~~~~~~~~~~~~-10--10--10--10--|
C-8~~~~~~~~~~~~~~-------8-----------------------------------------|
G-----------------------------------------------------------------|
C-----------------------------------------------------------------|

==================================================================

Guitar 2
D-----------------------------------------------------------------|
A-----------------------------------------------------------------|
F-----------------7-9-7---9~~~~~~~~~~~~~~~~~~~~~~-10--10--10--10--|
C-7~~~~~~~~~~~~~~-------7-----------------------------------------|
G-----------------------------------------------------------------|
C-----------------------------------------------------------------|

==================================================================

Guitar 2
D-----------------------------------------------------------------|
A-------------------------------------------------10~~~~~~~~~~~~~-|
F-9~~~~~~~~~~~~~~-7~~~~~~~~~~~~~~-10~~~~~~~~~~~~~-----------------|
C-----------------------------------------------------------------|
G-----------------------------------------------------------------|
C-----------------------------------------------------------------|

==================================================================
==================================================================


Bridge

Guitar 2
D------------------------------------------------------------------|
A------------------------------------------------------------------|
F---------0~~~~~~~~~~~~~~-0~~~~~~~~~~~~~~-0~~~~~~~~~~~~~~-0~~~~~~--|
C-----7~~~~-7~~-7~~~~-7~~~~-7~~-7~~~~-7~~~~-7~~-7~~~~-7~~~~-7~~-7~-|
G---5~~-5~~~~-5~~~~-5~~-5~~~~-5~~~~-5~~-5~~~~-5~~~~-5~~-5~~~~-5~~~-|
C-0~~~~~~~~~~~~~~-0~~~~~~~~~~~~~~-5~~~~~~~~~~~~~~-8~~~~~~~~~~~~~~--|

==================================================================

Guitar 2
D-----------------------------------------------------------------|
A-----------------------------------------------------------------|
F---------0~~~~~~~~~~~~~~-0~~~~~~~~~~~~~~-0~~~~~~~~~~~~~~-0-------|
C-----7~~~~-7~~-7~~~~-7~~~~-7~~-7~~~~-7~~~~-7~~-7~~~~-7~~~~-------|
G---5~~-5~~~~-5~~~~-5~~-5~~~~-5~~~~-5~~-5~~~~-5~~~~-5~~-5~~-------|
C-0~~~~~~~~~~~~~~-0~~~~~~~~~~~~~~-5~~~~~~~~~~~~~~-8~~~~~~~~-------|

==================================================================
==================================================================


Guitar Solo

Guitar 2
D-----------------------------------------------------------------|
A/3~~~~~~~~~~~~~~~~~~~~~~-3---3---3*~~~~~~~~~~~~~~~~~~~~~-3---5---|
F-----------------------------------------------------------------|
C-----------------------------------------------------------------|
G-----------------------------------------------------------------|
C-----------------------------------------------------------------|
Pm                        .   .

==================================================================

Guitar 2
D-----------------------------------------------------------------|
A-6-5-3-5-3-----------------------------------8------8-10---------|
F-----------5-2-5-2---------5/7-----------5/7---7-10--------------|
C-------------------3-0-5-0-----10-7-10-7-------------------------|
G-----------------------------------------------------------------|
C-----------------------------------------------------------------|

==================================================================

Guitar 2
D-----------------------------------------------------------------|
A/6~~~~~~~~~~~~~~~~~~~~~~-8-----------------------------------5---|
F-----------------------------7---7~~~~~~~~~~~~~~~~~~~~~~-7-------|
C-----------------------------------------------------------------|
G-----------------------------------------------------------------|
C-----------------------------------------------------------------|

==================================================================

Guitar 2
D-----------------------------------------------------------------|
A-6-5-----5-----------------8*~~~~--------------------------------|
F-----7-------5-------7~~----------7*~~~~-------------------------|
C-----------------7-----------------------0---2---3-5-3-2-3---2---|
G-----------------------------------------------------------------|
C-----------------------------------------------------------------|
Pm                                        .   .

==================================================================

Guitar 2
D-----------------------------------------------------------------|
A-----------------------------------------------------------------|
F-----------------------------------------------------------------|
C-------------------------------------------------9-------9---10--|
G-0~~~~~~~~~~~~~~~~~~~~~~-3---0~~~~~~-0-3-7---0-------0-----------|
C-----------------------------------------------------------------|
Pm                                    . . .   .       .

==================================================================

Guitar 2
D-------------------12-13-12----------------------|
A----------------15----------15-------------------|
F-------------14----------------14----------------|
C----12-14-15----------------------15-14-15-14-12-|
G-12----------------------------------------------|
C-------------------------------------------------|

Guitar 2 continued
D-------------------12-13t17-13-12----12-13-12----|
A----------------15----------------15----------15-|
F-------------14----------------------------------|
C----12-14-15-------------------------------------|
G-12----------------------------------------------|
C-------------------------------------------------|

==================================================================

Guitar 2
D--------------------------------------------12-13-12-------------|
A-15~~~~~~~~~-15--13------13--15-13----13-15----------15-13-15----|
F---------------------14------------14-------------------------14-|
C-----------------------------------------------------------------|
G-----------------------------------------------------------------|
C-----------------------------------------------------------------|

==================================================================

Guitar 2
D----------------------------------------------15-|
A----------------------15-17-15-17-18-15-17-18----|
F-15-14-15-17-14-15-17----------------------------|
C-------------------------------------------------|
G-------------------------------------------------|
C-------------------------------------------------|

Guitar 2
D-17-15----------------15-20-17----------17-20-17-|
A-------18-17-15-17-18----------20-18-20----------|
F-------------------------------------------------|
C-------------------------------------------------|
G-------------------------------------------------|
C-------------------------------------------------|

==================================================================
==================================================================


Break Off 3

Guitar 2
D-22~~~~~~~~~~~~~~~~~~~~~~~~~~~~~~~~~~~~~~~~~~~~~~~~~~~~~~~~~~~~~-
A-----------------------------------------------------------------|
F-----------------------------------------------------------------|
C-----------------------------------------------------------------|
G-----------------------------------------------------------------|
C-----------------------------------------------------------------|

==================================================================
==================================================================


Chorus 2

Guitar 2 (x4)
D-----------------------------------------------------------------|
A-----------------------------------------------------------------|
F-7---7---7---7---7---7---7---7---7---7---7---7---7---7---7---7---|
C-x---x---x---x---x---x---x---x---x---x---x---x---x---x---x---x---|
G-5---5---5---5---5---5---5---5---5---5---5---5---5---5---5---5---|
C-----------------------------------------------------------------|

==================================================================

Guitar 2
D-------------------------------------15~~~~~~~~~-----------------|
A-15~~~~~~~~~-17~~~~~~~~~-18~~~~~~~~~-------------18~~~~~-17~~~~~-|
F-----------------------------------------------------------------|
C-----------------------------------------------------------------|
G-----------------------------------------------------------------|
C-----------------------------------------------------------------|

==================================================================

Guitar 2
D-----------------------------------------------------------------|
A-----------------------------------------------------------------|
F-17~~~~~~~~~-19~~~~~~~~~-15~~~~~~~~~~~~~~~~~~~~~~~~~~~~~~~~~~~~~-|
C-----------------------------------------------------------------|
G-----------------------------------------------------------------|
C-----------------------------------------------------------------|

==================================================================

Guitar 2
D-------------------------------------15~~~~~~~~~-17~~~~~-15~~~~~-|
A-15~~~~~~~~~-17~~~~~~~~~-18~~~~~~~~~-----------------------------|
F-----------------------------------------------------------------|
C-----------------------------------------------------------------|
G-----------------------------------------------------------------|
C-----------------------------------------------------------------|

==================================================================

Guitar 2
D-------------15~~~~~~~~~------------------------------------------|
A-18~~~~~~~~~-------------17~~~~~~~~~~~~~~~~~~~~~~~~~~~~~~~~~~~~~~-|
F------------------------------------------------------------------|
C------------------------------------------------------------------|
G------------------------------------------------------------------|
C------------------------------------------------------------------|

==================================================================

Guitar 2
D-----------------------------------------------------------------|
A-15--15--15--17--17--17--18--18--18--20--20--20--18--18--17--17--|
F-x---x---x---x---x---x---x---x---x---x---x---x---x---x---x---x---|
C-12--12--12--14--14--14--15--15--15--17--17--17--15--15--14--14--|
G-----------------------------------------------------------------|
C-----------------------------------------------------------------|

==================================================================

Guitar 2
D-----------------------------------------------------------------|
A-13--13--13--15--15--15--11--11--11--11--11--11--11--11--11--11--|
F-x---x---x---x---x---x---x---x---x---x---x---x---x---x---x---x---|
C-10--10--10--12--12--12--8---8---8---8---8---8---8---8---8---8---|
G-----------------------------------------------------------------|
C-----------------------------------------------------------------|

==================================================================

Guitar 2
D-----------------------------------------------------------------|
A-15--15--15--17--17--17--18--18--18--20--20--20--22--22--20--20--|
F-x---x---x---x---x---x---x---x---x---x---x---x---x---x---x---x---|
C-12--12--12--14--14--14--15--15--15--17--17--17--19--19--17--17--|
G-----------------------------------------------------------------|
C-----------------------------------------------------------------|

==================================================================

Guitar 2
D-----------------------------------------------------------------|
A-18--18--18--20--20--20--17--17--17--17--17--17--17--17--17--17--|
F-x---x---x---x---x---x---x---x---x---x---x---x---x---x---x---x---|
C-15--15--15--17--17--17--14--14--14--14--14--14--14--14--14--14--|
G-----------------------------------------------------------------|
C-----------------------------------------------------------------|

==================================================================
==================================================================


Break Off 4

Guitar 2
D-----------------------------------------------------------------
A-17~~~~~~~~~~~~~~~~~~~~~~~~~~~~~~~~~~~~~~~~~~~~~~~~~~~~~~~~~~~~~-
F-x---------------------------------------------------------------
C-14~~~~~~~~~~~~~~~~~~~~~~~~~~~~~~~~~~~~~~~~~~~~~~~~~~~~~~~~~~~~~-
G-----------------------------------------------------------------|
C-----------------------------------------------------------------|

==================================================================

Guitar 2
D-----------------------------------------------------------------|
A-----------------------------------------------------------------|
F-----------------------------------------------------------------|
C-0-0-0-0---0-0---0-0-0-0-0-0-0-0-0-0-0-0---0-0---0---------------|
G-0-0-0-0---0-0---0-0-0-0-0-0-0-0-0-0-0-0---0-0---0---------------|
C-0-0-0-0---0-0---0-0-0-0-0-0-0-0-0-0-0-0---0-0---0---------------|
Pm. . . .   . .   . . . . . . . . . . . .   . .   .

==================================================================
==================================================================


Outro

Guitar 2 (x10000000) (Fade Out)
D-----------------------------------------------------------------|
A-----------------------------------------------------------------|
F-----------------------------------------------------------------|
C-0-0-0-0---0-0---0-0-0-0-0-0-0-0-0-0-0-0---0-0---0-0-0-0-0-0-0-0-|
G-0-0-0-0---0-0---0-0-0-0-0-0-0-0-0-0-0-0---0-0---0-0-0-0-0-0-0-0-|
C-0-0-0-0---0-0---0-0-0-0-0-0-0-0-0-0-0-0---0-0---0-0-0-0-0-0-0-0-|
Pm. . . .   . .   . . . . . . . . . . . .   . .   . . . . . . . .

==================================================================
==================================================================
==================================================================


==================================================================
Guitar 3
==================================================================


Interlude

Guitar 3
D-----------------------------------------------------------------|
A-----------------------------------------------------------------|
F/10~~~~~~~~~~~~~-10-12-10----12~~~~~~~~~~~~~~~~~-14--14--14--14--|
C--------------------------12-------------------------------------|
G-----------------------------------------------------------------|
C-----------------------------------------------------------------|

==================================================================

Guitar 3
D-----------------------------------------------------------------|
A-----------------------------------------------------------------|
F-----------------10-12-10----12~~~~~~~~~~~~~~~~~-14--14--14--14--|
C-12~~~~~~~~~~~~~----------12-------------------------------------|
G-----------------------------------------------------------------|
C-----------------------------------------------------------------|

==================================================================

Guitar 3
D-----------------------------------------------------------------|
A-----------------------------------------------------------------|
F-----------------10-12-10----12~~~~~~~~~~~~~~~~~-14--14--14--14--|
C-----------------------------------------------------------------|
G-12~~~~~~~~~~~~~----------12-------------------------------------|
C-----------------------------------------------------------------|

==================================================================


Guitar 3
D-----------------------------------------------------------------|
A----------------------------13--13~~b~~r~~~-13-15-13-------------|
F-12~~~~~~~~~~~~~~~~-12--14---------------------------14--12--14--|
C-----------------------------------------------------------------|
G-----------------------------------------------------------------|
C-----------------------------------------------------------------|

==================================================================

Guitar 3
D-----------------------------------------------------------------|
A-----------------------------------------------------------------|
F-10~~~~~~~~~~~~~-10-12-10----12~~~~~~~~~~~~~~~~~-14--14--14--14--|
C--------------------------12-------------------------------------|
G-----------------------------------------------------------------|
C-----------------------------------------------------------------|

==================================================================

Guitar 3
D-----------------------------------------------------------------|
A-----------------------------------------------------------------|
F-----------------10-12-10----12~~~~~~~~~~~~~~~~~-14--14--14--14--|
C-12~~~~~~~~~~~~~----------12-------------------------------------|
G-----------------------------------------------------------------|
C-----------------------------------------------------------------|

==================================================================

Guitar 3
D-----------------------------------------------------------------|
A-----------------------------------------------------------------|
F-----------------10-12-10----12~~~~~~~~~~~~~~~~~-14--14--14--14--|
C-----------------------------------------------------------------|
G-12~~~~~~~~~~~~~----------12-------------------------------------|
C-----------------------------------------------------------------|

==================================================================

Guitar 3
D-------------------------------------------------8~~~~~~~~~~~~~~-|
A-----------------------------------------------------------------|
F-12~~~~~~~~~~~~~-10~~~~~~~~~~~~~-9~~~~~~~~~~~~~~-----------------|
C-----------------------------------------------------------------|
G-----------------------------------------------------------------|
C-----------------------------------------------------------------|

==================================================================
==================================================================


Bridge

Guitar 3
D-10~~~~~~~~~~~~~~~~~~~~~~~~~~~~~~~~~~~~~~~~~~~~~~~~~~~~~~~~~~~~~-
A-----------------------------------------------------------------|
F-----------------------------------------------------------------|
C-----------------------------------------------------------------|
G-----------------------------------------------------------------|
C-----------------------------------------------------------------|

==================================================================

==================================================================
Rest
==================================================================


==================================================================

Guitar 3
D------------------------------------------------------------------|
A-10~~~~~-10~~~~~-10~~~~~-10~~~~~-10~~~~~-10~~~~~-10~~~~~-10~~~~~--|
F-----7~~~~~~-7~~~~~~-7~~~~~~-7~~~~~~-7~~~~~~-7~~~~~~-7~~~~~~-7~~~-|
C------------------------------------------------------------------|
G------------------------------------------------------------------|
C------------------------------------------------------------------|

==================================================================

Guitar 3
D-----------------------------------------------------------------|
A-10~~~~~-10~~~~~-10~~~~~-10~~~~~-10~~~~~-10~~~~~-10--------------|
F-~~~-7~~~~~~-7~~~~~~-7~~~~~~-7~~~~~~-7~~~~~~-7~~~~~--------------|
C-----------------------------------------------------------------|
G-----------------------------------------------------------------|
C-----------------------------------------------------------------|

==================================================================
==================================================================
==================================================================


Tab Legend
h  - hammer-on
p  - pull-off
/  - slide up
\  - slide down
ps/- pickslide up
ps\- pickslide down
~  - let ring
pm.- palm mute
b  - bend
r  - return from bend
t  - finger tapping
*  - harmonic
x  - dead note
^  - Whammy bar
^\ - Whammy bar (hold down)

That is all! I hope this helped, and be sure to check out my cover if you are
having problems with the tab. Thanks, oh and one last thing... ROCK OUT!!!!
comments
We did not receive enough feedback on this tab! Please rate:
print report bad tab
1 2 3 4 5
I want to post or [tab]
guest
You may want to rate the tab now too:
select rating
Please do not post tabs as comments. Select "correction" instead!