Oops, an error
Loading. Please wait.

Wrath Upon Ourselves Tab

9,167 views 6 this week
4 commentsread comments
1 2 3 4 5
excellent!
x 1
Autoscroll
+/-
esc
set tempo
stop
Contributor
Tuning
C G C F A D
WARNING: You are trying to view
                                    content from Ultimate-Guitar.com
                                    in an unauthorized application,
                                    which is prohibited.

                                    Please use an official Ultimate
                                    Guitar Tabs application for iPhone,
                                    iPad or Android to access legitimate
                                    chords, guitar, bass, and drum tabs
                                    from Ultimate-Guitar.com database.

                                    Type "ultimate guitar tabs" in Apple
                                    App Store's or Android Market's
                                    search to find the application.
                             Wrath Upon Ourselves  -  As I Lay Dying                             



Tuning: C# G# C# F# A# D#

Tempo:183bpm
                                                                  
Phil Sgrosso



      W                   W                   W                 
D#||-------------------|-------------------|-------------------|
A#||-------------------|-------------------|-------------------|
F#||-------------------|-------------------|-------------------|
C#||-------------------|-------------------|-------------------|
G#||-------------------|-------------------|-------------------|
C#||-------------------|-------------------|-------------------|


                       Intro                                     
                            PM PM PM PM         PM PM     PM PM  
  W                    E    S  S  S  S   E   E  S  S   E  S  S   
-------------------|--------------------------------------------|
-------------------|--10----------------10--10--------10--------|
-------------------|---x-----------------x---x---------x--------|
-------------------|---6-----------------6---6---------6--------|
-------------------|--------------------------------------------|
-------------------|--------0--0--0--0----------0--0------0--0--|


  PM PM     PM PM PM PM     PM PM          
  S  S   E  S  S  S  S   E  S  S   E   E   
------------------------------------------|
--------10--------------10--------10--10--|
---------x---------------x---------x---x--|
---------6---------------6---------6---6--|
------------------------------------------|
--0--0------0--0--0--0------0--0----------|


      PM PM PM PM         PM PM     PM PM  
   E  S  S  S  S   E   E  S  S   E  S  S   
------------------------------------------|
--10--------------10--10--------10--------|
---x---------------x---x---------x--------|
---6---------------6---6---------6--------|
------------------------------------------|
------0--0--0--0----------0--0------0--0--|


  PM PM     PM PM PM PM     PM PM          
  S  S   E  S  S  S  S   E  S  S   E   E   
------------------------------------------|
--------10--------------10--------10--10--|
---------x---------------x---------x---x--|
---------6---------------6---------6---6--|
------------------------------------------|
--0--0------0--0--0--0------0--0----------|


      PM PM PM PM         PM PM     PM PM  
   E  S  S  S  S   E   E  S  S   E  S  S   
------------------------------------------|
--10--------------10--10--------10--------|
---x---------------x---x---------x--------|
---6---------------6---6---------6--------|
------------------------------------------|
------0--0--0--0----------0--0------0--0--|


  PM PM     PM PM PM PM     PM PM          
  S  S   E  S  S  S  S   E  S  S   E   E   
------------------------------------------|
--------10--------------10--------10--10--|
---------x---------------x---------x---x--|
---------6---------------6---------6---6--|
------------------------------------------|
--0--0------0--0--0--0------0--0----------|


      PM PM PM PM         PM PM     PM PM  
   E  S  S  S  S   E   E  S  S   E  S  S   
------------------------------------------|
--10--------------10--10--------10--------|
---x---------------x---x---------x--------|
---6---------------6---6---------6--------|
------------------------------------------|
------0--0--0--0----------0--0------0--0--|


  PM PM     PM PM PM PM     PM PM          
  S  S   E  S  S  S  S   E  S  S   E   E   
------------------------------------------|
--------10--------------10--------10--10--|
---------x---------------x---------x---x--|
---------6---------------6---------6---6--|
------------------------------------------|
--0--0------0--0--0--0------0--0----------|


  PM PM PM PM PM PM PM PM            PM PM    PM PM PM PM PM                
  S  S  S  S  S  S  S  S   E   E  E  S  S     E  S  S  E  E   E   E  E  E   
-------------------------------------------|-------------------------------|
--------------------------10S--6--9--------|-----------------10S--6--9-----|
-------------------------------------------|-------------------------------|
---------------------------7S--3--6--------|------------------7S--3--6--0--|
--0--0--0--0--0--0--0--0-------------0--0--|--0--0--0--0--0-------------0--|
--0--0--0--0--0--0--0--0-------------0--0--|--0--0--0--0--0----------------|


  PM PM PM PM PM PM PM PM            PM PM    PM PM PM PM PM PM PM         
  S  S  S  S  S  S  S  S   E   E  E  S  S     E  S  S  E  E  E  E   Q      
-------------------------------------------|------------------------------|
--------------------------10S--6--9--------|------------------------------|
-------------------------------------------|------------------------------|
---------------------------7S--3--6--------|------------------------------|
--0--0--0--0--0--0--0--0-------------0--0--|--0--0--0--0--0--5--0--12\----|
--0--0--0--0--0--0--0--0-------------0--0--|--0--0--0--0--0--5--0---------|


  Verse 1                                        
  PM      PM PM PM PM PM PM PM            PM PM  
  S       S  S  S  S  S  S  S   E   E  E  S  S   
------------------------------------------------|
-------------------------------10S--6--9--------|
------------------------------------------------|
--------------------------------7S--3--6--------|
--0-------0--0--0--0--0--0--0-------------0--0--|
--0-------0--0--0--0--0--0--0-------------0--0--|


  PM PM PM PM PM                  PM PM PM PM PM PM PM PM            PM PM  
  E  S  S  E  E   E   E  E  E     S  S  S  S  S  S  S  S   E   E  E  S  S   
-------------------------------|-------------------------------------------|
-----------------10S--6--9-----|--------------------------10S--6--9--------|
-------------------------------|-------------------------------------------|
------------------7S--3--6--0--|---------------------------7S--3--6--------|
--0--0--0--0--0-------------0--|--0--0--0--0--0--0--0--0-------------0--0--|
--0--0--0--0--0----------------|--0--0--0--0--0--0--0--0-------------0--0--|


  PM PM PM PM PM PM  PM PM PM    PM PM PM PM PM PM PM PM            PM PM  
  E  S  S  E  E  E   E  E  E     S  S  S  S  S  S  S  S   E   E  E  S  S   
------------------------------|-------------------------------------------|
------------------------------|--------------------------10S--6--9--------|
------------------------------|-------------------------------------------|
------------------------------|---------------------------7S--3--6--------|
--0--0--0--0--0--5---6--0--6--|--0--0--0--0--0--0--0--0-------------0--0--|
--0--0--0--0--0--5h--6--0--6--|--0--0--0--0--0--0--0--0-------------0--0--|


  PM PM PM PM PM                  PM PM    PM PM    PM PM PM PM PM PM PM  
  E  S  S  E  E   E   E  E  E     S  S  E  S  S  E  S  S  S  S  S  S  E   
-------------------------------|-----------------------------------------|
-----------------10S--6--9-----|-----------------------------------------|
-------------------------------|-----------------------------------------|
------------------7S--3--6--0--|-----------------------------------------|
--0--0--0--0--0-------------0--|--0--0-----0--0-----0--0--0--0--0--0--0--|
--0--0--0--0--0----------------|--0--0-----0--0-----0--0--0--0--0--0--0--|


     PM PM PM PM PM PM PM PM PM    PM PM PM PM PM PM PM PM            PM PM  
  E  E  S  S  S  S  E  E  E  E     S  S  S  S  S  S  S  S   E   E  E  S  S   
--------------------------------|-------------------------------------------|
--------------------------------|--------------------------10S--6--9--------|
--------------------------------|-------------------------------------------|
--------------------------------|---------------------------7S--3--6--------|
-----0--0--0--0--0--0--0--0--6--|--0--0--0--0--0--0--0--0-------------0--0--|
-----0--0--0--0--0--0--0--0--6--|--0--0--0--0--0--0--0--0-------------0--0--|


  PM PM PM PM PM                  PM PM PM PM PM PM PM PM            PM PM  
  E  S  S  E  E   E   E  E  E     S  S  S  S  S  S  S  S   E   E  E  S  S   
-------------------------------|-------------------------------------------|
-----------------10S--6--9-----|--------------------------10S--6--9--------|
-------------------------------|-------------------------------------------|
------------------7S--3--6--0--|---------------------------7S--3--6--------|
--0--0--0--0--0-------------0--|--0--0--0--0--0--0--0--0-------------0--0--|
--0--0--0--0--0----------------|--0--0--0--0--0--0--0--0-------------0--0--|


  PM PM PM PM PM PM  PM PM PM    PM PM PM PM PM PM PM PM            PM PM  
  E  S  S  E  E  E   E  E  E     S  S  S  S  S  S  S  S   E   E  E  S  S   
------------------------------|-------------------------------------------|
------------------------------|--------------------------10S--6--9--------|
------------------------------|-------------------------------------------|
------------------------------|---------------------------7S--3--6--------|
--0--0--0--0--0--5h--6--0--6--|--0--0--0--0--0--0--0--0-------------0--0--|
--0--0--0--0--0--5h--6--0--6--|--0--0--0--0--0--0--0--0-------------0--0--|


  PM PM PM PM PM                  PM PM PM PM PM    PM PM PM PM  
  E  S  S  E  E   E   E  E  E     S  S  S  S  E  E  E  E  E  E   
-------------------------------|--------------------------------|
-----------------10S--6--9-----|--------------------------------|
-------------------------------|--------------------------------|
------------------7S--3--6--0--|--------------------------------|
--0--0--0--0--0-------------0--|--0--0--0--0--0-----0--0--0--0--|
--0--0--0--0--0----------------|--0--0--0--0--0-----0--0--0--0--|


                                    Breakdown                             
     PM PM PM PM PM PM  PM PM PM    PM        PM PM                PM PM  
  E  E  S  S  S  S  E   E  E  E     S         S  E  E  E  E  E  E  S  S   
---------------------------------|---------------------------------------|
---------------------------------|---------------------------------------|
---------------------------------|---------------------------------------|
---------------------------------|---------------------------------------|
-----0--0--0--0--0--5h--6--0--6--|--0---------0--0--L--L--L--L--L--0--0--|
-----0--0--0--0--0--5h--6--0--6--|--0---------0--0--L--L--L--L--L--0--0--|


  PM PM PM PM                   PM PM PM                PM PM  
  E  S  S  E  E  E  E  E  E     S  S  E  E  E  E  E  E  S  S   
-----------------------------|--------------------------------|
-----------------------------|--------------------------------|
-----------------------------|--------------------------------|
-----------------------------|--------------------------------|
--0--0--0--0--L--L--L--L--L--|--0--0--0--L--L--L--L--L--0--0--|
--0--0--0--0--L--L--L--L--L--|--0--0--0--L--L--L--L--L--0--0--|


  PM PM PM PM                    PM PM PM                PM PM  
  E  S  S  E  E  E  E   E  E     S  S  E  E  E  E  E  E  S  S   
------------------------------|--------------------------------|
------------------------------|--------------------------------|
------------------------------|--------------------------------|
------------------------------|--------------------------------|
--0--0--0--0--L--5---------8--|--0--0--0--L--L--L--L--L--0--0--|
--0--0--0--0--L-----5h--6-----|--0--0--0--L--L--L--L--L--0--0--|


  PM PM PM PM                   PM PM PM                PM PM  
  E  S  S  E  E  E  E  E  E     S  S  E  E  E  E  E  E  S  S   
-----------------------------|--------------------------------|
-----------------------------|--------------------------------|
-----------------------------|--------------------------------|
-----------------------------|--------------------------------|
--0--0--0--0--L--L--L--L--L--|--0--0--0--L--L--L--L--L--0--0--|
--0--0--0--0--L--L--L--L--L--|--0--0--0--L--L--L--L--L--0--0--|


  PM PM PM PM                    PM PM PM PM PM PM PM PM PM PM  
  E  S  S  E  E  E  E   E  E     S  S  E  E  E  E  E  E  S  S   
------------------------------|--------------------------------|
------------------------------|--------------------------------|
------------------------------|--------------------------------|
------------------------------|--------------------------------|
--0--0--0--0--L--5---------8--|--0--0--0--0--0--0--0--0--0--0--|
--0--0--0--0--L-----5h--6-----|--0--0--0--0--0--0--0--0--0--0--|


  PM PM PM PM PM PM PM PM PM    PM PM PM PM PM PM PM PM PM PM  
  E  S  S  E  E  E  E  E  E     S  S  E  E  E  E  E  E  S  S   
-----------------------------|--------------------------------|
-----------------------------|--------------------------------|
-----------------------------|--------------------------------|
-----------------------------|--------------------------------|
--0--0--0--0--0--0--0--0--0--|--0--0--0--0--0--0--0--0--0--0--|
--0--0--0--0--0--0--0--0--0--|--0--0--0--0--0--0--0--0--0--0--|


  PM PM PM PM PM                 PM PM PM PM PM PM PM PM PM PM  
  E  S  S  E  E  E  E   E  E     S  S  E  E  E  E  E  E  S  S   
------------------------------|--------------------------------|
------------------------------|--------------------------------|
------------------------------|--------------------------------|
------------------------------|--------------------------------|
--0--0--0--0--0--5---------8--|--0--0--0--0--0--0--0--0--0--0--|
--0--0--0--0--0-----5h--6-----|--0--0--0--0--0--0--0--0--0--0--|


  PM PM PM PM PM PM PM PM PM    PM PM PM PM PM PM PM PM PM PM  
  E  S  S  E  E  E  E  E  E     S  S  E  E  E  E  E  E  S  S   
-----------------------------|--------------------------------|
-----------------------------|--------------------------------|
-----------------------------|--------------------------------|
-----------------------------|--------------------------------|
--0--0--0--0--0--0--0--0--0--|--0--0--0--0--0--0--0--0--0--0--|
--0--0--0--0--0--0--0--0--0--|--0--0--0--0--0--0--0--0--0--0--|


                                  Re-Entry                                     
  PM PM PM PM PM                          PM PM PM PM         PM PM     PM PM  
  E  S  S  E  E  E  E   E  E      E       S  S  S  S   E   E  S  S   E  S  S   
------------------------------|-----------------------------------------------|
------------------------------|--10-------------------10--10--------10--------|
------------------------------|---x--------------------x---x---------x--------|
------------------------------|---6--------------------6---6---------6--------|
--0--0--0--0--0--5------------|-----------------------------------------------|
--0--0--0--0--0-----5h--6-----|-----------0--0--0--0----------0--0------0--0--|


  PM PM     PM PM PM PM     PM PM     PM  
  S  S   E  S  S  S  S   E  S  S   E  E   
-----------------------------------------|
--------10--------------10--------10-----|
---------x---------------x---------x-----|
---------6---------------6---------6-----|
-----------------------------------------|
--0--0------0--0--0--0------0--0------0--|


      PM PM PM PM         PM PM     PM PM  
   E  S  S  S  S   E   E  S  S   E  S  S   
------------------------------------------|
--10--------------10--10--------10--------|
---x---------------x---x---------x--------|
---6---------------6---6---------6--------|
------------------------------------------|
------0--0--0--0----------0--0------0--0--|


  PM PM     PM PM PM PM     PM PM     PM  
  S  S   E  S  S  S  S   E  S  S   E  E   
-----------------------------------------|
--------10--------------10--------10-----|
---------x---------------x---------x-----|
---------6---------------6---------6-----|
-----------------------------------------|
--0--0------0--0--0--0------0--0------0--|


      PM PM PM PM         PM PM     PM PM  
   E  S  S  S  S   E   E  S  S   E  S  S   
------------------------------------------|
--10--------------10--10--------10--------|
---x---------------x---x---------x--------|
---6---------------6---6---------6--------|
------------------------------------------|
------0--0--0--0----------0--0------0--0--|


  PM PM     PM PM PM PM     PM PM          
  S  S   E  S  S  S  S   E  S  S   E   E   
------------------------------------------|
--------10--------------10--------10--10--|
---------x---------------x---------x---x--|
---------6---------------6---------6---6--|
------------------------------------------|
--0--0------0--0--0--0------0--0----------|


      PM PM PM PM         PM PM     PM PM  
   E  S  S  S  S   E   E  S  S   E  S  S   
------------------------------------------|
--10--------------10--10--------10--------|
---x---------------x---x---------x--------|
---6---------------6---6---------6--------|
------------------------------------------|
------0--0--0--0----------0--0------0--0--|


                                             Pre-Chorus        
  PM PM     PM PM PM PM     PM PM                              
  S  S   E  S  S  S  S   E  S  S   E   E     W                 
------------------------------------------|-------------------|
--------10--------------10--------10--10--|-------------------|
---------x---------------x---------x---x--|-------------------|
---------6---------------6---------6---6--|-------------------|
------------------------------------------|-------------------|
--0--0------0--0--0--0------0--0----------|-------------------|


  W                   W                   W                   W                 
-------------------|-------------------|-------------------|-------------------|
-------------------|-------------------|-------------------|-------------------|
-------------------|-------------------|-------------------|-------------------|
-------------------|-------------------|-------------------|-------------------|
-------------------|-------------------|-------------------|-------------------|
-------------------|-------------------|-------------------|-------------------|


  W                   W                   H        Q     Q      
-------------------|-------------------|-----------------------|
-------------------|-------------------|-----------------------|
-------------------|-------------------|-----------------------|
-------------------|-------------------|-----------------------|
-------------------|-------------------|----------------12\----|
-------------------|-------------------|----------------12\----|


  Chorus                                         
  PM     PM PM PM PM PM PM PM PM PM PM PM PM PM  
  E      S  S  S  S  S  S  S  S  S  S  S  S  E   
------------------------------------------------|
------------------------------------------------|
------------------------------------------------|
------------------------------------------------|
--0------0--0--0--0--0--0--0--0--0--0--0--0--0--|
--0------0--0--0--0--0--0--0--0--0--0--0--0--0--|


     PM PM PM PM PM PM PM PM PM PM PM PM  
  E  S  S  S  S  S  S  S  S  S  S  E  E   
-----------------------------------------|
-----------------------------------------|
-----------------------------------------|
-----------------------------------------|
-----0--0--0--0--0--0--0--0--0--0--0--0--|
-----0--0--0--0--0--0--0--0--0--0--0--0--|


     PM PM PM PM PM PM PM PM PM PM PM PM PM  
  E  S  S  S  S  S  S  S  S  S  S  S  S  E   
--------------------------------------------|
--------------------------------------------|
--------------------------------------------|
--------------------------------------------|
-----0--0--0--0--0--0--0--0--0--0--0--0--0--|
-----0--0--0--0--0--0--0--0--0--0--0--0--0--|


     PM PM PM PM PM PM PM PM PM PM PM PM                             
  E  S  S  S  S  S  S  S  S  S  S  E  E     E  E  E  E  E  E  E  E   
-----------------------------------------|--------------------------|
-----------------------------------------|--------------------------|
-----------------------------------------|--------------------------|
-----------------------------------------|--8--8--8--8--8--8--8--8--|
-----0--0--0--0--0--0--0--0--0--0--0--0--|--8--8--8--8--8--8--8--8--|
-----0--0--0--0--0--0--0--0--0--0--0--0--|--8--8--8--8--8--8--8--8--|


  E  E  E  E  E  E  E  E     E  E  E  E  E  E  E  E   
--------------------------|--------------------------|
--------------------------|--------------------------|
--------------------------|--------------------------|
--8--8--8--8--8--8--7--7--|--5--5--5--5--5--5--5--5--|
--8--8--8--8--8--8--7--7--|--5--5--5--5--5--5--5--5--|
--8--8--8--8--8--8--7--7--|--5--5--5--5--5--5--5--5--|


                             PM PM PM PM PM PM PM PM PM PM PM PM PM PM  
  E  E  E  E  E  E  E  E     E  S  S  S  S  S  S  S  S  S  S  S  S  E   
--------------------------|--------------------------------------------|
--------------------------|--------------------------------------------|
--------------------------|--------------------------------------------|
--5--5--5--5--5--5--5--5--|--------------------------------------------|
--5--5--5--5--5--5--5--5--|--0--0--0--0--0--0--0--0--0--0--0--0--0--0--|
--5--5--5--5--5--5--5--5--|--0--0--0--0--0--0--0--0--0--0--0--0--0--0--|


     PM PM PM PM PM PM PM PM PM PM PM PM  
  E  S  S  S  S  S  S  S  S  S  S  E  E   
-----------------------------------------|
-----------------------------------------|
-----------------------------------------|
-----------------------------------------|
-----0--0--0--0--0--0--0--0--0--0--0--0--|
-----0--0--0--0--0--0--0--0--0--0--0--0--|


     PM PM PM PM PM PM PM PM PM PM PM PM PM  
  E  S  S  S  S  S  S  S  S  S  S  S  S  E   
--------------------------------------------|
--------------------------------------------|
--------------------------------------------|
--------------------------------------------|
-----0--0--0--0--0--0--0--0--0--0--0--0--0--|
-----0--0--0--0--0--0--0--0--0--0--0--0--0--|


     PM PM PM PM PM PM PM PM PM PM PM PM                             
  E  S  S  S  S  S  S  S  S  S  S  E  E     E  E  E  E  E  E  E  E   
-----------------------------------------|--------------------------|
-----------------------------------------|--------------------------|
-----------------------------------------|--------------------------|
-----------------------------------------|--8--8--8--8--8--8--8--8--|
-----0--0--0--0--0--0--0--0--0--0--0--0--|--8--8--8--8--8--8--8--8--|
-----0--0--0--0--0--0--0--0--0--0--0--0--|--8--8--8--8--8--8--8--8--|


  E  E  E  E  E  E  E  E     E  E  E  E  E  E  E  E   
--------------------------|--------------------------|
--------------------------|--------------------------|
--------------------------|--------------------------|
--8--8--8--8--8--8--7--7--|--5--5--5--5--5--5--5--5--|
--8--8--8--8--8--8--7--7--|--5--5--5--5--5--5--5--5--|
--8--8--8--8--8--8--7--7--|--5--5--5--5--5--5--5--5--|


                             Solo 1                
  E  E  E  E  E  E  E  E     H.            Q       
--------------------------|-----------------------|
--------------------------|--6b------------6b~----|
--------------------------|-----------------------|
--5--5--5--5--5-----------|-----------------------|
--5--5--5--5--5-----------|-----------------------|
--5--5--5--5--5-----------|-----------------------|


            |---3--|   |---3---|                               
  H         E  E   E   E   E   E      Q    E   E    Q    Q     
----------------------------------|---------------------------|
--L--------10--9------------------|---------------------------|
------------------12--10--12--12--|--10----L---Lb---L----7----|
----------------------------------|---------------------------|
----------------------------------|---------------------------|
----------------------------------|---------------------------|


                          PH               PH     
  Q    H.                 H.               Q      
---------------------|---------------------------|
---------------------|---------------------------|
--L------------------|--<>7~------------<>10~----|
---------------------|---------------------------|
-------3b------------|---------------------------|
---------------------|---------------------------|


        |---3---|   |---3---|    |----3---|                     |---3---|    
  Q     E   E   E   E   E   E    E   E    E      H.             E   E   E    
---------------10--12--10--------------------|--12b------------12--10--12~--|
-----------10--------------10h--15--10h--15--|------------------------------|
--L----12------------------------------------|------------------------------|
---------------------------------------------|------------------------------|
---------------------------------------------|------------------------------|
---------------------------------------------|------------------------------|


                        Verse 2                                       
                        PM      PM PM PM PM PM PM PM           PM PM  
  H        H            S       S  S  S  S  S  S  S  E   E  E  S  S   
--L------------------|-----------------------------------------------|
---------------------|-----------------------------------------------|
---------------------|-----------------------------------------------|
---------------------|-----------------------------------------------|
---------------------|--0-------0--0--0--0--0--0--0------------0--0--|
-----------3\--------|--0-------0--0--0--0--0--0--0--7S--3--6--0--0--|


  PM PM PM PM PM PM PM PM               
  S  S  S  S  S  S  S  S  E   E  E  E   
---------------------------------------|
---------------------------------------|
---------------------------------------|
---------------------------------------|
--0--0--0--0--0--0--0--0------------0--|
--0--0--0--0--0--0--0--0--7S--3--6-----|


  PM PM PM PM PM PM PM PM           PM PM  
  S  S  S  S  S  S  S  S  E   E  E  S  S   
------------------------------------------|
------------------------------------------|
------------------------------------------|
------------------------------------------|
--0--0--0--0--0--0--0--0------------0--0--|
--0--0--0--0--0--0--0--0--7S--3--6--0--0--|


  PM PM PM PM PM PM PM PM               
  S  S  S  S  S  S  S  S  E   E  E  E   
---------------------------------------|
---------------------------------------|
---------------------------------------|
---------------------------------------|
--0--0--0--0--0--0--0--0--5h--6--0--6--|
--0--0--0--0--0--0--0--0--5h--6--0--6--|


  PM PM PM PM PM PM PM PM           PM PM  
  S  S  S  S  S  S  S  S  E   E  E  S  S   
------------------------------------------|
------------------------------------------|
------------------------------------------|
------------------------------------------|
--0--0--0--0--0--0--0--0------------0--0--|
--0--0--0--0--0--0--0--0--7S--3--6--0--0--|


  PM PM PM PM PM PM PM PM                 PM PM PM PM PM    PM PM PM PM  
  S  S  S  S  S  S  S  S  E   E  E  E     S  S  S  S  E  E  E  E  E  E   
---------------------------------------|--------------------------------|
---------------------------------------|--------------------------------|
---------------------------------------|--------------------------------|
---------------------------------------|--------------------------------|
--0--0--0--0--0--0--0--0------------0--|--0--0--0--0--0-----0--0--0--0--|
--0--0--0--0--0--0--0--0--7S--3--6-----|--0--0--0--0--0-----0--0--0--0--|


                                    Solo 2                                   
     PM PM PM PM PM                                                          
                                    |----3----|  |--3--|  |--3--|  |--3--|   
  E  E  S  S  S  S  E   E  E  E     E      E  E  E  E  E  E  E  E  E  E  E   
---------------------------------|------------------------------------------|
---------------------------------|------------------------------------------|
---------------------------------|--7---------------------9--7-----------7--|
---------------------------------|---------8--5--8--5--7--------8--7--8-----|
-----0--0--0--0--0--5h--6--0--6--|------------------------------------------|
-----0--0--0--0--0--5h--6--0--6--|------------------------------------------|


   |---3--|   |---3---|   |---3---|                                  
   E   E  E   E   E   E   E   E   E   Q        H.             Q      
-------------10----------13----------12----|--17b------------17~----|
--10-------------11--10------11--10--------|------------------------|
------10--9--------------------------------|------------------------|
-------------------------------------------|------------------------|
-------------------------------------------|------------------------|
-------------------------------------------|------------------------|


  H         E   E   E   E      H.             S  E.    
--L------------15--17------|--17b---------------------|
-----------15----------15--|-----------------15-------|
---------------------------|--------------------15~---|
---------------------------|--------------------------|
---------------------------|--------------------------|
---------------------------|--------------------------|


  H         T   T   S  E   E   E      Q     E   Q.       E   E   
----------------------------------|-----------------------------|
-----------17h-18p-17-15--17--15--|-----------------------------|
--L-------------------------------|--14----15--12b------10--12--|
----------------------------------|-----------------------------|
----------------------------------|-----------------------------|
----------------------------------|-----------------------------|


                               Chorus                                         
                               PM     PM PM PM PM PM PM PM PM PM PM PM PM PM  
   E  E   E   H          E     E      S  S  S  S  S  S  S  S  S  S  S  S  E   
----------------------------|------------------------------------------------|
-------------10b~-----------|------------------------------------------------|
--10--9--10-----------------|------------------------------------------------|
----------------------------|------------------------------------------------|
----------------------------|--0------0--0--0--0--0--0--0--0--0--0--0--0--0--|
----------------------------|--0------0--0--0--0--0--0--0--0--0--0--0--0--0--|


     PM PM PM PM PM PM PM PM PM PM PM PM  
  E  S  S  S  S  S  S  S  S  S  S  E  E   
-----------------------------------------|
-----------------------------------------|
-----------------------------------------|
-----------------------------------------|
-----0--0--0--0--0--0--0--0--0--0--0--0--|
-----0--0--0--0--0--0--0--0--0--0--0--0--|


     PM PM PM PM PM PM PM PM PM PM PM PM PM  
  E  S  S  S  S  S  S  S  S  S  S  S  S  E   
--------------------------------------------|
--------------------------------------------|
--------------------------------------------|
--------------------------------------------|
-----0--0--0--0--0--0--0--0--0--0--0--0--0--|
-----0--0--0--0--0--0--0--0--0--0--0--0--0--|


     PM PM PM PM PM PM PM PM PM PM PM PM                             
  E  S  S  S  S  S  S  S  S  S  S  E  E     E  E  E  E  E  E  E  E   
-----------------------------------------|--------------------------|
-----------------------------------------|--------------------------|
-----------------------------------------|--------------------------|
-----------------------------------------|--8--8--8--8--8--8--8--8--|
-----0--0--0--0--0--0--0--0--0--0--0--0--|--8--8--8--8--8--8--8--8--|
-----0--0--0--0--0--0--0--0--0--0--0--0--|--8--8--8--8--8--8--8--8--|


  E  E  E  E  E  E  E  E     E  E  E  E  E  E  E  E   
--------------------------|--------------------------|
--------------------------|--------------------------|
--------------------------|--------------------------|
--8--8--8--8--8--8--7--7--|--5--5--5--5--5--5--5--5--|
--8--8--8--8--8--8--7--7--|--5--5--5--5--5--5--5--5--|
--8--8--8--8--8--8--7--7--|--5--5--5--5--5--5--5--5--|


                             PM PM PM PM PM PM PM PM PM PM PM PM PM PM  
  E  E  E  E  E  E  E  E     E  S  S  S  S  S  S  S  S  S  S  S  S  E   
--------------------------|--------------------------------------------|
--------------------------|--------------------------------------------|
--------------------------|--------------------------------------------|
--5--5--5--5--5--5--5--5--|--------------------------------------------|
--5--5--5--5--5--5--5--5--|--0--0--0--0--0--0--0--0--0--0--0--0--0--0--|
--5--5--5--5--5--5--5--5--|--0--0--0--0--0--0--0--0--0--0--0--0--0--0--|


     PM PM PM PM PM PM PM PM PM PM PM PM  
  E  S  S  S  S  S  S  S  S  S  S  E  E   
-----------------------------------------|
-----------------------------------------|
-----------------------------------------|
-----------------------------------------|
-----0--0--0--0--0--0--0--0--0--0--0--0--|
-----0--0--0--0--0--0--0--0--0--0--0--0--|


     PM PM PM PM PM PM PM PM PM PM PM PM PM  
  E  S  S  S  S  S  S  S  S  S  S  S  S  E   
--------------------------------------------|
--------------------------------------------|
--------------------------------------------|
--------------------------------------------|
-----0--0--0--0--0--0--0--0--0--0--0--0--0--|
-----0--0--0--0--0--0--0--0--0--0--0--0--0--|


     PM PM PM PM PM PM PM PM PM PM PM PM                             
  E  S  S  S  S  S  S  S  S  S  S  E  E     E  E  E  E  E  E  E  E   
-----------------------------------------|--------------------------|
-----------------------------------------|--------------------------|
-----------------------------------------|--------------------------|
-----------------------------------------|--8--8--8--8--8--8--8--8--|
-----0--0--0--0--0--0--0--0--0--0--0--0--|--8--8--8--8--8--8--8--8--|
-----0--0--0--0--0--0--0--0--0--0--0--0--|--8--8--8--8--8--8--8--8--|


  E  E  E  E  E  E  E  E     E  E  E  E  E  E  E  E   
--------------------------|--------------------------|
--------------------------|--------------------------|
--------------------------|--------------------------|
--8--8--8--8--8--8--7--7--|--5--5--5--5--5--5--5--5--|
--8--8--8--8--8--8--7--7--|--5--5--5--5--5--5--5--5--|
--8--8--8--8--8--8--7--7--|--5--5--5--5--5--5--5--5--|


                              Final Chorus                             
  E  E  E  E  E  E  E  E      E            E   E   E   E   E   E   E   
--------------------------|-------------------------------------------|
--------------------------|-------------------------------------------|
--------------------------|-------------------------------------------|
--5--5--5--5--5--5--5--5--|--12-----------12--12--12--12--12--12--12--|
--5--5--5--5--5--5--5--5--|---0------------0---0---0---0---0---0---0--|
--5--5--5--5--5--5--5--5--|---0------------0---0---0---0---0---0---0--|


   E   E   E   E   E   E   E   E      E   E   E   E   E   E   E   E   
----------------------------------|----------------------------------|
----------------------------------|----------------------------------|
----------------------------------|----------------------------------|
--12--12--12--12--12--12--12--12--|--12--12--12--12--12--12--12--12--|
---0---0---0---0---0---0---0---0--|---0---0---0---0---0---0---0---0--|
---0---0---0---0---0---0---0---0--|---0---0---0---0---0---0---0---0--|


   E   E   E   E   E   E   E   E      E   E   E   E   E   E   E   E   
----------------------------------|----------------------------------|
----------------------------------|----------------------------------|
----------------------------------|----------------------------------|
--12--12--12--12--12--12--12--12--|--12--12--12--12--12--12--12--12--|
---0---0---0---0---0---0---0---0--|---x---x---x---x---x---x---x---x--|
---0---0---0---0---0---0---0---0--|---8---8---8---8---8---8---8---8--|


   E   E   E   E   E   E   E   E     E  E  E  E  E  E  E  E   
----------------------------------|--------------------------|
----------------------------------|--------------------------|
----------------------------------|--------------------------|
--12--12--12--12--12--12--12--12--|--8--8--8--8--8--8--8--8--|
---x---x---x---x---x---x---x---x--|--x--x--x--x--x--x--x--x--|
---8---8---8---8---8---8---7---7--|--5--5--5--5--5--5--5--5--|


  E  E  E  E  E  E  E  E      E   E   E   E   E   E   E   E   
--------------------------|----------------------------------|
--------------------------|----------------------------------|
--------------------------|----------------------------------|
--8--8--8--8--8--8--8--8--|--12--12--12--12--12--12--12--12--|
--x--x--x--x--x--x--x--x--|---0---0---0---0---0---0---0---0--|
--5--5--5--5--5--5--5--5--|---0---0---0---0---0---0---0---0--|


   E   E   E   E   E   E   E   E      E   E   E   E   E   E   E   E   
----------------------------------|----------------------------------|
----------------------------------|----------------------------------|
----------------------------------|----------------------------------|
--12--12--12--12--12--12--12--12--|--12--12--12--12--12--12--12--12--|
---0---0---0---0---0---0---0---0--|---0---0---0---0---0---0---0---0--|
---0---0---0---0---0---0---0---0--|---0---0---0---0---0---0---0---0--|


   E   E   E   E   E   E   E   E      E   E   E   E   E   E   E   E   
----------------------------------|----------------------------------|
----------------------------------|----------------------------------|
----------------------------------|----------------------------------|
--12--12--12--12--12--12--12--12--|--12--12--12--12--12--12--12--12--|
---0---0---0---0---0---0---0---0--|---x---x---x---x---x---x---x---x--|
---0---0---0---0---0---0---0---0--|---8---8---8---8---8---8---8---8--|


   E   E   E   E   E   E   E   E     E  E  E  E  E  E  E  E   
----------------------------------|--------------------------|
----------------------------------|--------------------------|
----------------------------------|--------------------------|
--12--12--12--12--12--12--12--12--|--8--8--8--8--8--8--8--8--|
---x---x---x---x---x---x---x---x--|--x--x--x--x--x--x--x--x--|
---8---8---8---8---8---8---7---7--|--5--5--5--5--5--5--5--5--|


                              Outro                             
  E  E  E  E  E  E  E  E      E     E   E   E   E   E   E   E   
--------------------------|------------------------------------|
--------------------------|------------------------------------|
--------------------------|------------------------------------|
--8--8--8--8--8--8--8--8--|--12----12--12--12--12--12--12--12--|
--x--x--x--x--x--x--x--x--|---0-----0---0---0---0---0---0---0--|
--5--5--5--5--5--5--5--5--|---0-----0---0---0---0---0---0---0--|


   E   E   E   E   E   E   E   E      E   E   E   E   E   E   E   E   
----------------------------------|----------------------------------|
----------------------------------|----------------------------------|
----------------------------------|----------------------------------|
--12--12--12--12--12--12--12--12--|--12--12--12--12--12--12--12--12--|
---0---0---0---0---0---0---0---0--|---0---0---0---0---0---0---0---0--|
---0---0---0---0---0---0---0---0--|---0---0---0---0---0---0---0---0--|


   E   E   E   E   E   E   E   E      E   E   E   E   E   E   E   E   
----------------------------------|----------------------------------|
----------------------------------|----------------------------------|
----------------------------------|----------------------------------|
--12--12--12--12--12--12--12--12--|--12--12--12--12--12--12--12--12--|
---0---0---0---0---0---0---0---0--|---x---x---x---x---x---x---x---x--|
---0---0---0---0---0---0---0---0--|---8---8---8---8---8---8---8---8--|


   E   E   E   E   E   E   E   E     E  E  E  E  E  E  E  E   
----------------------------------|--------------------------|
----------------------------------|--------------------------|
----------------------------------|--------------------------|
--12--12--12--12--12--12--12--12--|--8--8--8--8--8--8--8--8--|
---x---x---x---x---x---x---x---x--|--x--x--x--x--x--x--x--x--|
---8---8---8---8---8---8---7---7--|--5--5--5--5--5--5--5--5--|


  E  E  E  E  E  E  E  E      E   E   E   E   E   E   E   E   
--------------------------|----------------------------------|
--------------------------|----------------------------------|
--------------------------|----------------------------------|
--8--8--8--8--8--8--8--8--|--12--12--12--12--12--12--12--12--|
--x--x--x--x--x--x--x--x--|---0---0---0---0---0---0---0---0--|
--5--5--5--5--5--5--5--5--|---0---0---0---0---0---0---0---0--|


   E   E   E   E   E   E   E   E      E   E   E   E   E   E   E   E   
----------------------------------|----------------------------------|
----------------------------------|----------------------------------|
----------------------------------|----------------------------------|
--12--12--12--12--12--12--12--12--|--12--12--12--12--12--12--12--12--|
---0---0---0---0---0---0---0---0--|---0---0---0---0---0---0---0---0--|
---0---0---0---0---0---0---0---0--|---0---0---0---0---0---0---0---0--|


   E   E   E   E   E   E   E   E      E   E   E   E   E   E   E   E   
----------------------------------|----------------------------------|
----------------------------------|----------------------------------|
----------------------------------|----------------------------------|
--12--12--12--12--12--12--12--12--|--12--12--12--12--12--12--12--12--|
---0---0---0---0---0---0---0---0--|---x---x---x---x---x---x---x---x--|
---0---0---0---0---0---0---0---0--|---8---8---8---8---8---8---8---8--|


   E   E   E   E   E   E   E   E     E  E  E  E  E  E  E  E   
----------------------------------|--------------------------|
----------------------------------|--------------------------|
----------------------------------|--------------------------|
--12--12--12--12--12--12--12--12--|--8--8--8--8--8--8--8--8--|
---x---x---x---x---x---x---x---x--|--x--x--x--x--x--x--x--x--|
---8---8---8---8---8---8---7---7--|--5--5--5--5--5--5--5--5--|


  E  E  E  E  E  E  E  E      E   E   E   E   E   E   E   E   
--------------------------|----------------------------------|
--------------------------|----------------------------------|
--------------------------|----------------------------------|
--8--8--8--8--8--8--8--8--|--12--12--12--12--12--12--12--12--|
--x--x--x--x--x--x--x--x--|---0---0---0---0---0---0---0---0--|
--5--5--5--5--5--5--5--5--|---0---0---0---0---0---0---0---0--|


   E   E   E   E   E   E   E   E      E   E   E   E   E   E   E   E   
----------------------------------|----------------------------------|
----------------------------------|----------------------------------|
----------------------------------|----------------------------------|
--12--12--12--12--12--12--12--12--|--12--12--12--12--12--12--12--12--|
---0---0---0---0---0---0---0---0--|---0---0---0---0---0---0---0---0--|
---0---0---0---0---0---0---0---0--|---0---0---0---0---0---0---0---0--|


   E   E   E   E   E   E   E   E      E   E   E   E   E   E   E   E   
----------------------------------|----------------------------------|
----------------------------------|----------------------------------|
----------------------------------|----------------------------------|
--12--12--12--12--12--12--12--12--|--12--12--12--12--12--12--12--12--|
---0---0---0---0---0---0---0---0--|---x---x---x---x---x---x---x---x--|
---0---0---0---0---0---0---0---0--|---8---8---8---8---8---8---8---8--|


   E   E   E   E   E   E   E   E     E  E  E  E  E  E  E  E   
----------------------------------|--------------------------|
----------------------------------|--------------------------|
----------------------------------|--------------------------|
--12--12--12--12--12--12--12--12--|--8--8--8--8--8--8--8--8--|
---x---x---x---x---x---x---x---x--|--x--x--x--x--x--x--x--x--|
---8---8---8---8---8---8---7---7--|--5--5--5--5--5--5--5--5--|


  E  E  E  E  E  E  E  E      E   E   E   E   E   E   E   E   
--------------------------|----------------------------------|
--------------------------|----------------------------------|
--------------------------|----------------------------------|
--8--8--8--8--8--8--8--8--|--12--12--12--12--12--12--12--12--|
--x--x--x--x--x--x--x--x--|---0---0---0---0---0---0---0---0--|
--5--5--5--5--5--5--5--5--|---0---0---0---0---0---0---0---0--|


   E   E   E   E   E   E   E   E      E   E   E   E   E   E   E   E   
----------------------------------|----------------------------------|
----------------------------------|----------------------------------|
----------------------------------|----------------------------------|
--12--12--12--12--12--12--12--12--|--12--12--12--12--12--12--12--12--|
---0---0---0---0---0---0---0---0--|---0---0---0---0---0---0---0---0--|
---0---0---0---0---0---0---0---0--|---0---0---0---0---0---0---0---0--|


   E   E   E   E   E   E   E   E      E   E   E   E   E   E   E   E   
----------------------------------|----------------------------------|
----------------------------------|----------------------------------|
----------------------------------|----------------------------------|
--12--12--12--12--12--12--12--12--|--12--12--12--12--12--12--12--12--|
---0---0---0---0---0---0---0---0--|---x---x---x---x---x---x---x---x--|
---0---0---0---0---0---0---0---0--|---8---8---8---8---8---8---8---8--|


   E   E   E   E   E   E   E   E     E  E  E  E  E  E  E  E   
----------------------------------|--------------------------|
----------------------------------|--------------------------|
----------------------------------|--------------------------|
--12--12--12--12--12--12--12--12--|--8--8--8--8--8--8--8--8--|
---x---x---x---x---x---x---x---x--|--x--x--x--x--x--x--x--x--|
---8---8---8---8---8---8---7---7--|--5--5--5--5--5--5--5--5--|


  E  E  E  E  E  E  E  E     W                   W                 
--------------------------|-------------------|-------------------|
--------------------------|-------------------|-------------------|
--------------------------|-------------------|-------------------|
--8--8--8--8--8--8--8--8--|--0----------------|--L----------------|
--x--x--x--x--x--x--x--x--|--0----------------|--L----------------|
--5--5--5--5--5--5--5--5--|--0----------------|--L----------------|


  W                   W                  
-------------------|-------------------||
-------------------|-------------------||
-------------------|-------------------||
--L----------------|--L----------------||
--L----------------|--L----------------||
--L----------------|--L----------------||




____________________________________________________________________
********************************************************************
____________________________________________________________________



                             





                              


Nick Hipa



      W                   W                   W                 
D#||-------------------|-------------------|-------------------|
A#||-------------------|-------------------|-------------------|
F#||-------------------|-------------------|-------------------|
C#||-------------------|-------------------|-------------------|
G#||-------------------|-------------------|-------------------|
C#||-------------------|-------------------|-------------------|


                       Intro                                     
                            PM PM PM PM         PM PM     PM PM  
  W                    E    S  S  S  S   E   E  S  S   E  S  S   
-------------------|--------------------------------------------|
-------------------|--10----------------10--10--------10--------|
-------------------|---x-----------------x---x---------x--------|
-------------------|---6-----------------6---6---------6--------|
-------------------|--------------------------------------------|
-------------------|--------0--0--0--0----------0--0------0--0--|


  PM PM     PM PM PM PM     PM PM          
  S  S   E  S  S  S  S   E  S  S   E   E   
------------------------------------------|
--------10--------------10--------10--10--|
---------x---------------x---------x---x--|
---------6---------------6---------6---6--|
------------------------------------------|
--0--0------0--0--0--0------0--0----------|


      PM PM PM PM         PM PM     PM PM  
   E  S  S  S  S   E   E  S  S   E  S  S   
------------------------------------------|
--10--------------10--10--------10--------|
---x---------------x---x---------x--------|
---6---------------6---6---------6--------|
------------------------------------------|
------0--0--0--0----------0--0------0--0--|


  PM PM     PM PM PM PM     PM PM          
  S  S   E  S  S  S  S   E  S  S   E   E   
------------------------------------------|
--------10--------------10--------10--10--|
---------x---------------x---------x---x--|
---------6---------------6---------6---6--|
------------------------------------------|
--0--0------0--0--0--0------0--0----------|


      PM PM PM PM         PM PM     PM PM  
   E  S  S  S  S   E   E  S  S   E  S  S   
------------------------------------------|
--10--------------10--10--------10--------|
---x---------------x---x---------x--------|
---6---------------6---6---------6--------|
------------------------------------------|
------0--0--0--0----------0--0------0--0--|


  PM PM     PM PM PM PM     PM PM          
  S  S   E  S  S  S  S   E  S  S   E   E   
------------------------------------------|
--------10--------------10--------10--10--|
---------x---------------x---------x---x--|
---------6---------------6---------6---6--|
------------------------------------------|
--0--0------0--0--0--0------0--0----------|


      PM PM PM PM         PM PM     PM PM  
   E  S  S  S  S   E   E  S  S   E  S  S   
------------------------------------------|
--10--------------10--10--------10--------|
---x---------------x---x---------x--------|
---6---------------6---6---------6--------|
------------------------------------------|
------0--0--0--0----------0--0------0--0--|


  PM PM     PM PM PM PM     PM PM                              
  S  S   E  S  S  S  S   E  S  S   E   E     W                 
------------------------------------------|-------------------|
--------10--------------10--------10--10--|-------------------|
---------x---------------x---------x---x--|-------------------|
---------6---------------6---------6---6--|--0----------------|
------------------------------------------|--0----------------|
--0--0------0--0--0--0------0--0----------|--0----------------|


  W                   W                   H        Q     Q      
-------------------|-------------------|-----------------------|
-------------------|-------------------|-----------------------|
-------------------|-------------------|-----------------------|
--L----------------|--L----------------|--L--------------------|
--L----------------|--L----------------|--L-------------12\----|
--L----------------|--L----------------|--L--------0-----------|


  Verse 1                                        
  PM      PM PM PM PM PM PM PM            PM PM  
  S       S  S  S  S  S  S  S   E   E  E  S  S   
------------------------------------------------|
-------------------------------10S--6--9--------|
------------------------------------------------|
--------------------------------7S--3--6--------|
--0-------0--0--0--0--0--0--0-------------0--0--|
--0-------0--0--0--0--0--0--0-------------0--0--|


  PM PM PM PM PM                  PM PM PM PM PM PM PM PM            PM PM  
  E  S  S  E  E   E   E  E  E     S  S  S  S  S  S  S  S   E   E  E  S  S   
-------------------------------|-------------------------------------------|
-----------------10S--6--9-----|--------------------------10S--6--9--------|
-------------------------------|-------------------------------------------|
------------------7S--3--6--0--|---------------------------7S--3--6--------|
--0--0--0--0--0-------------0--|--0--0--0--0--0--0--0--0-------------0--0--|
--0--0--0--0--0----------------|--0--0--0--0--0--0--0--0-------------0--0--|


  PM PM PM PM PM PM  PM PM PM    PM PM PM PM PM PM PM PM            PM PM  
  E  S  S  E  E  E   E  E  E     S  S  S  S  S  S  S  S   E   E  E  S  S   
------------------------------|-------------------------------------------|
------------------------------|--------------------------10S--6--9--------|
------------------------------|-------------------------------------------|
------------------------------|---------------------------7S--3--6--------|
--0--0--0--0--0--5---6--0--6--|--0--0--0--0--0--0--0--0-------------0--0--|
--0--0--0--0--0--5h--6--0--6--|--0--0--0--0--0--0--0--0-------------0--0--|


  PM PM PM PM PM                  PM PM    PM PM    PM PM PM PM PM PM PM  
  E  S  S  E  E   E   E  E  E     S  S  E  S  S  E  S  S  S  S  S  S  E   
-------------------------------|-----------------------------------------|
-----------------10S--6--9-----|-----------------------------------------|
-------------------------------|-----------------------------------------|
------------------7S--3--6--0--|-----------------------------------------|
--0--0--0--0--0-------------0--|--0--0-----0--0-----0--0--0--0--0--0--0--|
--0--0--0--0--0----------------|--0--0-----0--0-----0--0--0--0--0--0--0--|


     PM PM PM PM PM PM PM PM PM    PM PM PM PM PM PM PM PM            PM PM  
  E  E  S  S  S  S  E  E  E  E     S  S  S  S  S  S  S  S   E   E  E  S  S   
--------------------------------|-------------------------------------------|
--------------------------------|--------------------------10S--6--9--------|
--------------------------------|-------------------------------------------|
--------------------------------|---------------------------7S--3--6--------|
-----0--0--0--0--0--0--0--0--6--|--0--0--0--0--0--0--0--0-------------0--0--|
-----0--0--0--0--0--0--0--0--6--|--0--0--0--0--0--0--0--0-------------0--0--|


  PM PM PM PM PM                  PM PM PM PM PM PM PM PM            PM PM  
  E  S  S  E  E   E   E  E  E     S  S  S  S  S  S  S  S   E   E  E  S  S   
-------------------------------|-------------------------------------------|
-----------------10S--6--9-----|--------------------------10S--6--9--------|
-------------------------------|-------------------------------------------|
------------------7S--3--6--0--|---------------------------7S--3--6--------|
--0--0--0--0--0-------------0--|--0--0--0--0--0--0--0--0-------------0--0--|
--0--0--0--0--0----------------|--0--0--0--0--0--0--0--0-------------0--0--|


  PM PM PM PM PM PM  PM PM PM    PM PM PM PM PM PM PM PM            PM PM  
  E  S  S  E  E  E   E  E  E     S  S  S  S  S  S  S  S   E   E  E  S  S   
------------------------------|-------------------------------------------|
------------------------------|--------------------------10S--6--9--------|
------------------------------|-------------------------------------------|
------------------------------|---------------------------7S--3--6--------|
--0--0--0--0--0--5h--6--0--6--|--0--0--0--0--0--0--0--0-------------0--0--|
--0--0--0--0--0--5h--6--0--6--|--0--0--0--0--0--0--0--0-------------0--0--|


  PM PM PM PM PM                  PM PM PM PM PM    PM PM PM PM  
  E  S  S  E  E   E   E  E  E     S  S  S  S  E  E  E  E  E  E   
-------------------------------|--------------------------------|
-----------------10S--6--9-----|--------------------------------|
-------------------------------|--------------------------------|
------------------7S--3--6--0--|--------------------------------|
--0--0--0--0--0-------------0--|--0--0--0--0--0-----0--0--0--0--|
--0--0--0--0--0----------------|--0--0--0--0--0-----0--0--0--0--|


                                    Breakdown                             
     PM PM PM PM PM PM  PM PM PM    PM        PM PM                PM PM  
  E  E  S  S  S  S  E   E  E  E     S         S  E  E  E  E  E  E  S  S   
---------------------------------|---------------------------------------|
---------------------------------|---------------------------------------|
---------------------------------|---------------------------------------|
---------------------------------|---------------------------------------|
-----0--0--0--0--0--5h--6--0--6--|--0---------0--0--L--L--L--L--L--0--0--|
-----0--0--0--0--0--5h--6--0--6--|--0---------0--0--L--L--L--L--L--0--0--|


  PM PM PM PM                   PM PM PM                PM PM  
  E  S  S  E  E  E  E  E  E     S  S  E  E  E  E  E  E  S  S   
-----------------------------|--------------------------------|
-----------------------------|--------------------------------|
-----------------------------|--------------------------------|
-----------------------------|--------------------------------|
--0--0--0--0--L--L--L--L--L--|--0--0--0--L--L--L--L--L--0--0--|
--0--0--0--0--L--L--L--L--L--|--0--0--0--L--L--L--L--L--0--0--|


  PM PM PM PM                    PM PM PM                PM PM  
  E  S  S  E  E  E  E   E  E     S  S  E  E  E  E  E  E  S  S   
------------------------------|--------------------------------|
------------------------------|--------------------------------|
------------------------------|--------------------------------|
------------------------------|--------------------------------|
--0--0--0--0--L--5---------8--|--0--0--0--L--L--L--L--L--0--0--|
--0--0--0--0--L-----5h--6-----|--0--0--0--L--L--L--L--L--0--0--|


  PM PM PM PM                   PM PM PM                PM PM  
  E  S  S  E  E  E  E  E  E     S  S  E  E  E  E  E  E  S  S   
-----------------------------|--------------------------------|
-----------------------------|--------------------------------|
-----------------------------|--------------------------------|
-----------------------------|--------------------------------|
--0--0--0--0--L--L--L--L--L--|--0--0--0--L--L--L--L--L--0--0--|
--0--0--0--0--L--L--L--L--L--|--0--0--0--L--L--L--L--L--0--0--|


  PM PM PM PM                    PM PM PM             PM PM PM  
  E  S  S  E  E  E  E   E  E     S  S  E  Q     E  E  E  S  S   
------------------------------|--------------------------------|
------------------------------|--------------------------------|
------------------------------|--------------------------------|
------------------------------|-----------6\----0--3-----------|
--0--0--0--0--L--5---------8--|--0--0--0--------------0--0--0--|
--0--0--0--0--L-----5h--6-----|--0--0--0--------------0--0--0--|


     PM PM PM    PM PM          PM PM PM                PM PM  
  E  S  S  E  E  E  E  E  E     S  S  E  E  E  E  E  E  S  S   
-----------------------------|--------------------------------|
-----------------------------|--------------------------------|
-----------------------------|--------------------------------|
--0-----------0--------0--3--|-----------0--0--0--------------|
-----0--0--0-----0--0--------|--0--0--0-----------1--0--0--0--|
-----0--0--0-----0--0--------|--0--0--0-----------------0--0--|


  PM PM PM PM PM                 PM PM PM             PM PM PM  
  E  S  S  E  E  E  E   E  E     S  S  E  Q     E  E  E  S  S   
------------------------------|--------------------------------|
------------------------------|--------------------------------|
------------------------------|--------------------------------|
------------------------------|-----------6\----0--3-----------|
--0--0--0--0--0--5---------8--|--0--0--0--------------0--0--0--|
--0--0--0--0--0-----5h--6-----|--0--0--0--------------0--0--0--|


     PM PM PM    PM PM          PM PM PM                PM PM  
  E  S  S  E  E  E  E  E  E     S  S  E  E  E  E  E  E  S  S   
-----------------------------|--------------------------------|
-----------------------------|--------------------------------|
-----------------------------|--------------------------------|
--0-----------0--------0--3--|-----------0--0--0--------------|
-----0--0--0-----0--0--------|--0--0--0-----------1--0--0--0--|
-----0--0--0-----0--0--------|--0--0--0-----------------0--0--|


                                  Re-Entry                                     
  PM PM PM PM PM                          PM PM PM PM         PM PM     PM PM  
  E  S  S  E  E  E  E   E  E      E       S  S  S  S   E   E  S  S   E  S  S   
------------------------------|-----------------------------------------------|
------------------------------|--10-------------------10--10--------10--------|
------------------------------|---x--------------------x---x---------x--------|
------------------------------|---6--------------------6---6---------6--------|
--0--0--0--0--0--5------------|-----------------------------------------------|
--0--0--0--0--0-----5h--6-----|-----------0--0--0--0----------0--0------0--0--|


  PM PM     PM PM PM PM     PM PM     PM  
  S  S   E  S  S  S  S   E  S  S   E  E   
-----------------------------------------|
--------10--------------10--------10-----|
---------x---------------x---------x-----|
---------6---------------6---------6-----|
-----------------------------------------|
--0--0------0--0--0--0------0--0------0--|


      PM PM PM PM         PM PM     PM PM  
   E  S  S  S  S   E   E  S  S   E  S  S   
------------------------------------------|
--10--------------10--10--------10--------|
---x---------------x---x---------x--------|
---6---------------6---6---------6--------|
------------------------------------------|
------0--0--0--0----------0--0------0--0--|


  PM PM     PM PM PM PM     PM PM     PM  
  S  S   E  S  S  S  S   E  S  S   E  E   
-----------------------------------------|
--------10--------------10--------10-----|
---------x---------------x---------x-----|
---------6---------------6---------6-----|
-----------------------------------------|
--0--0------0--0--0--0------0--0------0--|


      PM PM PM PM         PM PM     PM PM  
   E  S  S  S  S   E   E  S  S   E  S  S   
------------------------------------------|
--10--------------10--10--------10--------|
---x---------------x---x---------x--------|
---6---------------6---6---------6--------|
------------------------------------------|
------0--0--0--0----------0--0------0--0--|


  PM PM     PM PM PM PM     PM PM          
  S  S   E  S  S  S  S   E  S  S   E   E   
------------------------------------------|
--------10--------------10--------10--10--|
---------x---------------x---------x---x--|
---------6---------------6---------6---6--|
------------------------------------------|
--0--0------0--0--0--0------0--0----------|


      PM PM PM PM         PM PM     PM PM  
   E  S  S  S  S   E   E  S  S   E  S  S   
------------------------------------------|
--10--------------10--10--------10--------|
---x---------------x---x---------x--------|
---6---------------6---6---------6--------|
------------------------------------------|
------0--0--0--0----------0--0------0--0--|


                                             Pre-Chorus        
  PM PM     PM PM PM PM     PM PM                              
  S  S   E  S  S  S  S   E  S  S   E   E     W                 
------------------------------------------|-------------------|
--------10--------------10--------10--10--|-------------------|
---------x---------------x---------x---x--|-------------------|
---------6---------------6---------6---6--|-------------------|
------------------------------------------|-------------------|
--0--0------0--0--0--0------0--0----------|-------------------|


  W                   W                   W                   W                 
-------------------|-------------------|-------------------|-------------------|
-------------------|-------------------|-------------------|-------------------|
-------------------|-------------------|-------------------|-------------------|
-------------------|-------------------|-------------------|-------------------|
-------------------|-------------------|-------------------|-------------------|
-------------------|-------------------|-------------------|-------------------|


  W                   W                   W                 
-------------------|-------------------|-------------------|
-------------------|-------------------|-------------------|
-------------------|-------------------|-------------------|
-------------------|-------------------|-------------------|
-------------------|-------------------|-------------------|
----
comments
We did not receive enough feedback on this tab! Please rate:
1 2 3 4 5
4 comments total. Showing first comments.
0 reply
JakIsDead wrote on August 5 2008, 07:31 am

a pleasure to be of service =]

0 reply
Alpha_Wolf wrote on August 5 2008, 10:30 pm

Hey man, would you mind if I put this in powertab format?

-1 reply
verbity wrote on May 17 2009, 08:42 pm

Pretty good....but on this album I thought they played in D the whole time....Adam for EXP studios, handles their practice studios and said they switched over to straight D tuning....

I want to post or [tab]
guest
You may want to rate the tab now too:
select rating
Please do not post tabs as comments. Select "correction" instead!