Oops, an error
Loading. Please wait.

Everything Tab

149 views 3 this week
no commentswrite comment
1 2 3 4 5
please rate
Autoscroll
+/-
esc
set tempo
stop
Contributor
Difficulty
Tuning
intermediate
C# G# C# F# A# D#
WARNING: You are trying to view
                                    content from Ultimate-Guitar.com
                                    in an unauthorized application,
                                    which is prohibited.

                                    Please use an official Ultimate
                                    Guitar Tabs application for iPhone,
                                    iPad or Android to access legitimate
                                    chords, guitar, bass, and drum tabs
                                    from Ultimate-Guitar.com database.

                                    Type "ultimate guitar tabs" in Apple
                                    App Store's or Android Market's
                                    search to find the application.
Here is the as the sun sets myspace to prove they are a band: www.myspace.com/asthesunsetsgrind

AS THE SUN SETS - EVERYTHING

     eb|---------------------|
     Bb|---------------------|
 GTR Gb|-6666-----------7777-|
  1  Db|------6666-5555------| 
     Ab|---------------------|
     Db|---------------------|

     eb|----------------------------------|
     Bb|----------------------------------|
 GTR Gb|-------6------6666----------------|
  1  Db|-------5-----------6666-5555------| x2
     Ab|-0-0-0-4---------------------6666-|
     Db|-0-0-0-5--------------------------|

     eb|----------------------------------|
     Bb|----------------------------------|
 GTR Gb|-------6--------------------------|
  2  Db|-------5--------------------------| x2
     Ab|-0-0-0-4--------------------------|
     Db|-0-0-0-5--------------------------|

     eb|----------------------------------|
     Bb|----------------------------------|
 GTR Gb|-------11-----6666------7777------|
  1  Db|-------10----------6666------7777-| x2
     Ab|-0-0-0-9--------------------------|
     Db|-0-0-0-10-------------------------|

     eb|----------------------------------|
     Bb|-------10-------------------------|
 GTR Gb|-------11-------------------------|
  2  Db|-------10-------------------------| x2
     Ab|-0-0-0-9--------------------------|
     Db|-0-0-0-10-------------------------|

     eb|----------------------------------|
     Bb|----------------------------------|
 GTR Gb|-------6------6666----------------|
  1  Db|-------5-----------6666-5555------| x2
     Ab|-0-0-0-4---------------------6666-|
     Db|-0-0-0-5--------------------------|

     eb|----------------------------------|
     Bb|----------------------------------|
 GTR Gb|-------6--------------------------|
  2  Db|-------5--------------------------| x2
     Ab|-0-0-0-4------4444----------------|
     Db|-0-0-0-5-----------6666-5555-1111-|

     eb|----------------------------------|
     Bb|-------10-------------------------|
 GTR Gb|-------11-----6666------7777------|
  1  Db|-------10----------6666------7777-| x2
     Ab|-0-0-0-9--------------------------|
     Db|-0-0-0-10-------------------------|

     eb|----------------------------------|
     Bb|-------10-------------------------|
 GTR Gb|-------11-------------------------|
  2  Db|-------10-------------------------| 
     Ab|-0-0-0-9------4444------5555------|
     Db|-0-0-0-10----------6666------7777-|


     eb|----------------------------------|
     Bb|----------------------------------|
 GTR Gb|-------6------6666----------------|
  1  Db|-------5-----------6666-5555------| 
     Ab|-0-0-0-4---------------------6666-|
     Db|-0-0-0-5--------------------------|

     eb|----------------------------------|
     Bb|----------------------------------|
 GTR Gb|-------6--------------------------|
  2  Db|-------5--------------------------| 
     Ab|-0-0-0-4------4444----------------|
     Db|-0-0-0-5-----------6666-5555-1111-|

     eb|--------------------------|
     Bb|---1-1---1-1--------------|
 GTR Gb|-4-----4------------------|
  1  Db|--------------------------| x2
     Ab|-------------3-11-3-4-1-2-|
     Db|-------------3-11-3-4-1-2-|
                     PMPM P M P M

     eb|--------------------------|
     Bb|--------------------------|
 GTR Gb|--------------------------|
  2  Db|--------------------------| x2
     Ab|-------------3-11-3-4-1-2-|
     Db|-------------3-11-3-4-1-2-|
                     PMPM P M P M

     eb|---------1----------------|
     Bb|---1-1-----1--------------|
 GTR Gb|-4-----4------------------|
  1  Db|--------------------------| 
     Ab|-------------3-11-3-4-1-2-|
     Db|-------------3-11-3-4-1-2-|
                     PMPM P M P M

     eb|--------------------------|
     Bb|--------------------------|
 GTR Gb|--------------------------|
  2  Db|--------------------------| 
     Ab|-------------3-11-3-4-1-2-|
     Db|-------------3-11-3-4-1-2-|
                     PMPM P M P M


     eb|----------------------------|
     Bb|- bass ---------------------|
 GTR Gb|----------------------------|
  1  Db|----------------------------| 
     Ab|-------------3-11-3-4-1-2-3-|
     Db|-------------3-11-3-4-1-2-3-|
                     PMPM P M P M

     eb|----------------------------|
     Bb|- bass ---------------------|
 GTR Gb|----------------------------|
  2  Db|----------------------------| 
     Ab|-------------3-11-3-4-1-2-3-|
     Db|-------------3-11-3-4-1-2-3-|
                     PMPM P M PMP M

     eb|--------------|
     Bb|--------------|
 GTR Gb|--------------|
 1+2 Db|--------------| x8 
     Ab|-3-11-3-4-1-2-|
     Db|-3-11-3-4-1-2-|
         PMPM P M P M

     eb|---------------------------------------------|
     Bb|---------------------77777777-6666-5555------|
 GTR Gb|-000000000------4444--------------------5555-|
  1  Db|-----------3333------------------------------|
     Ab|---------------------------------------------|
     Db|---------------------------------------------|

     eb|---------------------------------------------|
     Bb|---------------------------------------------|
 GTR Gb|---------------------------------------------|
  2  Db|------------------------------3333-2222------|
     Ab|----------------------------------------3333-|
     Db|---------------------------------------------|

     eb|---------------------------------------------|
     Bb|---------------------77777777-6666-5555------|
 GTR Gb|-000000000------4444--------------------5555-|
  1  Db|-----------3333------------------------------|
     Ab|---------------------------------------------|
     Db|---------------------------------------------|

     eb|---------------------------------------------|
     Bb|---------------------------------------------|
 GTR Gb|---------------------------------------------|
  2  Db|-5-------------------------------------------|
     Ab|-5-(let ring)--------------------------------|
     Db|-5-------------------------------------------|

     eb|---------------------------------------------|
     Bb|---------------------77777777-6666-5555------|
 GTR Gb|-000000000------4444--------------------5555-|
  1  Db|-----------3333------------------------------| x2
     Ab|---------------------------------------------|
     Db|---------------------------------------------|

     eb|---------------------------------------------|
     Bb|---------------------------------------------|
 GTR Gb|----------------4444----------5555-4444------|
  2  Db|-555555555-3333------44444444-----------5555-| x2
     Ab|---------------------------------------------|
     Db|---------------------------------------------|

     eb|---------------------------------------------|
     Bb|---------------------77777777-6666-5555------|
 GTR Gb|-000000000------4444--------------------5555-|
  1  Db|-----------3333------------------------------| 
     Ab|---------------------------------------------|
     Db|---------------------------------------------|

     eb|---------------------------------------------|
     Bb|---------------------77777777----------------|
 GTR Gb|-44447474-4p3p1-7777----------6666-5555------|
  2  Db|----------------------------------------6666-|
     Ab|---------------------------------------------|
     Db|---------------------------------------------|

     eb|---------------------------------------------|
     Bb|---------------------77777777-6----5---------|
 GTR Gb|-000000000------4444--------------------5----|
  1  Db|-----------3333------------------------------| 
     Ab|---------------------------------------------|
     Db|---------------------------------------------|

     eb|---------------------------------------------|
     Bb|---------------------77777777----------------|
 GTR Gb|-44447474-4p3p1-7777----------6----5---------|
 2   Db|----------------------------------------6----|
     Ab|---------------------------------------------|
     Db|---------------------------------------------|

     eb|---------------------------|
     Bb|---------------------------|
 GTR Gb|---------------------------|
 1+2 Db|-3---2---8-7-8-9-8-7-7h8p7-| x8
     Ab|-3---2---------------------|
     Db|-3---2---------------------|

     eb|---------------------------|
     Bb|---------------------------|
 GTR Gb|---------8-7-8-9-8-7-7h8p7-|
  2  Db|-3---2---------------------| x8
     Ab|-3---2---------------------|
     Db|-3---2---------------------|

     eb|---------------------------|
     Bb|---------------------------|
 GTR Gb|---------------------------|
 1+2 Db|-1-------------------------|
     Ab|-1-(ring out)--------------|
     Db|-1-------------------------|
         PM

     eb|-----------------------------------------------------------------|
     Bb|-----------------------------------------------------------------|
 GTR Gb|-----4-5-4-----------3-4-3-----------4-5-4-----------4-5-4-------|
 1+2 Db|---3-------3---3---2-------2---2---3-------3---3---3-------3---3-|
     Ab|-2-----------2---1-----------1---2-----------2---------------2---|
     Db|-------------------------------------------------2---------------|

     eb|-----------------------------------------------------------------|
     Bb|-----------------------------------------------------------------|
 GTR Gb|-----4-5-4-----------5-6-5-----------3-4-3-----------4-5-4-------|
  1  Db|---3-------3---3---4-------4---4---2-------2---2---3-------3---3-|
     Ab|-2-----------2---3-----------3---1-----------1---2-----------2---|
     Db|-----------------------------------------------------------------|

     eb|-----0-1-0----------0-1-0---------1-0-1---0-1-0---1-0-1---0-1-0--|
     Bb|----------------------------------------0---------------0--------|
 GTR Gb|---4-------4---4--4-------4---4----------------------------------|
  2  Db|-3-----------3---3----------3---2---------------2----------------|
     Ab|-----------------------------------------------------------------|
     Db|-----------------------------------------------------------------|

     eb|-----0-1-0----------0-1-0---------1-0-1---0-1-0---1-0-1---0-1-0--|
     Bb|----------------------------------------0---------------0--------|
 GTR Gb|---4-------4---4--4-------4---4----------------------------------|
  2  Db|-3-----------3---3----------3---2---------------2----------------|
     Ab|-----------------------------------------------------------------|
     Db|-----------------------------------------------------------------|

     eb|----------------------------- x4 --------------------------------|
     Bb|-----------------------------------------------------------------|
 GTR Gb|-----------------------------------------------------------------|
  1  Db|-2------------------------------1---------------5-------4--------| 
     Ab|-2------------------------------1---------------5-------4--------|
     Db|-2------------------------------1---------------5-------4--------|

     eb|-----0-1-0----------0-1-0---------1-0-1---0-1-0---1-0-1---0-1-0--|
     Bb|----------------------------------------0---------------0--------|
 GTR Gb|---4-------4---4--4-------4---4----------------------------------|
  2  Db|-3-----------3---3----------3---2---------------2----------------| 
     Ab|-----------------------------------------------------------------|
     Db|----------------------------- x4 --------------------------------|

     eb|---------------------------------------------|
     Bb|---------------------------------------------|
 GTR Gb|----------44444444---------3---------4-----4-|
  1  Db|-33333333------------------------------------| x5
     Ab|-------------------1-1-1-1---1-1-1-1---1-1---|
     Db|-------------------1-1-1-1---1-1-1-1---1-1---|
                           P M P M   P M P M   P M

     eb|---------------------------------------------|
     Bb|---------------------------------------------|
 GTR Gb|---------------------------3---------4-----4-|
  2  Db|---------------------------------------------| x5
     Ab|-------------------1-1-1-1---1-1-1-1---1-1---|
     Db|-------------------1-1-1-1---1-1-1-1---1-1---|
                           P M P M   P M P M   P M

     eb|---------------------------|
     Bb|---------------------------|
 GTR Gb|---------------------------|
 1+2 Db|-3---2---8-7-8-9-8-7-7h8p7-| x8
     Ab|-3---2---------------------|
     Db|-3---2---------------------|

     eb|---------------------------|
     Bb|---------------------------|
 GTR Gb|---------8-7-8-9-8-7-7h8p7-|
  2  Db|-3---2---------------------| x8
     Ab|-3---2---------------------|
     Db|-3---2---------------------|

     eb|--------------------------1------------------|
     Bb|--------------------------1------------------|
 GTR Gb|--------------------------4----5-5-5-5-5-5-5-|
 1+2 Db|--------------------------3----3-3-3-3-3-3-3-| x5
     Ab|-1-1-1-1-1-1-1-1-11111111-1----1-1-1-1-1-1-1-|
     Db|-1-1-1-1-1-1-1-1-11111111-1----1-1-1-1-1-1-1-|
         P M P M P M P M PMPMPMPM      P M P M P MPM

     eb|--------------------------1------------------|
     Bb|--------------------------1------------------|
 GTR Gb|--------------------------4----5-5-5-5-5-5-5-|
  1  Db|--------------------------3----3-3-3-3-3-3-3-| 
     Ab|-1-1-1-1-1-1-1-1-11111111-1----1-1-1-1-1-1-1-|
     Db|-1-1-1-1-1-1-1-1-11111111-1----1-1-1-1-1-1-1-|
         P M P M P M P M PMPMPMPM      P M P M P MPM

     eb|--------------------------1------------------|
     Bb|--------------------------1------------------|
 GTR Gb|--------------------------4---------9----8---|
  2  Db|--------------------------3----8-------------| 
     Ab|-1-1-1-1-1-1-1-1-11111111-1------------------|
     Db|-1-1-1-1-1-1-1-1-11111111-1------------------|
         P M P M P M P M PMPMPMPM      

     eb|-----------------------------|
     Bb|-----------------------------|
 GTR Gb|-----------------------------|
 1+2 Db|-----------------------------| x8
     Ab|-1-1--1-1--1-1--1-1--1111--1-|
     Db|-1-1--1-1--1-1--1-1--1111--1-|

END email any corrections / suggestions to thisisourstruggle@hotmail.co.uk
comments
We did not receive enough feedback on this tab! Please rate:
1 2 3 4 5
I want to post or [tab]
guest
You may want to rate the tab now too:
select rating
Please do not post tabs as comments. Select "correction" instead!