Oops, an error
Loading. Please wait.

13Th Floor Tab

by Ash
311 views 1 this week
no commentswrite comment
1 2 3 4 5
please rate
Autoscroll
+/-
esc
set tempo
stop
Contributor
Hey! There's an official Ultimate Guitar app which is ideal
for learning songs when you're away from computer. Get the app
WARNING: You are trying to view
                                    content from Ultimate-Guitar.com
                                    in an unauthorized application,
                                    which is prohibited.

                                    Please use an official Ultimate
                                    Guitar Tabs application for iPhone,
                                    iPad or Android to access legitimate
                                    chords, guitar, bass, and drum tabs
                                    from Ultimate-Guitar.com database.

                                    Type "ultimate guitar tabs" in Apple
                                    App Store's or Android Market's
                                    search to find the application.
Song:	13th Floor
Band:	Ash
Tabber:	Ruairi Coleman

This is a fun song to play its pretty easy as well mostly power chords. 
Please rate it :) Enjoy

 Legends
 () = Let Ring
  / = Slide
 PM = Plam Mute
  ^ = Bend 1/2 Tone
 5x = Strike and stop from ringing

 Intro/Verus 1	(0.00)
 e|-----------------------------------------------------|
 B|-----------------------------------------------------|
 G|---(9)--(7)--------------(9)--(7)--------------------|
 D|---(9)--(7)--8-/-7--5----(9)--(7)--8-/-7--5----------|
 A|---(7)--(5)--8-/-7--5----(7)--(5)--8-/-7--5----------|
 E|-------------6-/-5--3--------------6-/-5--3----------|
	Play X2

 Verus 2	(0.11)
 e|-----------------------------------------------------|
 B|-------------9----------------------9----------------|
 G|-------7/9-9-9---3------------7/9-9-9--3-------------|Play X3
 D|---2---7/9-9-9---3---7--5-2---7/9-9-9--3---7--5-2----|Then Lyrics
 A|---2---5/7-7-7---1---7--5-2---5/7-7-7--1---7--5-2----|come in play X4
 E|---0-----------------5--3-0----------------5--3-0----|
      It's your unlucky number  But you're here to stay
 Black cloud that you're under  Everything outta faze
      Can you feel inhibitions  Things getting strange
    Sudden surface convulsions  Staying up for days

 Chorus 1		(0.49)
 e|----------------------------------------------------------|
 B|----------------------------------------------------------|
 G|----------------------------------------------------------|
 D|---9-9-9-9-9-9-9-9-9-9-9-9----7-7-7-7-7-7-7-7-7-7-7-7-7---|
 A|---9-9-9-9-9-9-9-9-9-9-9-9----7-7-7-7-7-7-7-7-7-7-7-7-7---|
 E|---7-7-7-7-7-7-7-7-7-7-7-7----5-5-5-5-5-5-5-5-5-5-5-5-5---|
   When the 13th floor shakes    Your mind disintergrates

 e|-----------------------------------------------------|
 B|-----------------------------------------------------|
 G|-----------------------------------------------------|
 D|---5-5-5-5-5-5-5-5-5----9-9-9-9-9-9-9-9-9-9-9-9------|
 A|---5-5-5-5-5-5-5-5-5----9-9-9-9-9-9-9-9-9-9-9-9------|
 E|---3-3-3-3-3-3-3-3-3----7-7-7-7-7-7-7-7-7-7-7-7------|
    Young heart thrilled   And rotton to the core
 e|----------------------------------------------------------|
 B|----------------------------------------------------------|
 G|----------------------------------------------------------|
 D|---9-9-9-9-9-9-9-9-9-9-9-9----7-7-7-7-7-7-7-7-7-7-7-7-7---|
 A|---9-9-9-9-9-9-9-9-9-9-9-9----7-7-7-7-7-7-7-7-7-7-7-7-7---|
 E|---7-7-7-7-7-7-7-7-7-7-7-7----5-5-5-5-5-5-5-5-5-5-5-5-5---|
        Need another fix         Of psychadelic kicks


 e|-----------------------------------|
 B|-----------------------------------|
 G|-----------------------------------|
 D|---2x------------------------------|
 A|---2x------------------------------|
 E|---0x------------------------------|
     Staying up here on the 13th floor

 Verus 2	(1.01)
 e|-------------------------------------------------------|
 B|-------------9----------------------9------------------|
 G|-------7/9-9-9---3------------7/9-9-9--3---------------|Play X2
 D|---2---7/9-9-9---3---7--5-2---7/9-9-9--3---7--5-2------|Then Lyrics
 A|---2---5/7-7-7---1---7--5-2---5/7-7-7--1---7--5-2------|come in play X4
 E|---0-----------------5--3-0----------------5--3-0------|
  You know you'll never fit in  Don't even try to begin
         Up here you check out  As soon as you check in
   You know it's like a poison  It'll get u pinned
           The 13th floor baby  Gets under your skin

 Chorus		(1.28)
 e|----------------------------------------------------------|
 B|----------------------------------------------------------|
 G|----------------------------------------------------------|
 D|---9-9-9-9-9-9-9-9-9-9-9-9----7-7-7-7-7-7-7-7-7-7-7-7-7---|
 A|---9-9-9-9-9-9-9-9-9-9-9-9----7-7-7-7-7-7-7-7-7-7-7-7-7---|
 E|---7-7-7-7-7-7-7-7-7-7-7-7----5-5-5-5-5-5-5-5-5-5-5-5-5---|
   When the 13th floor shakes    Your mind disintergrates

 e|-----------------------------------------------------|
 B|-----------------------------------------------------|
 G|-----------------------------------------------------|
 D|---5-5-5-5-5-5-5-5-5----9-9-9-9-9-9-9-9-9-9-9-9------|
 A|---5-5-5-5-5-5-5-5-5----9-9-9-9-9-9-9-9-9-9-9-9------|
 E|---3-3-3-3-3-3-3-3-3----7-7-7-7-7-7-7-7-7-7-7-7------|
    Young heart thrilled   And rotton to the core
 e|----------------------------------------------------------|
 B|----------------------------------------------------------|
 G|----------------------------------------------------------|
 D|---9-9-9-9-9-9-9-9-9-9-9-9----7-7-7-7-7-7-7-7-7-7-7-7-7---|
 A|---9-9-9-9-9-9-9-9-9-9-9-9----7-7-7-7-7-7-7-7-7-7-7-7-7---|
 E|---7-7-7-7-7-7-7-7-7-7-7-7----5-5-5-5-5-5-5-5-5-5-5-5-5---|
        Need another fix         Of psychadelic kicks


 e|-----------------------------------|
 B|-----------------------------------|
 G|-----------------------------------|
 D|---2x------------------------------|
 A|---2x------------------------------|
 E|---0x------------------------------|
     Staying up here on the 13th floor

 Verus 1	(1.39)
 e|-----------------------------------------------------|
 B|-----------------------------------------------------|
 G|---(9)--(7)--------------(9)--(7)--------------------|
 D|---(9)--(7)--8-/-7--5----(9)--(7)--8-/-7--5----------|
 A|---(7)--(5)--8-/-7--5----(7)--(5)--8-/-7--5----------|
 E|-------------6-/-5--3--------------6-/-5--3----------|
  Play X2
     Tim Roars

		(1.50)
 e|------------------------------------|
 B|------------------------------------|
 G|------------------------------------|
 D|--(2)--------------8---7--5-(2)-----|
 A|--(2)--------------8---7--5-(2)-----|
 E|--(0)--------------6---5--3-(0)-----|
  Play X3

Bridge 		(2.01)
  PM|--------------------------------------------|
 e|--------------------------------------------------------------|
 B|--------------------------------------------------------------|
 G|--------------------------------------------------------------|
 D|--2-2-2-2-2-2-2-2-2-2-2-2-2-2-2-2-2-2-2-2-2-2-2--8---7--5-2---|
 A|--2-2-2-2-2-2-2-2-2-2-2-2-2-2-2-2-2-2-2-2-2-2-2--8---7--5-2---|
 E|--0-0-0-0-0-0-0-0-0-0-0-0-0-0-0-0-0-0-0-0-0-0-0--6---5--3-0---|Play X3
     1, 2, 3, 4, 5, 6, 7, 8, 9, 10, 11, 12, 13th floor
     1, 2, 3, 4, 5, 6, 7, 8, 9, 10, 11, 12, 13th floor
     1, 2, 3, 4, 5, 6, 7, 8, 9, 10, 11, 12, 13th floor

 e|--------------------------------------------------------------|
 B|--------------------------------------------------------------|
 G|--------------------------------------------------------------|
 D|--2-2-2-2-2-2-2-2-2-2-2-2-2-2-2-2-2-2-2-2-2-2-2---------------|
 A|--2-2-2-2-2-2-2-2-2-2-2-2-2-2-2-2-2-2-2-2-2-2-2---------------|
 E|--0-0-0-0-0-0-0-0-0-0-0-0-0-0-0-0-0-0-0-0-0-0-0--6^-----------|Play X1
     1, 2, 3, 4, 5, 6, 7, 8, 9, 10, 11, 12, 13th floor  

 Chorus		(1.28)
 e|----------------------------------------------------------|
 B|----------------------------------------------------------|
 G|----------------------------------------------------------|
 D|---9-9-9-9-9-9-9-9-9-9-9-9----7-7-7-7-7-7-7-7-7-7-7-7-7---|
 A|---9-9-9-9-9-9-9-9-9-9-9-9----7-7-7-7-7-7-7-7-7-7-7-7-7---|
 E|---7-7-7-7-7-7-7-7-7-7-7-7----5-5-5-5-5-5-5-5-5-5-5-5-5---|
   When the 13th floor shakes    Your mind disintergrates

 e|-----------------------------------------------------|
 B|-----------------------------------------------------|
 G|-----------------------------------------------------|
 D|---5-5-5-5-5-5-5-5-5----9-9-9-9-9-9-9-9-9-9-9-9------|
 A|---5-5-5-5-5-5-5-5-5----9-9-9-9-9-9-9-9-9-9-9-9------|
 E|---3-3-3-3-3-3-3-3-3----7-7-7-7-7-7-7-7-7-7-7-7------|
    Young heart thrilled   And rotton to the core

 e|----------------------------------------------------------|
 B|----------------------------------------------------------|
 G|----------------------------------------------------------|
 D|---9-9-9-9-9-9-9-9-9-9-9-9----7-7-7-7-7-7-7-7-7-7-7-7-7---|
 A|---9-9-9-9-9-9-9-9-9-9-9-9----7-7-7-7-7-7-7-7-7-7-7-7-7---|
 E|---7-7-7-7-7-7-7-7-7-7-7-7----5-5-5-5-5-5-5-5-5-5-5-5-5---|
        Need another fix         Of psychadelic kicks

 e|-----------------------------------------------------|
 B|-----------------------------------------------------|
 G|-----------------------------------------------------|
 D|---5-5-5-5-5-5-5-5-5----9-9-9-9-9-9-9-9-9-9-9-9------|
 A|---5-5-5-5-5-5-5-5-5----9-9-9-9-9-9-9-9-9-9-9-9------|
 E|---3-3-3-3-3-3-3-3-3----7-7-7-7-7-7-7-7-7-7-7-7------|
        Take this trip,     You'll never get bored

 e|----------------------------------------------------------|
 B|----------------------------------------------------------|
 G|----------------------------------------------------------|
 D|---9-9-9-9-9-9-9-9-9-9-9-9----7-7-7-7-7-7-7-7-7-7-7-7-7---|
 A|---9-9-9-9-9-9-9-9-9-9-9-9----7-7-7-7-7-7-7-7-7-7-7-7-7---|
 E|---7-7-7-7-7-7-7-7-7-7-7-7----5-5-5-5-5-5-5-5-5-5-5-5-5---|
        Come up to my floor      I'll let you in the door

 e|-----------------------------------------------------|
 B|-----------------------------------------------------|
 G|-----------------------------------------------------|
 D|---5-5-5-5-5-5-5-5-5----9-9-9-9-9-9-9-9-9-9-9-9------|
 A|---5-5-5-5-5-5-5-5-5----9-9-9-9-9-9-9-9-9-9-9-9------|
 E|---3-3-3-3-3-3-3-3-3----7-7-7-7-7-7-7-7-7-7-7-7------|
    You will get to see    What state I'm in at all

 e|----------------------------------------------------------|
 B|----------------------------------------------------------|
 G|----------------------------------------------------------|
 D|---9-9-9-9-9-9-9-9-9-9-9-9----7-7-7-7-7-7-7-7-7-7-7-7-7---|
 A|---9-9-9-9-9-9-9-9-9-9-9-9----7-7-7-7-7-7-7-7-7-7-7-7-7---|
 E|---7-7-7-7-7-7-7-7-7-7-7-7----5-5-5-5-5-5-5-5-5-5-5-5-5---|
      I've been up for weeks     Hanging with the freaks

 e|------------------------------------------------------|
 B|------------------------------------------------------|
 G|------------------------------------------------------|
 D|---2x-------------------------------------------------|
 A|---2x-------------------------------------------------|
 E|---0x-------------------------------------------------|
     Staying up here on the 13th floor

Please comment and improvements or e-mail them to me at dudenrock@hotmail.com

Lycis

Verus 2
It's your unlucky number
but you're here to stay
Black cloud that you're under
everything outta faze
Can you feel inhibitions
things getting strange
Sudden surface convulsions
staying up for days

Chorus 1
When the 13th floor shakes
your mind disintergrates
Young heart thrilled
and rotton to the core
Need another fix
of psychadelic kicks
Staying up here on the 13th floor

Verus 2
You know you'll never fit in
don't even try to begin
Up here you check out
as soon as you check in
You know it's like a poison
it'll get u pinned
The 13th floor baby
gets under your skin

Chorus 1
When the 13th floor shakes
your mind disintergrates
Young heart thrilled
and rotton to the core
Need another fix
of psychadelic kicks
Staying up here on the 13th floor

Bridge
1, 2, 3, 4, 5, 6, 7, 8, 9, 10, 11, 12, 13th floor
1, 2, 3, 4, 5, 6, 7, 8, 9, 10, 11, 12, 13th floor
1, 2, 3, 4, 5, 6, 7, 8, 9, 10, 11, 12, 13th floor
1, 2, 3, 4, 5, 6, 7, 8, 9, 10, 11, 12, 13th floor

Chorus 2
When the 13th floor shakes
your mind disintergrates
Young heart thrilled
with rotton to the core
Need another fix
of psychadelic kicks
Take this trip, you'll never get bored
Come up to my floor
I'll let you in the door
You will get to see
what state I'm in at all
I've been up for weeks
hanging with the freaks
Staying up here on the 13th floor
comments
We did not receive enough feedback on this tab! Please rate:
print report bad tab
1 2 3 4 5
I want to post or [tab]
guest
You may want to rate the tab now too:
select rating
Please do not post tabs as comments. Select "correction" instead!