Oops, an error
Loading. Please wait.

Burn Baby Burn Tab

by Ash
ver3
ver3

Intro

Whole song

More versions @911Tabs.com
4,636 views 6 this week
2 commentsread comments
1 2 3 4 5
excellent!
x 4
Autoscroll
+/-
esc
set tempo
stop
Contributor
Hey! There's an official Ultimate Guitar app which is ideal
for learning songs when you're away from computer. Get the app
WARNING: You are trying to view
                                    content from Ultimate-Guitar.com
                                    in an unauthorized application,
                                    which is prohibited.

                                    Please use an official Ultimate
                                    Guitar Tabs application for iPhone,
                                    iPad or Android to access legitimate
                                    chords, guitar, bass, and drum tabs
                                    from Ultimate-Guitar.com database.

                                    Type "ultimate guitar tabs" in Apple
                                    App Store's or Android Market's
                                    search to find the application.
Ash Burn Baby Burn
From the album: well I got it from the single’s album
Track 1
Tabbed by Liam
Email: guitar_rocker_47@hotmail.com
Tuning Standard
Date: 13/04/05

This is how me and my band play this and it sounds right, so it must be right
This tab is undergoing a new breed of tabs that I invented for this website (well I
haven’t seen one before so..) this tab has a full song tab for rhythm guitar, lead
guitar, bass, drums and lyrics so all your band can play this. It’s called an ultimate
tab (not very inventive I know but eh?) I made this because of all the times when you
and your band wants to play a song and you get a lead guitar tab and a rhythm guitar tab
off this website and they don’t match one guy says play this and the other says no you
play this and it erupts into an argument. So I have solved this - all of this tab
matches so no arguments yeah! Cud you please leave a comment on what you think of th
s new invention, thanks! And please no complaints saying you said it was a guitar t
b but it has bass in it and drums in it they are just stupid complaints.

And also I am tabbing this as you here it, with time pointers okay! – Any confusin
leave a comment

Note: if you insert this tab into Microsoft word and it looks weird where the tab
overlaps it’s self just go on file, page set-up then click on the margins tab and
adjust to this: top = 0.32cm, bottom = 0.51cm,Left and right = 3cm. The tab sho
ld now look in proportion, if it doesn’t or you don’t understand leave a comment

So firstly for lead guitar


-----------
Lead Guitar
-----------
Played by Tim Wheeler 
Effects: Flanger on solo part 1 and vibrato on solo part 2
Notes: people often Tab the two notes that are played on the end of each bar of the
intro as a hammer-on but if you listen carefully it isn’t a hammer-on at all it’s just
two notes being played- as you can see in my tab

Intro (0.07-0.19)
E|-11---11---11---11---11---11---11---11-12-|-11---11---11---11---11---11---11-12-|
B|----12---12---12---12---12---12---12------|----12---12---12---12---12---12------|
G|------------------------------------------|-------------------------------------|
D|------------------------------------------|-------------------------------------|
A|------------------------------------------|-------------------------------------|
E|------------------------------------------|-------------------------------------|

E|-11---11---11---11---11---11---11---11-12-|-11---11---11---11---11---11---11-12-|
B|----12---12---12---12---12---12---12------|----12---12---12---12---12---12------|
G|------------------------------------------|-------------------------------------|
D|------------------------------------------|-------------------------------------|
A|------------------------------------------|-------------------------------------|
E|------------------------------------------|-------------------------------------|

Pre Verse (0.19-0.31)
E|------------------------------------|------------------------------------|
B|------------------------------------|------------------------------------|
G|-4-4-4-4-----------6-6-6-6----------|-4-4-4-4-----------6-6-6-6----------|
D|-4-4-4-4--2-2-2-2--6-6-6-6--4-4-4-4-|-4-4-4-4--2-2-2-2--6-6-6-6--4-4-4-4-|
A|-2-2-2-2--2-2-2-2--4-4-4-4--4-4-4-4-|-2-2-2-2--2-2-2-2--4-4-4-4--4-4-4-4-|
E|----------0-0-0-0-----------2-2-2-2-|----------0-0-0-0-----------2-2-2-2-|

E|------------------------------------|------------------------------------|
B|------------------------------------|------------------------------------|
G|-4-4-4-4-----------6-6-6-6----------|-4-4-4-4-----------6-6-6-6----------|
D|-4-4-4-4--2-2-2-2--6-6-6-6--4-4-4-4-|-4-4-4-4--2-2-2-2--6-6-6-6--4-4-4-4-|
A|-2-2-2-2--2-2-2-2--4-4-4-4--4-4-4-4-|-2-2-2-2--2-2-2-2--4-4-4-4--4-4-4-4-|
E|----------0-0-0-0-----------2-2-2-2-|----------0-0-0-0-----------2-2-2-2-|

Verse (0.32-0.56)
E|------------------------------------|------------------------------------|
B|------------------------------------|------------------------------------|
G|-4-4-4-4-----------6-6-6-6----------|-4-4-4-4-----------6-6-6-6----------|
D|-4-4-4-4--2-2-2-2--6-6-6-6--4-4-4-4-|-4-4-4-4--2-2-2-2--6-6-6-6--4-4-4-4-|
A|-2-2-2-2--2-2-2-2--4-4-4-4--4-4-4-4-|-2-2-2-2--2-2-2-2--4-4-4-4--4-4-4-4-|
E|----------0-0-0-0-----------2-2-2-2-|----------0-0-0-0-----------2-2-2-2-|
PM ***********************************************************************

E|------------------------------------|-----------------------------|
B|------------------------------------|-----------------------------|
G|-4-4-4-4-----------6-6-6-6----------|-9-9-9-9-9-9-9-9-9--11-11-11-|
D|-4-4-4-4--2-2-2-2--6-6-6-6--4-4-4-4-|-9-9-9-9-9-9-9-9-9--11-11-11-|
A|-2-2-2-2--2-2-2-2--4-4-4-4--4-4-4-4-|-7-7-7-7-7-7-7-7-7---9--9--9-|
E|----------0-0-0-0-----------2-2-2-2-|-----------------------------|
PM **********************************

E|---------------------------------------|-------------------------------------|
B|---------------------------------------|-------------------------------------|
G|---------9-9-9-9--6-6-6-6--11-11-11-11-|--------9-9-9-9--6-6-6-6--11-11-11-11|
D|-9-9-9-9-9-9-9-9--6-6-6-6--11-11-11-11-|9-9-9-9-9-9-9-9--6-6-6-6--11-11-11-11|
A|-9-9-9-9-7-7-7-7--4-4-4-4---9--9--9--9-|9-9-9-9-7-7-7-7--4-4-4-4---9--9--9--9|
E|-7-7-7-7-------------------------------|7-7-7-7------------------------------|

E|--------------------------------------------------|
B|--------------------------------------------------|
G|---------9-9-9-9--6-6-6-6--11-11-11-11---9--------|
D|-9-9-9-9-9-9-9-9--6-6-6-6--11-11-11-11---9--------|
A|-9-9-9-9-7-7-7-7--4-4-4-4---9--9--9--9---7--/13\2-|
E|-7-7-7-7------------------------------------------|

Chorus (0.56-1.21)
E|--------------------------------------------------------------------|
B|--------------------------------------------------------------------|
G|------------------4-4-4-4-4-4-4-4-----------------------------------|
D|-4-4-4-4-4-4-4-4--4-4-4-4-4-4-4-4--2-2-2-2-2-2-2-2--7-7-7-7-7-7-7-7-|
A|-4-4-4-4-4-4-4-4--2-2-2-2-2-2-2-2--2-2-2-2-2-2-2-2--7-7-7-7-7-7-7-7-|
E|-2-2-2-2-2-2-2-2-------------------0-0-0-0-0-0-0-0--5-5-5-5-5-5-5-5-|

E|-----------------------------------------------------------------------|
B|-----------------------------------------------------------------------|
G|------------------4-4-4-4-4-4-4-4------------------------------------4-|
D|-4-4-4-4-4-4-4-4--4-4-4-4-4-4-4-4--2-2-2-2-2-2-2-2--7-7-7-7-7-7-7-7--4-|
A|-4-4-4-4-4-4-4-4--2-2-2-2-2-2-2-2--2-2-2-2-2-2-2-2--7-7-7-7-7-7-7-7--2-|
E|-2-2-2-2-2-2-2-2-------------------0-0-0-0-0-0-0-0--5-5-5-5-5-5-5-5----|

E|--------------------------------------------------------------------|
B|--------------------------------------------------------------------|
G|------------------4-4-4-4-4-4-4-4-----------------------------------|
D|-4-4-4-4-4-4-4-4--4-4-4-4-4-4-4-4--2-2-2-2-2-2-2-2--7-7-7-7-7-7-7-7-|
A|-4-4-4-4-4-4-4-4--2-2-2-2-2-2-2-2--2-2-2-2-2-2-2-2--7-7-7-7-7-7-7-7-|
E|-2-2-2-2-2-2-2-2-------------------0-0-0-0-0-0-0-0--5-5-5-5-5-5-5-5-|

E|-----------------------------------------------------------|
B|-----------------------------------------------------------|
G|------------------5-5-5-5-5-5-5-5--11-11-11-11-11-11-11-11-|
D|-4-4-4-4-4-4-4-4--x-x-x-x-x-x-x-x---x--x--x--x--x--x--x--x-|
A|-4-4-4-4-4-4-4-4--3-3-3-3-3-3-3-3---9--9--9--9--9--9--9--9-|
E|-2-2-2-2-2-2-2-2-------------------------------------------|

Midtro (1.21-1.27)
E|-11---11---11---11---11---11---11---11-12-|-11---11---11---11---11---11---11-12-|
B|----12---12---12---12---12---12---12------|----12---12---12---12---12---12------|
G|------------------------------------------|-------------------------------------|
D|------------------------------------------|-------------------------------------|
A|------------------------------------------|-------------------------------------|
E|------------------------------------------|-------------------------------------|

Verse 2 (1.27-1.51)
E|----------------|----------------|----------------|---------------------------|
B|4-----4---------|4-----4---------|4-----4---------|---------------------------|
G|--5-5---6-4-6-4-|--5-5---6-4-6-4-|--5-5---6-4-6-4-|9-9-9-9-9-9-9-9-9--11-11-11|
D|----------------|----------------|----------------|9-9-9-9-9-9-9-9-9--11-11-11|
A|----------------|----------------|----------------|7-7-7-7-7-7-7-7-7---9--9--9|
E|----------------|----------------|----------------|---------------------------|

E|---------------------------------------|-------------------------------------|
B|---------------------------------------|-------------------------------------|
G|---------9-9-9-9--6-6-6-6--11-11-11-11-|--------9-9-9-9--6-6-6-6--11-11-11-11|
D|-9-9-9-9-9-9-9-9--6-6-6-6--11-11-11-11-|9-9-9-9-9-9-9-9--6-6-6-6--11-11-11-11|
A|-9-9-9-9-7-7-7-7--4-4-4-4---9--9--9--9-|9-9-9-9-7-7-7-7--4-4-4-4---9--9--9--9|
E|-7-7-7-7-------------------------------|7-7-7-7------------------------------|

E|--------------------------------------------------|
B|--------------------------------------------------|
G|---------9-9-9-9--6-6-6-6--11-11-11-11---9--------|
D|-9-9-9-9-9-9-9-9--6-6-6-6--11-11-11-11---9--------|
A|-9-9-9-9-7-7-7-7--4-4-4-4---9--9--9--9---7--/13\2-|
E|-7-7-7-7------------------------------------------|

Chorus 2 (1.51-2.14)
E|--------------------------------------------------------------------|
B|--------------------------------------------------------------------|
G|------------------4-4-4-4-4-4-4-4-----------------------------------|
D|-4-4-4-4-4-4-4-4--4-4-4-4-4-4-4-4--2-2-2-2-2-2-2-2--7-7-7-7-7-7-7-7-|
A|-4-4-4-4-4-4-4-4--2-2-2-2-2-2-2-2--2-2-2-2-2-2-2-2--7-7-7-7-7-7-7-7-|
E|-2-2-2-2-2-2-2-2-------------------0-0-0-0-0-0-0-0--5-5-5-5-5-5-5-5-|

E|-----------------------------------------------------------------------|
B|-----------------------------------------------------------------------|
G|------------------4-4-4-4-4-4-4-4------------------------------------4-|
D|-4-4-4-4-4-4-4-4--4-4-4-4-4-4-4-4--2-2-2-2-2-2-2-2--7-7-7-7-7-7-7-7--4-|
A|-4-4-4-4-4-4-4-4--2-2-2-2-2-2-2-2--2-2-2-2-2-2-2-2--7-7-7-7-7-7-7-7--2-|
E|-2-2-2-2-2-2-2-2-------------------0-0-0-0-0-0-0-0--5-5-5-5-5-5-5-5----|

E|--------------------------------------------------------------------|
B|--------------------------------------------------------------------|
G|------------------4-4-4-4-4-4-4-4-----------------------------------|
D|-4-4-4-4-4-4-4-4--4-4-4-4-4-4-4-4--2-2-2-2-2-2-2-2--7-7-7-7-7-7-7-7-|
A|-4-4-4-4-4-4-4-4--2-2-2-2-2-2-2-2--2-2-2-2-2-2-2-2--7-7-7-7-7-7-7-7-|
E|-2-2-2-2-2-2-2-2-------------------0-0-0-0-0-0-0-0--5-5-5-5-5-5-5-5-|

E|----------------------------------|
B|----------------------------------|
G|------------------5-5-5-5-5-5-5-5-|
D|-4-4-4-4-4-4-4-4--x-x-x-x-x-x-x-x-|
A|-4-4-4-4-4-4-4-4--3-3-3-3-3-3-3-3-|
E|-2-2-2-2-2-2-2-2------------------|

Solo part 1 (2.14-2.26)
Effects on
E|------------------------|------------------------|------------------------|
B|-17-16------------------|-17-16------------------|-17-16------------------|
G|-------15-16------------|-------15-16------------|-------15-16------------|
D|-------------16-18-14-16|-------------16-18-14-16|-------------16-18-14-16|
A|------------------------|------------------------|------------------------|
E|------------------------|------------------------|------------------------|

E|-------------11-/-18-18—18-|
B|-------17-16---------------|
G|---------------------------|
D|---------------------------|
A|---------------------------|
E|---------------------------|

Solo part 2 (2.26-2.36)
To get the sound right rock on and off your vibrato pedal)
E|-----------------------------------------|
B|-17--16-------------------17--16---------|
G|--------15--16--------------------15--16-|
D|---------------16--18--14----------------|
A|-----------------------------------------|
E|-----------------------------------------|

Pause for charlotte’s Bridge
And then come in with:

Chorus/outro (2.51-till end)
E|--------------------------------------------------------------------|
B|--------------------------------------------------------------------|
G|------------------4-4-4-4-4-4-4-4-----------------------------------|
D|-4-4-4-4-4-4-4-4--4-4-4-4-4-4-4-4--2-2-2-2-2-2-2-2--7-7-7-7-7-7-7-7-|
A|-4-4-4-4-4-4-4-4--2-2-2-2-2-2-2-2--2-2-2-2-2-2-2-2--7-7-7-7-7-7-7-7-|
E|-2-2-2-2-2-2-2-2-------------------0-0-0-0-0-0-0-0--5-5-5-5-5-5-5-5-|

E|-----------------------------------------------------------------------|
B|-----------------------------------------------------------------------|
G|------------------4-4-4-4-4-4-4-4------------------------------------4-|
D|-4-4-4-4-4-4-4-4--4-4-4-4-4-4-4-4--2-2-2-2-2-2-2-2--7-7-7-7-7-7-7-7--4-|
A|-4-4-4-4-4-4-4-4--2-2-2-2-2-2-2-2--2-2-2-2-2-2-2-2--7-7-7-7-7-7-7-7--2-|
E|-2-2-2-2-2-2-2-2-------------------0-0-0-0-0-0-0-0--5-5-5-5-5-5-5-5----|

E|--------------------------------------------------------------------|
B|--------------------------------------------------------------------|
G|------------------4-4-4-4-4-4-4-4-----------------------------------|
D|-4-4-4-4-4-4-4-4--4-4-4-4-4-4-4-4--2-2-2-2-2-2-2-2--7-7-7-7-7-7-7-7-|
A|-4-4-4-4-4-4-4-4--2-2-2-2-2-2-2-2--2-2-2-2-2-2-2-2--7-7-7-7-7-7-7-7-|
E|-2-2-2-2-2-2-2-2-------------------0-0-0-0-0-0-0-0--5-5-5-5-5-5-5-5-|

		 |Effects on
E|-----------------------------------------------------------------------------|
B|---------------------------------------------8-8-8-8-10-10-10-10-12-12-12-12-|
G|------------------5-5-5-5--7-7-7-7--9-9-9-9--x-x-x-x--x--x--x--x--x--x--x--x-|
D|-4-4-4-4-4-4-4-4--x-x-x-x--x-x-x-x--x-x-x-x--5-5-5-5--7--7--7--7--9--9--9--9-|
A|-4-4-4-4-4-4-4-4--3-3-3-3--5-5-5-5--7-7-7-7----------------------------------|
E|-2-2-2-2-2-2-2-2-------------------------------------------------------------|

E|---------------------------------------------------------------------------|
B|-14-14-14-14--15-15-15-15-----------5-5-5-5--7-7-7-7--8-8-8-8--10-10-10-10-|
G|--x--x--x--x---x--x--x--x--7-7-7-7--x-x-x-x--x-x-x-x--x-x-x-x---x--x--x--x-|
D|-11-11-11-11--12-12-12-12--x-x-x-x--2-2-2-2--4-4-4-4--5-5-5-5---7--7--7--7-|
A|---------------------------5-5-5-5-----------------------------------------|
E|---------------------------------------------------------------------------|
                
		          Effects off|
E|--------------------------------------------------|
B|-12-12-12-12--13-13-13-13--14-14-14-14------------|
G|--x--x--x--x---x--x--x--x---x--x--x--x---9~~~~----|
D|--9--9--9--9--10-10-10-10--11-11-11-11---9~~~~--9-|
A|-----------------------------------------7~~~~--9-|
E|------------------------------------------------7-|

-------------
Rhythm Guitar
-------------
Played by Charlotte Heatherly 
Effects: none
Notes: you don’t have to be the hottest Chic in rock to play this part, 
But... it helps!

Pre Verse (0.19-0.31)
E|------------------------------------|------------------------------------|
B|------------------------------------|------------------------------------|
G|-4-4-4-4-----------6-6-6-6----------|-4-4-4-4-----------6-6-6-6----------|
D|-4-4-4-4--2-2-2-2--6-6-6-6--4-4-4-4-|-4-4-4-4--2-2-2-2--6-6-6-6--4-4-4-4-|
A|-2-2-2-2--2-2-2-2--4-4-4-4--4-4-4-4-|-2-2-2-2--2-2-2-2--4-4-4-4--4-4-4-4-|
E|----------0-0-0-0-----------2-2-2-2-|----------0-0-0-0-----------2-2-2-2-|

E|------------------------------------|------------------------------------|
B|------------------------------------|------------------------------------|
G|-4-4-4-4-----------6-6-6-6----------|-4-4-4-4-----------6-6-6-6----------|
D|-4-4-4-4--2-2-2-2--6-6-6-6--4-4-4-4-|-4-4-4-4--2-2-2-2--6-6-6-6--4-4-4-4-|
A|-2-2-2-2--2-2-2-2--4-4-4-4--4-4-4-4-|-2-2-2-2--2-2-2-2--4-4-4-4--4-4-4-4-|
E|----------0-0-0-0-----------2-2-2-2-|----------0-0-0-0-----------2-2-2-2-|

Verse (0.32-0.56)
E|------------------------------------|------------------------------------|
B|------------------------------------|------------------------------------|
G|-4-4-4-4-----------6-6-6-6----------|-4-4-4-4-----------6-6-6-6----------|
D|-4-4-4-4--2-2-2-2--6-6-6-6--4-4-4-4-|-4-4-4-4--2-2-2-2--6-6-6-6--4-4-4-4-|
A|-2-2-2-2--2-2-2-2--4-4-4-4--4-4-4-4-|-2-2-2-2--2-2-2-2--4-4-4-4--4-4-4-4-|
E|----------0-0-0-0-----------2-2-2-2-|----------0-0-0-0-----------2-2-2-2-|
PM ***********************************************************************

E|------------------------------------|-----------------------------|
B|------------------------------------|-----------------------------|
G|-4-4-4-4-----------6-6-6-6----------|-9-9-9-9-9-9-9-9-9--11-11-11-|
D|-4-4-4-4--2-2-2-2--6-6-6-6--4-4-4-4-|-9-9-9-9-9-9-9-9-9--11-11-11-|
A|-2-2-2-2--2-2-2-2--4-4-4-4--4-4-4-4-|-7-7-7-7-7-7-7-7-7---9--9--9-|
E|----------0-0-0-0-----------2-2-2-2-|-----------------------------|
PM **********************************

E|------------------------------------|------------------------------------|
B|------------------------------------|------------------------------------|
G|-4-4-4-4-----------6-6-6-6----------|-4-4-4-4-----------6-6-6-6----------|
D|-4-4-4-4--2-2-2-2--6-6-6-6--4-4-4-4-|-4-4-4-4--2-2-2-2--6-6-6-6--4-4-4-4-|
A|-2-2-2-2--2-2-2-2--4-4-4-4--4-4-4-4-|-2-2-2-2--2-2-2-2--4-4-4-4--4-4-4-4-|
E|----------0-0-0-0-----------2-2-2-2-|----------0-0-0-0-----------2-2-2-2-|

E|---------------------------------------|
B|---------------------------------------|
G|-4-4-4-4-----------6-6-6-6-----------9-|
D|-4-4-4-4--2-2-2-2--6-6-6-6--4-4-4-4--9-|
A|-2-2-2-2--2-2-2-2--4-4-4-4--4-4-4-4--7-|
E|----------0-0-0-0-----------2-2-2-2----|

Chorus (0.56-1.21)
E|--------------------------------------------------------------------|
B|--------------------------------------------------------------------|
G|------------------4-4-4-4-4-4-4-4-----------------------------------|
D|-4-4-4-4-4-4-4-4--4-4-4-4-4-4-4-4--2-2-2-2-2-2-2-2--7-7-7-7-7-7-7-7-|
A|-4-4-4-4-4-4-4-4--2-2-2-2-2-2-2-2--2-2-2-2-2-2-2-2--7-7-7-7-7-7-7-7-|
E|-2-2-2-2-2-2-2-2-------------------0-0-0-0-0-0-0-0--5-5-5-5-5-5-5-5-|

E|-----------------------------------------------------------------------|
B|-----------------------------------------------------------------------|
G|------------------4-4-4-4-4-4-4-4------------------------------------4-|
D|-4-4-4-4-4-4-4-4--4-4-4-4-4-4-4-4--2-2-2-2-2-2-2-2--7-7-7-7-7-7-7-7--4-|
A|-4-4-4-4-4-4-4-4--2-2-2-2-2-2-2-2--2-2-2-2-2-2-2-2--7-7-7-7-7-7-7-7--2-|
E|-2-2-2-2-2-2-2-2-------------------0-0-0-0-0-0-0-0--5-5-5-5-5-5-5-5----|

E|--------------------------------------------------------------------|
B|--------------------------------------------------------------------|
G|------------------4-4-4-4-4-4-4-4-----------------------------------|
D|-4-4-4-4-4-4-4-4--4-4-4-4-4-4-4-4--2-2-2-2-2-2-2-2--7-7-7-7-7-7-7-7-|
A|-4-4-4-4-4-4-4-4--2-2-2-2-2-2-2-2--2-2-2-2-2-2-2-2--7-7-7-7-7-7-7-7-|
E|-2-2-2-2-2-2-2-2-------------------0-0-0-0-0-0-0-0--5-5-5-5-5-5-5-5-|

E|---------------------------------------------------|
B|---------------------------------------------------|
G|------------------4-4-4-4-4-4-4-4--4-4-4-4-4-4-4-4-|
D|-4-4-4-4-4-4-4-4--4-4-4-4-4-4-4-4--4-4-4-4-4-4-4-4-|
A|-4-4-4-4-4-4-4-4--2-2-2-2-2-2-2-2--2-2-2-2-2-2-2-2-|
E|-2-2-2-2-2-2-2-2-----------------------------------|

Midtro (1.21-1.27)
E|------------------------------------|------------------------------------|
B|------------------------------------|------------------------------------|
G|-4-4-4-4-----------6-6-6-6----------|-4-4-4-4-----------6-6-6-6----------|
D|-4-4-4-4--2-2-2-2--6-6-6-6--4-4-4-4-|-4-4-4-4--2-2-2-2--6-6-6-6--4-4-4-4-|
A|-2-2-2-2--2-2-2-2--4-4-4-4--4-4-4-4-|-2-2-2-2--2-2-2-2--4-4-4-4--4-4-4-4-|
E|----------0-0-0-0-----------2-2-2-2-|----------0-0-0-0-----------2-2-2-2-|

Verse 2 (1.27-1.51)
E|------------------------------------|------------------------------------|
B|------------------------------------|------------------------------------|
G|-4-4-4-4-----------6-6-6-6----------|-4-4-4-4-----------6-6-6-6----------|
D|-4-4-4-4--2-2-2-2--6-6-6-6--4-4-4-4-|-4-4-4-4--2-2-2-2--6-6-6-6--4-4-4-4-|
A|-2-2-2-2--2-2-2-2--4-4-4-4--4-4-4-4-|-2-2-2-2--2-2-2-2--4-4-4-4--4-4-4-4-|
E|----------0-0-0-0-----------2-2-2-2-|----------0-0-0-0-----------2-2-2-2-|
PM ***********************************************************************

E|------------------------------------|-----------------------------|
B|------------------------------------|-----------------------------|
G|-4-4-4-4-----------6-6-6-6----------|-9-9-9-9-9-9-9-9-9--11-11-11-|
D|-4-4-4-4--2-2-2-2--6-6-6-6--4-4-4-4-|-9-9-9-9-9-9-9-9-9--11-11-11-|
A|-2-2-2-2--2-2-2-2--4-4-4-4--4-4-4-4-|-7-7-7-7-7-7-7-7-7---9--9--9-|
E|----------0-0-0-0-----------2-2-2-2-|-----------------------------|
PM **********************************

E|------------------------------------|------------------------------------|
B|------------------------------------|------------------------------------|
G|-4-4-4-4-----------6-6-6-6----------|-4-4-4-4-----------6-6-6-6----------|
D|-4-4-4-4--2-2-2-2--6-6-6-6--4-4-4-4-|-4-4-4-4--2-2-2-2--6-6-6-6--4-4-4-4-|
A|-2-2-2-2--2-2-2-2--4-4-4-4--4-4-4-4-|-2-2-2-2--2-2-2-2--4-4-4-4--4-4-4-4-|
E|----------0-0-0-0-----------2-2-2-2-|----------0-0-0-0-----------2-2-2-2-|

E|---------------------------------------|
B|---------------------------------------|
G|-4-4-4-4-----------6-6-6-6-----------9-|
D|-4-4-4-4--2-2-2-2--6-6-6-6--4-4-4-4--9-|
A|-2-2-2-2--2-2-2-2--4-4-4-4--4-4-4-4--7-|
E|----------0-0-0-0-----------2-2-2-2----|

Chorus 2 (1.51-2.14)
E|--------------------------------------------------------------------|
B|--------------------------------------------------------------------|
G|------------------4-4-4-4-4-4-4-4-----------------------------------|
D|-4-4-4-4-4-4-4-4--4-4-4-4-4-4-4-4--2-2-2-2-2-2-2-2--7-7-7-7-7-7-7-7-|
A|-4-4-4-4-4-4-4-4--2-2-2-2-2-2-2-2--2-2-2-2-2-2-2-2--7-7-7-7-7-7-7-7-|
E|-2-2-2-2-2-2-2-2-------------------0-0-0-0-0-0-0-0--5-5-5-5-5-5-5-5-|

E|-----------------------------------------------------------------------|
B|-----------------------------------------------------------------------|
G|------------------4-4-4-4-4-4-4-4------------------------------------4-|
D|-4-4-4-4-4-4-4-4--4-4-4-4-4-4-4-4--2-2-2-2-2-2-2-2--7-7-7-7-7-7-7-7--4-|
A|-4-4-4-4-4-4-4-4--2-2-2-2-2-2-2-2--2-2-2-2-2-2-2-2--7-7-7-7-7-7-7-7--2-|
E|-2-2-2-2-2-2-2-2-------------------0-0-0-0-0-0-0-0--5-5-5-5-5-5-5-5----|

E|--------------------------------------------------------------------|
B|--------------------------------------------------------------------|
G|------------------4-4-4-4-4-4-4-4-----------------------------------|
D|-4-4-4-4-4-4-4-4--4-4-4-4-4-4-4-4--2-2-2-2-2-2-2-2--7-7-7-7-7-7-7-7-|
A|-4-4-4-4-4-4-4-4--2-2-2-2-2-2-2-2--2-2-2-2-2-2-2-2--7-7-7-7-7-7-7-7-|
E|-2-2-2-2-2-2-2-2-------------------0-0-0-0-0-0-0-0--5-5-5-5-5-5-5-5-|

E|----------------------------------|
B|----------------------------------|
G|------------------4-4-4-4-4-4-4-4-|
D|-4-4-4-4-4-4-4-4--4-4-4-4-4-4-4-4-|
A|-4-4-4-4-4-4-4-4--2-2-2-2-2-2-2-2-|
E|-2-2-2-2-2-2-2-2------------------|

Solo part 1 (2.14-2.26)
E|------------------------------------|------------------------------------|
B|------------------------------------|------------------------------------|
G|-4-4-4-4-----------6-6-6-6----------|-4-4-4-4-----------6-6-6-6----------|
D|-4-4-4-4--2-2-2-2--6-6-6-6--4-4-4-4-|-4-4-4-4--2-2-2-2--6-6-6-6--4-4-4-4-|
A|-2-2-2-2--2-2-2-2--4-4-4-4--4-4-4-4-|-2-2-2-2--2-2-2-2--4-4-4-4--4-4-4-4-|
E|----------0-0-0-0-----------2-2-2-2-|----------0-0-0-0-----------2-2-2-2-|

E|------------------------------------|------------------------------------|
B|------------------------------------|------------------------------------|
G|-4-4-4-4-----------6-6-6-6----------|-4-4-4-4-----------6-6-6-6----------|
D|-4-4-4-4--2-2-2-2--6-6-6-6--4-4-4-4-|-4-4-4-4--2-2-2-2--6-6-6-6--4-4-4-4-|
A|-2-2-2-2--2-2-2-2--4-4-4-4--4-4-4-4-|-2-2-2-2--2-2-2-2--4-4-4-4--4-4-4-4-|
E|----------0-0-0-0-----------2-2-2-2-|----------0-0-0-0-----------2-2-2-2-|

 Solo part 2 (2.26-2.38)
E|--------------------------------------------------------------------|
B|--------------------------------------------------------------------|
G|------------------4-4-4-4-4-4-4-4-----------------------------------|
D|-4-4-4-4-4-4-4-4--4-4-4-4-4-4-4-4--2-2-2-2-2-2-2-2--7-7-7-7-7-7-7-7-|
A|-4-4-4-4-4-4-4-4--2-2-2-2-2-2-2-2--2-2-2-2-2-2-2-2--7-7-7-7-7-7-7-7-|
E|-2-2-2-2-2-2-2-2-------------------0-0-0-0-0-0-0-0--5-5-5-5-5-5-5-5-|
PM ******************************************************************

E|--------------------------------------------------------------------|
B|--------------------------------------------------------------------|
G|------------------4-4-4-4-4-4-4-4-----------------------------------|
D|-4-4-4-4-4-4-4-4--4-4-4-4-4-4-4-4--2-2-2-2-2-2-2-2--7-7-7-7-7-7-7-7-|
A|-4-4-4-4-4-4-4-4--2-2-2-2-2-2-2-2--2-2-2-2-2-2-2-2--7-7-7-7-7-7-7-7-|
E|-2-2-2-2-2-2-2-2-------------------0-0-0-0-0-0-0-0--5-5-5-5-5-5-5-5-|
PM ********************************

Bridge (2.39-2.50)
E|---------------------------------------|-------------------------------------|
B|---------------------------------------|-------------------------------------|
G|---------9-9-9-9--6-6-6-6--11-11-11-11-|--------9-9-9-9--6-6-6-6--11-11-11-11|
D|-9-9-9-9-9-9-9-9--6-6-6-6--11-11-11-11-|9-9-9-9-9-9-9-9--6-6-6-6--11-11-11-11|
A|-9-9-9-9-7-7-7-7--4-4-4-4---9--9--9--9-|9-9-9-9-7-7-7-7--4-4-4-4---9--9--9--9|
E|-7-7-7-7-------------------------------|7-7-7-7------------------------------|

E|---------------------------------------------------------------------|
B|---------------------------------------------------------------------|
G|---------9-9-9-9--6-6-6-6--11-11-11-11---9-9-9-9-9-9-9-9-9-9-9-9-9-9-|
D|-9-9-9-9-9-9-9-9--6-6-6-6--11-11-11-11---9-9-9-9-9-9-9-9-9-9-9-9-9-9-|
A|-9-9-9-9-7-7-7-7--4-4-4-4---9--9--9--9---7-7-7-7-7-7-7-7-7-7-7-7-7-7-|
E|-7-7-7-7-------------------------------------------------------------|

Chorus/outro (2.51-till end)
E|--------------------------------------------------------------------|
B|--------------------------------------------------------------------|
G|------------------4-4-4-4-4-4-4-4-----------------------------------|
D|-4-4-4-4-4-4-4-4--4-4-4-4-4-4-4-4--2-2-2-2-2-2-2-2--7-7-7-7-7-7-7-7-|
A|-4-4-4-4-4-4-4-4--2-2-2-2-2-2-2-2--2-2-2-2-2-2-2-2--7-7-7-7-7-7-7-7-|
E|-2-2-2-2-2-2-2-2-------------------0-0-0-0-0-0-0-0--5-5-5-5-5-5-5-5-|

E|-----------------------------------------------------------------------|
B|-----------------------------------------------------------------------|
G|------------------4-4-4-4-4-4-4-4------------------------------------4-|
D|-4-4-4-4-4-4-4-4--4-4-4-4-4-4-4-4--2-2-2-2-2-2-2-2--7-7-7-7-7-7-7-7--4-|
A|-4-4-4-4-4-4-4-4--2-2-2-2-2-2-2-2--2-2-2-2-2-2-2-2--7-7-7-7-7-7-7-7--2-|
E|-2-2-2-2-2-2-2-2-------------------0-0-0-0-0-0-0-0--5-5-5-5-5-5-5-5----|

E|--------------------------------------------------------------------|
B|--------------------------------------------------------------------|
G|------------------4-4-4-4-4-4-4-4-----------------------------------|
D|-4-4-4-4-4-4-4-4--4-4-4-4-4-4-4-4--2-2-2-2-2-2-2-2--7-7-7-7-7-7-7-7-|
A|-4-4-4-4-4-4-4-4--2-2-2-2-2-2-2-2--2-2-2-2-2-2-2-2--7-7-7-7-7-7-7-7-|
E|-2-2-2-2-2-2-2-2-------------------0-0-0-0-0-0-0-0--5-5-5-5-5-5-5-5-|

E|-----------------------------------------------------------------------------|
B|---------------------------------------------8-8-8-8-10-10-10-10-12-12-12-12-|
G|------------------5-5-5-5--7-7-7-7--9-9-9-9--x-x-x-x--x--x--x--x--x--x--x--x-|
D|-4-4-4-4-4-4-4-4--x-x-x-x--x-x-x-x--x-x-x-x--5-5-5-5--7--7--7--7--9--9--9--9-|
A|-4-4-4-4-4-4-4-4--3-3-3-3--5-5-5-5--7-7-7-7----------------------------------|
E|-2-2-2-2-2-2-2-2-------------------------------------------------------------|

E|---------------------------------------------------------------------------|
B|-14-14-14-14--15-15-15-15-----------5-5-5-5--7-7-7-7--8-8-8-8--10-10-10-10-|
G|--x--x--x--x---x--x--x--x--7-7-7-7--x-x-x-x--x-x-x-x--x-x-x-x---x--x--x--x-|
D|-11-11-11-11--12-12-12-12--x-x-x-x--2-2-2-2--4-4-4-4--5-5-5-5---7--7--7--7-|
A|---------------------------5-5-5-5-----------------------------------------|
E|---------------------------------------------------------------------------|

E|--------------------------------------------------|
B|-12-12-12-12--13-13-13-13--14-14-14-14------------|
G|--x--x--x--x---x--x--x--x---x--x--x--x---9~~~~----|
D|--9--9--9--9--10-10-10-10--11-11-11-11---9~~~~--9-|
A|-----------------------------------------7~~~~--9-|
E|------------------------------------------------7-|

----
Bass
----
Played by sorry don’t know the dork’s name 
Effects: none
Notes: bass? Ha - are you man or a mouse?

Pre Verse (0.13-0.31)
G|------------------------------------|------------------------------------|
D|------------------------------------|------------------------------------|
A|-2-2-2-2-----------4-4-4-4----------|-2-2-2-2-----------4-4-4-4----------|
E|----------0-0-0-0-----------2-2-2-2-|----------0-0-0-0-----------2-2-2-2-|

G|------------------------------------|------------------------------------|
D|------------------------------------|------------------------------------|
A|-2-2-2-2-----------4-4-4-4----------|-2-2-2-2-----------4-4-4-4----------|
E|----------0-0-0-0-----------2-2-2-2-|----------0-0-0-0-----------2-2-2-2-|

G|------------------------------------|------------------------------------|
D|------------------------------------|------------------------------------|
A|-2-2-2-2-----------4-4-4-4----------|-2-2-2-2-----------4-4-4-4----------|
E|----------0-0-0-0-----------2-2-2-2-|----------0-0-0-0-----------2-2-2-2-|

Verse (0.32-0.56)
G|------------------------------------|------------------------------------|
D|------------------------------------|------------------------------------|
A|-2-2-2-2-----------4-4-4-4----------|-2-2-2-2-----------4-4-4-4----------|
E|----------0-0-0-0-----------2-2-2-2-|----------0-0-0-0-----------2-2-2-2-|
PM ***********************************************************************

G|------------------------------------|-----------------------------|
D|------------------------------------|-----------------------------|
A|-2-2-2-2-----------4-4-4-4----------|-7-7-7-7-7-7-7-7-7---9--9--9-|
E|----------0-0-0-0-----------2-2-2-2-|-----------------------------|
PM **********************************

G|------------------------------------|------------------------------------|
D|------------------------------------|------------------------------------|
A|-2-2-2-2-----------4-4-4-4----------|-2-2-2-2-----------4-4-4-4----------|
E|----------0-0-0-0-----------2-2-2-2-|----------0-0-0-0-----------2-2-2-2-|

G|---------------------------------------|
D|---------------------------------------|
A|-2-2-2-2-----------4-4-4-4-----------7-|
E|----------0-0-0-0-----------2-2-2-2----|

Chorus (0.56-1.21)
G|--------------------------------------------------------------------|
D|--------------------------------------------------------------------|
A|------------------2-2-2-2-2-2-2-2-----------------------------------|
E|-2-2-2-2-2-2-2-2-------------------0-0-0-0-0-0-0-0--5-5-5-5-5-5-5-5-|

G|-----------------------------------------------------------------------|
D|-----------------------------------------------------------------------|
A|------------------2-2-2-2-2-2-2-2------------------------------------2-|
E|-2-2-2-2-2-2-2-2-------------------0-0-0-0-0-0-0-0--5-5-5-5-5-5-5-5----|

G|--------------------------------------------------------------------|
D|--------------------------------------------------------------------|
A|------------------2-2-2-2-2-2-2-2-----------------------------------|
E|-2-2-2-2-2-2-2-2-------------------0-0-0-0-0-0-0-0--5-5-5-5-5-5-5-5-|

G|---------------------------------------------------|
D|---------------------------------------------------|
A|------------------2-2-2-2-2-2-2-2--2-2-2-2-2-2-2-2-|
E|-2-2-2-2-2-2-2-2-----------------------------------|

Midtro (1.21-1.27)
G|------------------------------------|------------------------------------|
D|------------------------------------|------------------------------------|
A|-2-2-2-2-----------4-4-4-4----------|-2-2-2-2-----------4-4-4-4----------|
E|----------0-0-0-0-----------2-2-2-2-|----------0-0-0-0-----------2-2-2-2-|

Verse 2 (1.27-1.51)
G|------------------------------------|------------------------------------|
D|------------------------------------|------------------------------------|
A|-2-2-2-2-----------4-4-4-4----------|-2-2-2-2-----------4-4-4-4----------|
E|----------0-0-0-0-----------2-2-2-2-|----------0-0-0-0-----------2-2-2-2-|
PM ***********************************************************************

G|------------------------------------|-----------------------------|
D|------------------------------------|-----------------------------|
A|-2-2-2-2-----------4-4-4-4----------|-7-7-7-7-7-7-7-7-7---9--9--9-|
E|----------0-0-0-0-----------2-2-2-2-|-----------------------------|
PM **********************************

G|------------------------------------|------------------------------------|
D|------------------------------------|------------------------------------|
A|-2-2-2-2-----------4-4-4-4----------|-2-2-2-2-----------4-4-4-4----------|
E|----------0-0-0-0-----------2-2-2-2-|----------0-0-0-0-----------2-2-2-2-|

G|---------------------------------------|
D|---------------------------------------|
A|-2-2-2-2-----------4-4-4-4-----------7-|
E|----------0-0-0-0-----------2-2-2-2----|

Chorus 2 (1.51-2.14)
G|--------------------------------------------------------------------|
D|--------------------------------------------------------------------|
A|------------------2-2-2-2-2-2-2-2-----------------------------------|
E|-2-2-2-2-2-2-2-2-------------------0-0-0-0-0-0-0-0--5-5-5-5-5-5-5-5-|

G|-----------------------------------------------------------------------|
D|-----------------------------------------------------------------------|
A|------------------2-2-2-2-2-2-2-2------------------------------------2-|
E|-2-2-2-2-2-2-2-2-------------------0-0-0-0-0-0-0-0--5-5-5-5-5-5-5-5----|

G|--------------------------------------------------------------------|
D|--------------------------------------------------------------------|
A|------------------2-2-2-2-2-2-2-2-----------------------------------|
E|-2-2-2-2-2-2-2-2-------------------0-0-0-0-0-0-0-0--5-5-5-5-5-5-5-5-|

G|----------------------------------|
D|----------------------------------|
A|------------------2-2-2-2-2-2-2-2-|
E|-2-2-2-2-2-2-2-2------------------|

Solo part 1 (2.14-2.26)
G|------------------------------------|------------------------------------|
D|------------------------------------|------------------------------------|
A|-2-2-2-2-----------4-4-4-4----------|-2-2-2-2-----------4-4-4-4----------|
E|----------0-0-0-0-----------2-2-2-2-|----------0-0-0-0-----------2-2-2-2-|

G|------------------------------------|------------------------------------|
D|------------------------------------|------------------------------------|
A|-2-2-2-2-----------4-4-4-4----------|-2-2-2-2-----------4-4-4-4----------|
E|----------0-0-0-0-----------2-2-2-2-|----------0-0-0-0-----------2-2-2-2-|

 Solo part 2 (2.26-2.38)
G|--------------------------------------------------------------------|
D|--------------------------------------------------------------------|
A|------------------2-2-2-2-2-2-2-2-----------------------------------|
E|-2-2-2-2-2-2-2-2-------------------0-0-0-0-0-0-0-0--5-5-5-5-5-5-5-5-|
PM ******************************************************************

G|--------------------------------------------------------------------|
D|--------------------------------------------------------------------|
A|------------------2-2-2-2-2-2-2-2-----------------------------------|
E|-2-2-2-2-2-2-2-2-------------------0-0-0-0-0-0-0-0--5-5-5-5-5-5-5-5-|
PM ********************************

Pause while charlotte plays a bit of her Bridge and then come In with:

(2.44-2.50)
G|---------------------------------------------------------------------|
D|---------------------------------------------------------------------|
A|---------7-7-7-7--4-4-4-4---9--9--9--9---7-7-7-7-7-7-7-7-7-7-7-7-7-7-|
E|-7-7-7-7-------------------------------------------------------------|

Chorus/outro (2.51-till end)
G|--------------------------------------------------------------------|
D|--------------------------------------------------------------------|
A|------------------2-2-2-2-2-2-2-2-----------------------------------|
E|-2-2-2-2-2-2-2-2-------------------0-0-0-0-0-0-0-0--5-5-5-5-5-5-5-5-|

G|-----------------------------------------------------------------------|
D|-----------------------------------------------------------------------|
A|------------------2-2-2-2-2-2-2-2------------------------------------2-|
E|-2-2-2-2-2-2-2-2-------------------0-0-0-0-0-0-0-0--5-5-5-5-5-5-5-5----|

G|--------------------------------------------------------------------|
D|--------------------------------------------------------------------|
A|------------------2-2-2-2-2-2-2-2-----------------------------------|
E|-2-2-2-2-2-2-2-2-------------------0-0-0-0-0-0-0-0--5-5-5-5-5-5-5-5-|

G|-----------------------------------------------------------------------------|
D|---------------------------------------------5-5-5-5--7--7--7--7--9--9--9--9-|
A|------------------3-3-3-3--5-5-5-5--7-7-7-7----------------------------------|
E|-2-2-2-2-2-2-2-2-------------------------------------------------------------|

G|---------------------------------------------------------------------------|
D|-11-11-11-11--12-12-12-12-----------2-2-2-2--4-4-4-4--5-5-5-5---7--7--7--7-|
A|---------------------------5-5-5-5-----------------------------------------|
E|---------------------------------------------------------------------------|

G|--------------------------------------------------|
D|--9--9--9--9--10-10-10-10--11-11-11-11------------|
A|-----------------------------------------7~~~~----|
E|------------------------------------------------7-|
comments
print report bad tab
2 comments total.
0 reply
georgeow wrote on October 15 2006, 07:22 am

dude great tab. keep it up

0 reply
alex2201 wrote on June 30 2007, 12:35 pm

great tab

but charleotte hatherly plays lead so you might want to change that so people don't get really petty.

other than that this is great

I want to post or [tab]
guest
You may want to rate the tab now too:
select rating
Please do not post tabs as comments. Select "correction" instead!