Oops, an error
Loading. Please wait.

Halloween Tab

by Ash
1,067 views 1 this week
1 commentread comment
1 2 3 4 5
accurate
x 3
Autoscroll
+/-
esc
set tempo
stop
Contributor
WARNING: You are trying to view
                                    content from Ultimate-Guitar.com
                                    in an unauthorized application,
                                    which is prohibited.

                                    Please use an official Ultimate
                                    Guitar Tabs application for iPhone,
                                    iPad or Android to access legitimate
                                    chords, guitar, bass, and drum tabs
                                    from Ultimate-Guitar.com database.

                                    Type "ultimate guitar tabs" in Apple
                                    App Store's or Android Market's
                                    search to find the application.
HALLOWEEN BY ASH

TABBED BY RUAIRI COLEMAN

Ok this song is of the Cosmic Dedris CD (the CD that comes with Intergalantic Sonic
Seven's). To play this song you need a really small amount of distortion for The
Verus's and then heavy distortion for the chorus's. Sorry havn't got the second
guitars bits, but i'll work it out soon :)

 Intro/Verus 1
 e|---2--x--2--2--2----------------------------------------------------|
 B|---3--x--3--3--3----------------------------------------2-2-2-2-----|
 G|---2--x--2--2--2-------4-4--4--4--4--4--4----4-4-4-4--1-2-2-2-2-----|
 D|-----------------2--4----4--4--4--4--4--4--4-4-4-4-4--2-2-2-2-2-----|
 A|-------------------------2--2--2--2--2--2--4-2-2-2-2--2-------------|
 E|-------------------------------------------2----------0-------------|
      I moved in that very day
      The room was small but I liked it anyway
      I watched TV while I dreamed through my mind
					       (Heavy Distortion \/)
					      |Repeat This Part X2--|
 e|---2--x--2--2--2----------------------------------------------------|
 B|---3--x--3--3--3----------------------------------------------------|
 G|---2--x--2--2--2-------4-4--4--4--4--4--4--------------7-7-7-7-7-7--|
 D|-----------------2--4----4--4--4--4--4--4--4-4-4-2-2-2-7-7-7-7-7-7--|
 A|-------------------------2--2--2--2--2--2--4-4-4-2-2-2-5-5-5-5-5-5--|
 E|-------------------------------------------2-2-2-0-0-0--------------| 
       And the pregnant girl was busy all the   ti___ime___ime

 Verus 2
 e|---2--x--2--2--2----------------------------------------------------|
 B|---3--x--3--3--3----------------------------------------2-2-2-2-----|
 G|---2--x--2--2--2-------4-4--4--4--4--4--4----4-4-4-4--1-2-2-2-2-----|
 D|-----------------2--4----4--4--4--4--4--4--4-4-4-4-4--2-2-2-2-2-----|
 A|-------------------------2--2--2--2--2--2--4-2-2-2-2--2-------------|
 E|-------------------------------------------2----------0-------------|
      September and october passed me by
      I decided to go home for a while
      I got a lift with an old friend of mine
					       (Heavy Distortion \/)
					      |Repeat This Part X2--|
 e|---2--x--2--2--2----------------------------------------------------|
 B|---3--x--3--3--3----------------------------------------------------|
 G|---2--x--2--2--2-------4-4--4--4--4--4--4--------------7-7-7-7-7-7--|
 D|-----------------2--4----4--4--4--4--4--4--4-4-4-2-2-2-7-7-7-7-7-7--|
 A|-------------------------2--2--2--2--2--2--4-4-4-2-2-2-5-5-5-5-5-5--|
 E|-------------------------------------------2-2-2-0-0-0--------------|
   I wanted her still, she reminded me on the  way____ay____ay

 Chorus 1
 e|---------------------------------------------------------|
 B|---------------------------------------------------------|
 G|---2-2-2-2-/-7-7-7---------------------------------------|
 D|---2-2-2-2-/-7-7-7--4-4-4---9-9-9\-7-\2-2-2-2-2-2--------|
 A|---0-0-0-0-/-5-5-5--4-4-4---9-9-9\-7-\2-2-2-2-2-2--------|
 E|--------------------2-2-2---7-7-7\-5-\0-0-0-0-0-0--------|
    So when I got home I went to see mom and dad

 e|---------------------------------------------------------|
 B|---------------------------------------------------------|
 G|---2--2--2-/-7--7--7-/9--9--9/-11--11--11----------------|
 D|---2--2--2-/-7--7--7-/9--9--9/-11--11--11----------------|
 A|---0--0--0-/-5--5--5-/7--7--7/-9---9---9-----------------|
 E|---------------------------------------------------------|
      They asked was I ok, was I happy enough  

 e|---------------------------------------------------------|
 B|---------------------------------------------------------|
 G|---------------------------------------------------------|
 D|---12-12-12---11-11-11---7-7-7-7-7-7-7-7--9-9------------|
 A|---12-12-12---11-11-11---7-7-7-7-7-7-7-7--9-9------------|
 E|---10-10-10---9--9--9----5-5-5-5-5-5-5-5--7-7------------|
  And I smiled  and I said  that I was

 Verus 3
 e|---2--x--2--2--2----------------------------------------------------|
 B|---3--x--3--3--3----------------------------------------2-2-2-2-----|
 G|---2--x--2--2--2-------4-4--4--4--4--4--4----4-4-4-4--1-2-2-2-2-----|
 D|-----------------2--4----4--4--4--4--4--4--4-4-4-4-4--2-2-2-2-2-----|
 A|-------------------------2--2--2--2--2--2--4-2-2-2-2--2-------------|
 E|-------------------------------------------2----------0-------------|
      A few days later I decided to leave
      I couldn't find anyone who could take me
      The only thing I could do was take a bus
					       (Heavy Distortion \/)
					      |Repeat This Part X2--|
 e|---2--x--2--2--2----------------------------------------------------|
 B|---3--x--3--3--3----------------------------------------------------|
 G|---2--x--2--2--2-------4-4--4--4--4--4--4--------------7-7-7-7-7-7--|
 D|-----------------2--4----4--4--4--4--4--4--4-4-4-2-2-2-7-7-7-7-7-7--|
 A|-------------------------2--2--2--2--2--2--4-4-4-2-2-2-5-5-5-5-5-5--|
 E|-------------------------------------------2-2-2-0-0-0--------------|
     So at half six I left to catch the late express__s_____s

 Verus 4
 e|---2--x--2--2--2----------------------------------------------------|
 B|---3--x--3--3--3----------------------------------------2-2-2-2-----|
 G|---2--x--2--2--2-------4-4--4--4--4--4--4----4-4-4-4--1-2-2-2-2-----|
 D|-----------------2--4----4--4--4--4--4--4--4-4-4-4-4--2-2-2-2-2-----|
 A|-------------------------2--2--2--2--2--2--4-2-2-2-2--2-------------|
 E|-------------------------------------------2----------0-------------|
      I boarded the bus with my clean washing over-night bag
      I sat beside a girl all dressed in black
      We talked and smiled most of the way
					       (Heavy Distortion \/)
					      |Repeat This Part X2--|
 e|---2--x--2--2--2----------------------------------------------------|
 B|---3--x--3--3--3----------------------------------------------------|
 G|---2--x--2--2--2-------4-4--4--4--4--4--4--------------7-7-7-7-7-7--|
 D|-----------------2--4----4--4--4--4--4--4--4-4-4-2-2-2-7-7-7-7-7-7--|
 A|-------------------------2--2--2--2--2--2--4-4-4-2-2-2-5-5-5-5-5-5--|
 E|-------------------------------------------2-2-2-0-0-0--------------|
   'till her jealous boyfriend angrily led her away___ay____ay

 Chorus 2
 e|---------------------------------------------------------|
 B|---------------------------------------------------------|
 G|---2-2-2-2-/-7-7-7---------------------------------------|
 D|---2-2-2-2-/-7-7-7--4-4-4---9-9-9\-7-\2-2-2-2-2-2--------|
 A|---0-0-0-0-/-5-5-5--4-4-4---9-9-9\-7-\2-2-2-2-2-2--------|
 E|--------------------2-2-2---7-7-7\-5-\0-0-0-0-0-0--------|
   Then when I reached the house there was a party on inside

 e|---------------------------------------------------------|
 B|---------------------------------------------------------|
 G|---2--2--2-/-7--7--7-/9--9--9/-11--11--11----------------|
 D|---2--2--2-/-7--7--7-/9--9--9/-11--11--11----------------|
 A|---0--0--0-/-5--5--5-/7--7--7/-9---9---9-----------------|
 E|---------------------------------------------------------|
     My friend came to the door of my bags from my hand

 e|---------------------------------------------------------|
 B|---------------------------------------------------------|
 G|---------------------------------------------------------|
 D|---12-12-12---11-11-11---7-7-7-7-7-7-7-7-----------------|
 A|---12-12-12---11-11-11---7-7-7-7-7-7-7-7-----------------|
 E|---10-10-10---9--9--9----5-5-5-5-5-5-5-5-----------------|
      And welcomed me in from the night

 Chorus 3
 e|---------------------------------------------------------|
 B|---------------------------------------------------------|
 G|---2-2-2-2-/-7-7-7---------------------------------------|
 D|---2-2-2-2-/-7-7-7--4-4-4---9-9-9\-7-\2-2-2-2-2-2--------|
 A|---0-0-0-0-/-5-5-5--4-4-4---9-9-9\-7-\2-2-2-2-2-2--------|
 E|--------------------2-2-2---7-7-7\-5-\0-0-0-0-0-0--------|
    As I walking through the happy house on halloween night

 e|---------------------------------------------------------|
 B|---------------------------------------------------------|
 G|---2--2--2-/-7--7--7-/9--9--9/-11--11--11----------------|
 D|---2--2--2-/-7--7--7-/9--9--9/-11--11--11----------------|
 A|---0--0--0-/-5--5--5-/7--7--7/-9---9---9-----------------|
 E|---------------------------------------------------------|
     My friends were all there, my heart was glad

 e|---------------------------------------------------------|
 B|---------------------------------------------------------|
 G|---------------------------------------------------------|
 D|---12-12-12---11-11-11---7-7-7-7-7-7-7-7-----------------|
 A|---12-12-12---11-11-11---7-7-7-7-7-7-7-7-----------------|
 E|---10-10-10---9--9--9----5-5-5-5-5-5-5-5-----------------|
      And my life felt actually alright

 Outro
 e|---------------------------------------------------------|
 B|---------------------------------------------------------|
 G|---2--2--2-/-7--7--7-/9--9--9/-11--11--11----------------|
 D|---2--2--2-/-7--7--7-/9--9--9/-11--11--11----------------|
 A|---0--0--0-/-5--5--5-/7--7--7/-9---9---9-----------------|
 E|---------------------------------------------------------|
     My friends were all there, my heart was glad

 e|---------------------------------------------------------|
 B|---------------------------------------------------------|
 G|---------------------------------------------------------|
 D|---12-12-12---11-11-11---7-7-7-7-7-7-7-7-----------------|
 A|---12-12-12---11-11-11---7-7-7-7-7-7-7-7-----------------|
 E|---10-10-10---9--9--9----5-5-5-5-5-5-5-5-----------------|
      And my life felt actually alright

Ok your Probably wondering why there are a Verus 1,2,3,4 and a Chorus 1,2,3.
It's because there are different lyrics to each but other than that there
are all more or less the same. This is a great song to play, please rate it.


Halloween

I moved in that very day
The room was small but I liked it anyway
I watched TV while I dreamed through my mind
And the pregnant girl was busy all the ti-ime-ime

September and october passed me by
I decided to go home for a while
I got a lift with an old friend of mine
I wanted her still, she reminded me on the way

So when I got home I went to see mom and dad
They asked was I ok, was I happy enough
And I smiled and I said that I was

A few days later I decided to leave
I couldn't find anyone who could take me
The only thing I could do was take a bus
So at half six I left to catch the late express-s-s

I boarded the bus with my clean washing over-night bag
I sat beside a girl all dressed in black
We talked and smiled most of the way
'till her jealous boyfriend angrily led her away-ay-ay

Then when I reached the house there was a party on inside
My friend came to the door of my bags from my hand
And welcomed me in from the night
As I walking through the happy house on halloween night
My friends were all there, my heart was glad
And my life felt actually alright
My friends were all there, my heart was glad
And my life felt actually alright
comments
We did not receive enough feedback on this tab! Please rate:
print report bad tab
1 2 3 4 5
1 comment total.
0 reply
tallicafan888 wrote on September 14 2009, 09:56 am

Parts of the intro don't sound right. When I have some time I'll post some corrections here

I want to post or [tab]
guest
You may want to rate the tab now too:
select rating
Please do not post tabs as comments. Select "correction" instead!