Oops, an error
Loading. Please wait.

I Started A Fire Tab

by Ash
805 views 1 this week
no commentswrite comment
1 2 3 4 5
please rate
Autoscroll
+/-
esc
set tempo
stop
Contributor
Difficulty
intermediate
WARNING: You are trying to view
                                    content from Ultimate-Guitar.com
                                    in an unauthorized application,
                                    which is prohibited.

                                    Please use an official Ultimate
                                    Guitar Tabs application for iPhone,
                                    iPad or Android to access legitimate
                                    chords, guitar, bass, and drum tabs
                                    from Ultimate-Guitar.com database.

                                    Type "ultimate guitar tabs" in Apple
                                    App Store's or Android Market's
                                    search to find the application.
                I STARTED A FIRE - Ash
----------------------------------------------------------------------------------------------|
Tabbed by: Chris Colyer
Email: csc501@myway.com

Tuning: Standard

Intro/Verse
e|---0-----0------------------------------------------------------------|
B|---0--0--0---0-0-0----------------------------------------------------|
G|---1--1--1---2-2-2-1--------------------------------------------------|
D|---2--2--2---2-2-2-2-4-2----------------------------------------------|x4
A|---2--2--2------------------------------------------------------------|
E|---0-----0------------------------------------------------------------|
(I want you back..)
e|----------------------------------------------------------------------|
B|---5--5--5-----5-5-5--4-4-4-------------------------------------------|
G|---6--6--6-----6-6-6--6-6-6-------------------------------------------|
D|---6--6--6-----7-7-7--7-7-7-------------------------------------------|x2
A|---4--4--4------------------------------------------------------------|
E|----------------------------------------------------------------------|
(I leapt of a precipice..)
e|---0-----0------------------------------------------------------------|
B|---0--0--0---0-0-0----------------------------------------------------|
G|---1--1--1---2-2-2-1--------------------------------------------------|
D|---2--2--2---2-2-2-2-4-2----------------------------------------------|x2
A|---2--2--2------------------------------------------------------------|
E|---0-----0------------------------------------------------------------|
(for your love..)
e|----------------------------------------------------------------------|
B|---5--5--5-----5-5-5--4-4-4-------------------------------------------|
G|---6--6--6-----6-6-6--6-6-6-------------------------------------------|
D|---6--6--6-----7-7-7--7-7-7-------------------------------------------|x2
A|---4--4--4------------------------------------------------------------|
E|----------------------------------------------------------------------|

Chorus 1 (I wanna see..)
e|--------------------------------------3----------------------------------|
B|---------3---------5---------0--------5----------------------------------|
G|---------4---------5---------1--------5----------------------------------|
D|-------x-5-------x-7-----x---2----x---5----------------------------------|
A|-----x-x-5-----5-x-7---7-x---2--2-x---3----------------------------------|
E|-----x-x-3-----3-x-5---5-x---0--0-x--------------------------------------|
(the unknown)
e|----------------------------------------------------------------------|
B|---5--5--5-----5-5-5--4-4-4-------------------------------------------|
G|---6--6--6-----6-6-6--6-6-6-------------------------------------------|
D|---6--6--6-----7-7-7--7-7-7-------------------------------------------|x2
A|---4--4--4------------------------------------------------------------|
E|----------------------------------------------------------------------|

Verse 2:
e|---0-----0------------------------------------------------------------|
B|---0--0--0---0-0-0----------------------------------------------------|
G|---1--1--1---2-2-2-1--------------------------------------------------|
D|---2--2--2---2-2-2-2-4-2----------------------------------------------|x4
A|---2--2--2------------------------------------------------------------|
E|---0-----0------------------------------------------------------------|

Guitar 1:
e|----------------------------------------------------------------------|
B|---5--5--5-----5-5-5--4-4-4-------------------------------------------|
G|---6--6--6-----6-6-6--6-6-6-------------------------------------------|
D|---6--6--6-----7-7-7--7-7-7-------------------------------------------|x2
A|---4--4--4------------------------------------------------------------|
E|----------------------------------------------------------------------|
Guitar 2:
e|-------------------------------------------------------------------|
B|--55555555---5-5-5-5-4-4-4-4---------------------------------------|
G|-------------------------------------------------------------------|
D|-------------------------------------------------------------------|
A|-------------------------------------------------------------------|
E|-------------------------------------------------------------------|

e|---0-----0------------------------------------------------------------|
B|---0--0--0---0-0-0----------------------------------------------------|
G|---1--1--1---2-2-2-1--------------------------------------------------|
D|---2--2--2---2-2-2-2-4-2----------------------------------------------|x2
A|---2--2--2------------------------------------------------------------|
E|---0-----0------------------------------------------------------------|

Guitar 1:
e|----------------------------------------------------------------------|
B|---5--5--5-----5-5-5--4-4-4-------------------------------------------|
G|---6--6--6-----6-6-6--6-6-6-------------------------------------------|
D|---6--6--6-----7-7-7--7-7-7-------------------------------------------|x2
A|---4--4--4------------------------------------------------------------|
E|----------------------------------------------------------------------|
Guitar 2:
e|-------------------------------------------------------------------|
B|--55555555----5-5-5-5-4-4-4-4--------------------------------------|
G|-------------------------------------------------------------------|
D|-------------------------------------------------------------------|
A|-------------------------------------------------------------------|
E|-------------------------------------------------------------------|

Chorus 2: (I wanna know, I wanna hold) (2x Guitars)
Guitar 1:
e|-----------------------------------------------------------------------|
B|--------------------------------55555555-----------55555555------------|
G|--44444444-55555555---11111111--55555555--44444444-55555555------------|
D|--55555555-77777777---22222222--55555555--55555555-55555555------------|
A|--55555555-77777777---22222222--33333333--55555555-33333333------------|
E|--33333333-55555555---00000000------------33333333---------------------|
Guitar 2:
e|-----------------------------------------------------------------------|
B|-----------------------------------------------------------------------|
G|--2h4p2----2h4p2------2h4p2------2h4p2------2h4p2-----2h4p2------------|
D|-------5p2-------5p2--------5p2--------5p2--------5p2-------5p2--------|
A|-----------------------------------------------------------------------|
E|-----------------------------------------------------------------------|

Guitar 1:
e|----------------------------------------------------------------------|
B|---5--5--5-----5-5-5--4-4-4-------------------------------------------|
G|---6--6--6-----6-6-6--6-6-6-------------------------------------------|
D|---6--6--6-----7-7-7--7-7-7-------------------------------------------|x2
A|---4--4--4------------------------------------------------------------|
E|----------------------------------------------------------------------|
Guitar 2:
e|-------------------------------------------------------------------|
B|--55555555----5-5-5-5-4-4-4-4--------------------------------------|
G|-------------------------------------------------------------------|
D|-------------------------------------------------------------------|
A|-------------------------------------------------------------------|
E|-------------------------------------------------------------------|

Guitar 1:
e|-----------------------------------------------------------------------|
B|--------------------------------55555555-----------55555555------------|
G|--44444444-55555555---11111111--55555555--44444444-55555555------------|
D|--55555555-77777777---22222222--55555555--55555555-55555555------------|
A|--55555555-77777777---22222222--33333333--55555555-33333333------------|
E|--33333333-55555555---00000000------------33333333---------------------|
Guitar 2:
e|-----------------------------------------------------------------------|
B|-----------------------------------------------------------------------|
G|--2h4p2----2h4p2------2h4p2------2h4p2------2h4p2-----2h4p2------------|
D|-------5p2-------5p2--------5p2--------5p2--------5p2-------5p2--------|
A|-----------------------------------------------------------------------|
E|-----------------------------------------------------------------------|

Guitar 1 (Lead):
e|-------------------------------------------------------------------|
B|--55555555-77777777-99999999-10101010-9-7-5------------------------|
G|-------------------------------------------------------------------|
D|-------------------------------------------------------------------|
A|-------------------------------------------------------------------|
E|-------------------------------------------------------------------|
Guitar 2 (Rhythym):
e|----------------------------------------------------------------------|
B|---5--5--5-----5-5-5--4-4-4-------------------------------------------|
G|---6--6--6-----6-6-6--6-6-6-------------------------------------------|
D|---6--6--6-----7-7-7--7-7-7-------------------------------------------|x2
A|---4--4--4------------------------------------------------------------|
E|----------------------------------------------------------------------|

Solo
Guitar 1 (lead):
e|----0-0-0-0-0-0-0-0--0-0-0-0-0-0-0-0-----0-0-0-0-0-0-0-0-0-0-0-0-0-0-0-0-|
B|---101010-9-9-9-9-9-101010-9-9-9-9-9-7--12121212121212121212121212121212-|
G|---------------------------------------9---------------------------------|
D|-------------------------------------------------------------------------|
A|-------------------------------------------------------------------------|
E|-------------------------------------------------------------------------|
Guitar 2 (rhythym):
e|---0-----0--------------------0-----0--------------------------------|
B|---0--0--0---0-0-0------------0--0--0---0-0-0------------------------|
G|---1--1--1---2-2-2-1----------1--1--1---2-2-2-1----------------------|
D|---2--2--2---2-2-2-2-4-2------2--2--2---2-2-2-2-4-2------------------|
A|---2--2--2--------------------2--2--2--------------------------------|
E|---0-----0--------------------0-----0--------------------------------|
Guitar 1 (lead):
e|-------------------------------------------------------------------------|
B|-9-9-9-9h10p907--9h10p907--9h10p907--9h10p907-9----12-12-12-12-12-12--12-|
G|-9-9-9------------------------------------------9--15-bu-17-17-17-17bd15-|
D|-------------------------------------------------------------------------|
A|-------------------------------------------------------------------------|
E|-------------------------------------------------------------------------|
Guitar 2 (rhythym):
e|---0-----0--------------------0-----0--------------------------------|
B|---0--0--0---0-0-0------------0--0--0---0-0-0------------------------|
G|---1--1--1---2-2-2-1----------1--1--1---2-2-2-1----------------------|
D|---2--2--2---2-2-2-2-4-2------2--2--2---2-2-2-2-4-2------------------|
A|---2--2--2--------------------2--2--2--------------------------------|
E|---0-----0--------------------0-----0--------------------------------|

Interlude: (Thunderstorms and summer rain...)
Note: Heavily palm mute, alternate strokes (down up) staccato.
e|-------------------------------------------------------------------------|
B|--------------------------------------------------------4---4---4---4----|
G|-----4---4---4---4----5---5---5---5----4---4---4---4--5-5-5-5-5-5-5-5----|
D|---5-5-5-5-5-5-5-5--7-7-7-7-7-7-7-7--6-6-6-6-6-6-6-6--5-5-5-5-5-5-5-5----|
A|---5-5-5-5-5-5-5-5--7-7-7-7-7-7-7-7--6-6-6-6-6-6-6-6--3---3---3---3------|
E|---3---3---3---3----5---5---5---5----4---4---4---4-----------------------|

e|-------------------------------------------------------------------------|
B|-----2---2---2---2--------------------2---2---2---2----------------------|
G|---2-2-2-2-2-2-2-2---2---2---2---2--2-2-2-2-2-2-2-2----2---2---2---2-----|
D|---2-2-2-2-2-2-2-2-4-4-4-4-4-4-4-4--2-2-2-2-2-2-2-2--4-4-4-4-4-4-4-4-----|
A|---0---0---0---0---4-4-4-4-4-4-4-4--0---0---0---0----4-4-4-4-4-4-4-4-----|
E|-------------------2---2---2---2---------------------2---2---2---2-------|

e|-------------------------------------------------------------------------|
B|--------------------------------------------------------4---4---4---4----|
G|-----4---4---4---4----5---5---5---5----4---4---4---4--5-5-5-5-5-5-5-5----|
D|---5-5-5-5-5-5-5-5--7-7-7-7-7-7-7-7--6-6-6-6-6-6-6-6--5-5-5-5-5-5-5-5----|
A|---5-5-5-5-5-5-5-5--7-7-7-7-7-7-7-7--6-6-6-6-6-6-6-6--3---3---3---3------|
E|---3---3---3---3----5---5---5---5----4---4---4---4-----------------------|

e|-------------------------------------------------------------------------|
B|-----2---2---2---2--------------------2---2---2---2----------------------|
G|---2-2-2-2-2-2-2-2---2---2---2---2--2-2-2-2-2-2-2-2----2---2---2---2-----|
D|---2-2-2-2-2-2-2-2-4-4-4-4-4-4-4-4--2-2-2-2-2-2-2-2--4-4-4-4-4-4-4-4-----|
A|---0---0---0---0---4-4-4-4-4-4-4-4--0---0---0---0----4-4-4-4-4-4-4-4-----|
E|-------------------2---2---2---2---------------------2---2---2---2-------|

Guitar 1:
e|-------------------------------------------------------------------------|
B|-----2---2---2---2--------------------2---2---2---2----------------------|
G|---2-2-2-2-2-2-2-2---2---2---2---2--2-2-2-2-2-2-2-2----2---2---2---2-----|
D|---2-2-2-2-2-2-2-2-4-4-4-4-4-4-4-4--2-2-2-2-2-2-2-2--4-4-4-4-4-4-4-4-----|
A|---0---0---0---0---4-4-4-4-4-4-4-4--0---0---0---0----4-4-4-4-4-4-4-4-----|
E|-------------------2---2---2---2---------------------2---2---2---2-------|
Guitar 2:
e|-------------------------------------------------------------------------|
B|-------------------------------------------------------------------------|
G|---1h2-----1h2-----1h2-----1h2-----1h2-----1h2-----1h2-----1h2-----------|
D|-------6p2-----6p2-----6p2-----6p2-----6p2-----6p2-----6p2-----6p2-------|
A|-------------------------------------------------------------------------|
E|-------------------------------------------------------------------------|

e|----0----0----0----------------------------------------------------------|
B|----0----0----0----0-0-0-------------------------------------------------|
G|-xx-1-xx-2-xx-1----2-2-2-1-----------------------------------------------|
D|-xx-2-xx-2-xx-2----2-2-2-2-4-2-------------------------------------------|
A|-xx-2-xx-0-xx-2----------------------------------------------------------|
E|----0---------0----------------------------------------------------------|

e|---0-----0------------------------------------------------------------|
B|---0--0--0---0-0-0----------------------------------------------------|
G|---1--1--1---2-2-2-1--------------------------------------------------|
D|---2--2--2---2-2-2-2-4-2----------------------------------------------|x2
A|---2--2--2------------------------------------------------------------|
E|---0-----0------------------------------------------------------------|

Verse 3:
Guitar 1:
e|----------------------------------------------------------------------|
B|---5--5--5-----5-5-5--4-4-4-------------------------------------------|
G|---6--6--6-----6-6-6--6-6-6-------------------------------------------|
D|---6--6--6-----7-7-7--7-7-7-------------------------------------------|x2
A|---4--4--4------------------------------------------------------------|
E|----------------------------------------------------------------------|
Guitar 2:
e|-------------------------------------------------------------------|
B|--55555555----5-5-5-5-4-4-4-4--------------------------------------|
G|-------------------------------------------------------------------|
D|-------------------------------------------------------------------|
A|-------------------------------------------------------------------|
E|-------------------------------------------------------------------|

e|---0-----0------------------------------------------------------------|
B|---0--0--0---0-0-0----------------------------------------------------|
G|---1--1--1---2-2-2-1--------------------------------------------------|
D|---2--2--2---2-2-2-2-4-2----------------------------------------------|x2
A|---2--2--2------------------------------------------------------------|
E|---0-----0------------------------------------------------------------|

Guitar 1:
e|----------------------------------------------------------------------|
B|---5--5--5-----5-5-5--4-4-4-------------------------------------------|
G|---6--6--6-----6-6-6--6-6-6-------------------------------------------|
D|---6--6--6-----7-7-7--7-7-7-------------------------------------------|x2
A|---4--4--4------------------------------------------------------------|
E|----------------------------------------------------------------------|
Guitar 2:
e|-------------------------------------------------------------------|
B|--55555555----5-5-5-5-4-4-4-4--------------------------------------|
G|-------------------------------------------------------------------|
D|-------------------------------------------------------------------|
A|-------------------------------------------------------------------|
E|-------------------------------------------------------------------|

Chorus 3: (I wanna know, I wanna hold) (2x Guitars)
Guitar 1:
e|-----------------------------------------------------------------------|
B|--------------------------------55555555-----------55555555------------|
G|--44444444-55555555---11111111--55555555--44444444-55555555------------|
D|--55555555-77777777---22222222--55555555--55555555-55555555------------|
A|--55555555-77777777---22222222--33333333--55555555-33333333------------|
E|--33333333-55555555---00000000------------33333333---------------------|
Guitar 2:
e|-----------------------------------------------------------------------|
B|-----------------------------------------------------------------------|
G|--2h4p2----2h4p2------2h4p2------2h4p2------2h4p2-----2h4p2------------|
D|-------5p2-------5p2--------5p2--------5p2--------5p2-------5p2--------|
A|-----------------------------------------------------------------------|
E|-----------------------------------------------------------------------|

Guitar 1:
e|----------------------------------------------------------------------|
B|---5--5--5-----5-5-5--4-4-4-------------------------------------------|
G|---6--6--6-----6-6-6--6-6-6-------------------------------------------|
D|---6--6--6-----7-7-7--7-7-7-------------------------------------------|x2
A|---4--4--4------------------------------------------------------------|
E|----------------------------------------------------------------------|
Guitar 2:
e|-------------------------------------------------------------------|
B|--55555555----5-5-5-5-4-4-4-4--------------------------------------|
G|-------------------------------------------------------------------|
D|-------------------------------------------------------------------|
A|-------------------------------------------------------------------|
E|-------------------------------------------------------------------|

Guitar 1:
e|-----------------------------------------------------------------------|
B|--------------------------------55555555-----------55555555------------|
G|--44444444-55555555---11111111--55555555--44444444-55555555------------|
D|--55555555-77777777---22222222--55555555--55555555-55555555------------|
A|--55555555-77777777---22222222--33333333--55555555-33333333------------|
E|--33333333-55555555---00000000------------33333333---------------------|
Guitar 2:
e|-----------------------------------------------------------------------|
B|-----------------------------------------------------------------------|
G|--2h4p2----2h4p2------2h4p2------2h4p2------2h4p2-----2h4p2------------|
D|-------5p2-------5p2--------5p2--------5p2--------5p2-------5p2--------|
A|-----------------------------------------------------------------------|
E|-----------------------------------------------------------------------|

Guitar 1 (Lead):
e|-------------------------------------------------------------------------|
B|--5-5-5-5-5-5-5-5-7-7-7-7-7-7-7-7-9-9-9-9-9-9-9-9-1010101010101010-------|
G|-------------------------------------------------------------------------|
D|-------------------------------------------------------------------------|
A|-------------------------------------------------------------------------|
E|-------------------------------------------------------------------------|
Guitar 2 (Rhythym):
e|---0-----0------------------------------------------------------------|
B|---0--0--0---0-0-0----------------------------------------------------|
G|---1--1--1---2-2-2-1--------------------------------------------------|
D|---2--2--2---2-2-2-2-4-2----------------------------------------------|x2
A|---2--2--2------------------------------------------------------------|
E|---0-----0------------------------------------------------------------|

Guitar 1 (Lead):
e|-------------------------------------------------------------------------|
B|-1212121212121212-1414141414141414-1616161616161616-1717171717171717-----|
G|-------------------------------------------------------------------------|
D|-------------------------------------------------------------------------|
A|-------------------------------------------------------------------------|
E|-------------------------------------------------------------------------|
Guitar 2 (Rhythym):
e|---0-----0------------------------------------------------------------|
B|---0--0--0---0-0-0----------------------------------------------------|
G|---1--1--1---2-2-2-1--------------------------------------------------|
D|---2--2--2---2-2-2-2-4-2----------------------------------------------|x2
A|---2--2--2------------------------------------------------------------|
E|---0-----0------------------------------------------------------------|

Interlude:
(She Can't be owned)
e|---0-----0------------------------------------------------------------|
B|---0--0--0---0-0-0----------------------------------------------------|
G|---1--1--1---2-2-2-1--------------------------------------------------|
D|---2--2--2---2-2-2-2-4-2----------------------------------------------|x4
A|---2--2--2------------------------------------------------------------|
E|---0-----0------------------------------------------------------------|

Outro:
e|----------------------------------------------------------------------|
B|----------------------------------------------------------------------|
G|--4-4-4-4-4-4-4-4-2-2-2-1-2-1-2-1-1-1-1-1-1-1-1-1---------------------|
D|--------------------------------------------------4-4-4-2-4-2-4-2-----|
A|----------------------------------------------------------------------|
E|----------------------------------------------------------------------|

e|----------------------------------------------------------------------|
B|----------------------------------------------------------------------|
G|--4-4-4-4-4-4-4-4-2-2-2-1-2-1-2-1-1-1-1-1-1-1-1-1-2-2-2-1-2-1-2-1-----|
D|----------------------------------------------------------------------|
A|----------------------------------------------------------------------|
E|----------------------------------------------------------------------|

e|----------------------------------------------------------------------|
B|----------------------------------------------------------------------|
G|--4-4-4-4-4-4-4-4-6-6-6-4-6-4-6-4-4-4-4-4-4-4-4-4-6-6-6-4-6-4-6-4-----|
D|----------------------------------------------------------------------|
A|----------------------------------------------------------------------|
E|----------------------------------------------------------------------|

e|----------------------------------------------------------------------|
B|----------------------------------------------------------------------|
G|---9-9-9-9-9-9-9-9-9-9-9-9-9-11-9-8-9-9-9-9-9-9-9-9-9-9-9-9-9-11-9-8--|
D|----------------------------------------------------------------------|
A|----------------------------------------------------------------------|
E|----------------------------------------------------------------------|
End Chord
e|----------------------------------|
B|----------------------------------|
G|--9-------------------------------|
D|--9-------------------------------|
A|--7-------------------------------|
E|----------------------------------|

Well it's quite long so there's probably a few errors, but I think it's pretty tight.
outro sounds a bit weak withuot the band, so you can incorporate the chord pattern and play:

Alternate Outro:
e|----------------------------------------------------------------------|
B|----------------------------------------------------------------------|
G|--4-4-4-4-4-4-4-4-2-2-2-1-2-1-2-1-1-1-1-1-1-1-1-1---------------------|
D|--2-2-2-2-2-2-2-2-2-2-2-2-2-2-2-2-2-2-2-2-2-2-2-2-4-4-4-2-4-2-4-2-----|
A|--------------------------------------------------2-2-2-0-2-0-2-0-----|
E|----------------------------------------------------------------------|

e|----------------------------------------------------------------------|
B|----------------------------------------------------------------------|
G|--4-4-4-4-4-4-4-4-2-2-2-1-2-1-2-1-1-1-1-1-1-1-1-1-2-2-2-1-2-1-2-1-----|
D|--2-2-2-2-2-2-2-2-2-2-2-2-2-2-2-2-2-2-2-2-2-2-2-2-2-2-2-2-2-2-2-2-----|
A|----------------------------------------------------------------------|
E|----------------------------------------------------------------------|

e|----------------------------------------------------------------------|
B|----------------------------------------------------------------------|
G|--4-4-4-4-4-4-4-4-6-6-6-4-6-4-6-4-4-4-4-4-4-4-4-4-6-6-6-4-6-4-6-4-----|
D|--2-2-2-2-2-2-2-2-7-7-7-4-7-4-7-4-2-2-2-2-2-2-2-2-7-7-7-4-7-4-7-4-----|
A|----------------------------------------------------------------------|
E|----------------------------------------------------------------------|

e|----------------------------------------------------------------------|
B|----------------------------------------------------------------------|
G|---9-9-9-9-9-9-9-9-9-9-9-9-9-11-9-8-9-9-9-9-9-9-9-9-9-9-9-9-9-11-9-8--|
D|---9-9-9-9-9-9-9-9-9-9-9-9-9-9--9-9-9-9-9-9-9-9-9-9-9-9-9-9-9-9--9-9--|
A|---7-7-7-7-7-7-7-7-7-7-7-7-7-7--7-7-7-7-7-7-7-7-7-7-7-7-7-7-7-7--7-7--|
E|----------------------------------------------------------------------|
End Chord
e|----------------------------------|
B|--9-------------------------------|
G|--9-------------------------------|
D|--9-------------------------------|
A|--7-------------------------------|
E|----------------------------------|

As always, all comments ratings and e-mails are welcome.

| /  slide up
| \  slide down
| h  hammer-on
| p  pull-off
| ~  vibrato
| +  harmonic
| x  Mute note
============================================================================
comments
We did not receive enough feedback on this tab! Please rate:
print report bad tab
1 2 3 4 5
I want to post or [tab]
guest
You may want to rate the tab now too:
select rating
Please do not post tabs as comments. Select "correction" instead!