Oops, an error
Loading. Please wait.

Jazz 5 Tab

by Ash
845 views 3 this week
no commentswrite comment
1 2 3 4 5
please rate
add to favorites launch autoscroll
font size
0
reset
Autoscroll
+/-
esc
set tempo
stop
WARNING: You are trying to view
                                    content from Ultimate-Guitar.com
                                    in an unauthorized application,
                                    which is prohibited.

                                    Please use an official Ultimate
                                    Guitar Tabs application for iPhone,
                                    iPad or Android to access legitimate
                                    chords, guitar, bass, and drum tabs
                                    from Ultimate-Guitar.com database.

                                    Type "ultimate guitar tabs" in Apple
                                    App Store's or Android Market's
                                    search to find the application.
Jazz '59 (originaly Rick's Riff)

This is such a cool song to mess about with (would be great if
ash brought it back into their live set).  Though the tab isn't
that hard to play, it's hard to hear bits of it on the recording
(the guitar effect used sounds just like the piano). You'll have
to have the song playing along whilst you learn as the gtr rythems
constantly change.  If anyone can work out the piano parts that would be
fantastic (I've worked it out up to the part where the guitar comes in).
Also, if someone could work out the whistling parts............!?

I've set out the tab in sections (sections of the song) to make it easier.

I'll do the bass parts 1st.  There are two bass lines (I'll call them
b1 and b2).  They are played at different times so you bassists out there
will just have to listen to the CD for order of play.  If you are a
guitaristusing a pedal with a short record feature you can record b1
and play over that, only the ending will sound different.

b1
|---------------------------------------------------|
|---------------------------------------------------|
|--------7--7------------5--5---5--3--5--3--5-------|
|-5--5--------3--4--5-------------------------------|

b2
|----------------------------------------------------|
|----------------------------------------------------|
|--------7--7-------------5--5--7--7--8--8--10--10---|
|-5--5---------3--4--5-------------------------------|

Gtr
^=bend up then release
~=bend
(  ) = alternative to previous note
' = slight pause

Gtr introduction (after bass + piano)
|-----------------------------|
|-10--13--10-------10---------|
|--------------12-------------|
|-----------------------------|
|-----------------------------|
|-----------------------------|

|-------------------------------------------------|
|--10--13--10'--10'--10--10--8--------------------|
|------------------------------------8^--5--------|
|-------------------------------------------7-----|
|-------------------------------------------------|
|-------------------------------------------------|

|-------------------------------------|
|-------------------------------------|
|--------5'--------5--7---------------|
|-5--7-----5--7----------7--5---------|
|-------------------------------------|
|-------------------------------------|

|-------------------------------------------------------------------------|
|-------------------------------------------------------------------------|
|---------------------------------------------------5----5--8---8--5---5--|
|-5--7--5---------------5--then do a slow 5--7trill----7-----------------7|
|---------7--5--3--5--7---------------------------------------------------|
|-------------------------------------------------------------------------|

|------------------------------------------------------------------------|
|-10-(9~)-x7ish----------------------------------------------------------|
|-----------------9--7--5-(this varies after each set of 10's before it--|
|------------------------------------------------------------------------|
|------------------------------------------------------------------------|
|------------------------------------------------------------------------|
I couldn't quite make out what came after the 10's. This was the closest.
Play this sequence 4 times

|---------------------------------------------|
|---------------12--12--12--12--10--8---------|
|--5--5--5------------------------------------|
|---------------------------------------------|
|---------------------------------------------|
|---------------------------------------------|
Play the 12.......bit a lot faster (listen to the song)

|-12---12--11--10--8--10--8--10---10--10--12------10--8-----------|
|-10-----------------------------------------------------10--8----|
|-----------------------------------------------------------------|
|-----------------------------------------------------------------|
|-----------------------------------------------------------------|
|-----------------------------------------------------------------|

|----------------------------------------------------------|
|--10--8--------------------10--8--------8--10-------------|
|-----------9--7--5--7--5----------9--7--------------------|
|----------------------------------------------------------|
|----------------------------------------------------------|
|----------------------------------------------------------|

|---------------------------------------------12--10--8----------|
|-8--10--8--10--8--10--8--10-(played quiter)-------------10------|
|----------------------------------------------------------------|
|----------------------------------------------------------------|
|----------------------------------------------------------------|
|----------------------------------------------------------------|
Not too sure about the last 2 sections but near enough
The next section is hard to hear because of the piano but what I
put down seems to works

|---12(with a few bends thrown in)x6-12--12--12--17-17-15-15-|
|------------------------------------------------------------|
|------------------------------------------------------------|
|------------------------------------------------------------|
|------------------------------------------------------------|
|------------------------------------------------------------|

|-12(with a few bends thrown in)x6--12--12--12--12----------------------|(slide down the neck)
|-----------------------------------------------------------------------|
|-----------------------------------------------------------------------|
|-----------------------------------------------------------------------|
|-----------------------------------------------------------------------|
|-----------------------------------------------------------------------|

|----------------------------8-------------------|
|--------------------------------10---8----------|
|-7--9--7--9----7--9--7--------------------------|
|------------------------------------------------|
|------------------------------------------------|
|------------------------------------------------|

|-------------------------------------------------------------------|
|-8--10-8-----------------------------------------------------------|
|-----------9--7--5~------------------------------------------------|
|----------------------7--5-----------------------------------------|
|-----------------------------7'-(play next bit faster)-7--5--3-----|
|---------------------------------------------------------------5---|

Bass goes into distortion here
|----------8--------------------------------------8---|
|-10--10-----10--8--10'--10--10--10--10-----10--8-----|
|-----------------------------------------------------|
|-----------------------------------------------------|
|-----------------------------------------------------|
|-----------------------------------------------------|

|-------------------------------|
|--10--8------------------------|
|-----------9--7--5------5~-----|
|----------------------7--------|
|-------------------------------|
|-------------------------------|
I can't hear the gtr just after the 5~, see what you can do

|--------------------------------------------(faster)-10--10-10-8-10-10---|
|-------------------------------------------------------------------------|
|--5--5------5----5--7-8--7--5---5-----5----------------------------------|
|---------7-----7------------------7-----7--------------------------------|
|-------------------------------------------------------------------------|
|-------------------------------------------------------------------------|

|-12----12---14--12----------12----12-12--15-12--15--12--15--17---|
|------------------------15---------------------------------------|
|-----------------------------------------------------------------|
|-----------------------------------------------------------------|
|-----------------------------------------------------------------|
|-----------------------------------------------------------------|

|-17--15--12--15--14--12-------------------------|
|-------------------------------15--12--15--14---|
|------------------------------------------------|
|------------------------------------------------|
|------------------------------------------------|
|------------------------------------------------|

|---------------8---10--10--10--8-------|
|-10--8--10-------------------------10--|
|---------------------------------------|
|---------------------------------------|
|---------------------------------------|
|---------------------------------------|

Gtr goes into a lead distortion now

|--------------------------------------------------12--|
|----------------------------------10-10-10-10---------|
|------5-5--7-7--8-x3 then-----------------------------|
|-7-7--------------------------------------------------|
|------------------------------------------------------|
|------------------------------------------------------|

|-------------------------------------------------8---------------|
|----------------------------------8---8-10-trill---10-8----------|
|-----5-5-7-7-8-x2 then--9-9----9-------------------------9-7-----|
|-7-7--------------------------------------------------------10--5|
|-----------------------------------------------------------------|
|-----------------------------------------------------------------|
I think it sounds better, though, if you end on hitting the low 3
strings of an A bar-chord instead of the single note (5)

Sorry it's a bit patchy but you'll get the hang of it.

That's the badger!
comments
We did not receive enough feedback on this tab! Please rate:
1 2 3 4 5
I want to post or [tab]
guest
You may want to rate the tab now too:
select rating
Please do not post tabs as comments. Select "correction" instead!