Oops, an error
Loading. Please wait.

Joy Kicks Darkness Tab

by Ash
800 views 6 this week
2 commentsread comments
1 2 3 4 5
excellent!
x 2
add to favorites launch autoscroll
font size
0
reset
Autoscroll
+/-
esc
set tempo
stop
Contributor
WARNING: You are trying to view
                                    content from Ultimate-Guitar.com
                                    in an unauthorized application,
                                    which is prohibited.

                                    Please use an official Ultimate
                                    Guitar Tabs application for iPhone,
                                    iPad or Android to access legitimate
                                    chords, guitar, bass, and drum tabs
                                    from Ultimate-Guitar.com database.

                                    Type "ultimate guitar tabs" in Apple
                                    App Store's or Android Market's
                                    search to find the application.
-------------------------------------------------------------------------------
                             JOY KICKS DARKNESS - Ash
-------------------------------------------------------------------------------
Tabbed by: SnazzMaster
Email: snazzmaster@hotmail.co.uk

Tuning: Standard

INTRO (Palm Muted)

e|----------------------------------------------------------------------------------------------|
B|----------------------------------------------------------------------------------------------|
G|----------------------------------------------------------------------------------------------|
D|----------------------------------------------------------------------------------------------|
A|----------------------------------------------------------------------------------------------|
E|-3---3-3-3-3-3---3-3-3-3-3---3-3-3-3-3---3-3-3-3-0---0-0-0-0-0--0-0-0-0-0--0-0-0-0-0---0-0-0-0|

x6

CHORUS: It all kicks in...

e|---------------------------------------------------------------------------|
B|---------------------------------------------------------------------------|
G|-12-12-12-12-12-12-12-12-12-12-12-12-12-12-12-12---------------------------|
D|-12-12-12-12-12-12-12-12-12-12-12-12-12-12-12-12---------------------------|
A|-10-10-10-10-10-10-10-10-10-10-10-10-10-10-10-10---------------------------|
E|---------------------------------------------------------------------------|

e|---------------------------------------------------------------------------|
B|---------------------------------------------------------------------------|
G|-7-7-7-7-7-7-7-7-7-7-7-7-7-7-7-7---5-5-5-5-5-5-5-5-5-5-5-5-5-5-5-5---------|
D|-7-7-7-7-7-7-7-7-7-7-7-7-7-7-7-7---5-5-5-5-5-5-5-5-5-5-5-5-5-5-5-5---------|
A|-5-5-5-5-5-5-5-5-5-5-5-5-5-5-5-5---3-3-3-3-3-3-3-3-3-3-3-3-3-3-3-3---------|
E|---------------------------------------------------------------------------|

e|---------------------------------------------------------------------------|
B|---------------------------------------------------------------------------|
G|-12-12-12-12-12-12-12-12-12-12-12-12-12-12-12-12---------------------------|
D|-12-12-12-12-12-12-12-12-12-12-12-12-12-12-12-12---------------------------|
A|-10-10-10-10-10-10-10-10-10-10-10-10-10-10-10-10---------------------------|
E|---------------------------------------------------------------------------|   

That plays again in the background when the Lead Guitar comes in:

e|---------------------------------------------------------------------------|
B|---------------------------17-----17-15------------------------------------|
G|-16-----16-17-14-----14-16-------------------------------------------------|
D|---------------------------------------------------------------------------|
A|---------------------------------------------------------------------------|
E|---------------------------------------------------------------------------|

VERSE (Palm Muted)

"On the wind..."

e|--------------------------------------------------------------------------|
B|--------------------------------------------------------------------------|
G|--------------------------------------------------------------------------|
D|-5--5-5--4--4-4--10-10-10-10-10-10-9-7--7-7--12--12-12--14--14-14--13-13-13-|
A|-x--x-x--x--x-x--x--x--x--x--x--x--x-x--x-x--x---x--x---x---x--x---x--x-x-|
E|-3--3-3--2--2-2--8--8--8--8--8--8--7-5--5-5--10--10-10--12--12-12--11-11-11-|

e|--------------------------------------------------------------------------|
B|--------------------------------------------------------------------------|
G|--------------------------------------------------------------------------|
D|-10--10-10--10-10-10-9--7--7-7--12--12-12--14--14-14--13--13-13-----------|
A|-x---x--x---x--x--x--x--x--x-x--x---x--x---x---x--x---x---x--x------------|
E|-8---8--8---8--8--8--7--5--5-5--10--10-10--12--12-12--11--11-11-----------|

e|--------------------------------------------------------------------------|
B|--------------------------------------------------------------------------|
G|--------------------------------------------------------------------------|
D|-10--10-10--10-10-10-9--7--7-7--12--12-12---------------------------------|
A|-x---x--x---x--x--x--x--x--x-x--x---x--x----------------------------------|
E|-8---8--8---8--8--8--7--5--5-5--10--10-10---------------------------------|

"Take, my place..."

e|--------------------------------------------------------------------------|
B|--------------------------------------------------------------------------|
G|-5--5-5---5--5-5---7--7-7---7--7-7----------------------------------------|
D|-5--5-5---5--5-5---5--5-5---5--5-5----------------------------------------|
A|-3--3-3---3--3-3---5--5-5---5--5-5----------------------------------------|
E|--------------------------------------------------------------------------|

CHORUS

"Here we go..."

e|---------------------------------------------------------------------------|
B|---------------------------------------------------------------------------|
G|-12-12-12-12-12-12-12-12-12-12-12-12-12-12-12-12---------------------------|
D|-12-12-12-12-12-12-12-12-12-12-12-12-12-12-12-12---------------------------|
A|-10-10-10-10-10-10-10-10-10-10-10-10-10-10-10-10---------------------------|
E|---------------------------------------------------------------------------|

e|---------------------------------------------------------------------------|
B|---------------------------------------------------------------------------|
G|-7-7-7-7-7-7-7-7-7-7-7-7-7-7-7-7---5-5-5-5-5-5-5-5-5-5-5-5-5-5-5-5---------|
D|-7-7-7-7-7-7-7-7-7-7-7-7-7-7-7-7---5-5-5-5-5-5-5-5-5-5-5-5-5-5-5-5---------|
A|-5-5-5-5-5-5-5-5-5-5-5-5-5-5-5-5---3-3-3-3-3-3-3-3-3-3-3-3-3-3-3-3---------|
E|---------------------------------------------------------------------------|

e|---------------------------------------------------------------------------|
B|---------------------------------------------------------------------------|
G|-12-12-12-12-12-12-12-12-12-12-12-12-12-12-12-12---------------------------|
D|-12-12-12-12-12-12-12-12-12-12-12-12-12-12-12-12---------------------------|
A|-10-10-10-10-10-10-10-10-10-10-10-10-10-10-10-10---------------------------|
E|---------------------------------------------------------------------------|   

"Death and glory..."

e|---------------------------------------------------------------------------|
B|---------------------------------------------------------------------------|
G|-12-12-12-12-12-12-12-12-12-12-12-12-12-12-12-12---------------------------|
D|-12-12-12-12-12-12-12-12-12-12-12-12-12-12-12-12---------------------------|
A|-10-10-10-10-10-10-10-10-10-10-10-10-10-10-10-10---------------------------|
E|---------------------------------------------------------------------------|

e|---------------------------------------------------------------------------|
B|---------------------------------------------------------------------------|
G|-7-7-7-7-7-7-7-7-7-7-7-7-7-7-7-7---5-5-5-5-5-5-5-5-5-5-5-5-5-5-5-5---------|
D|-7-7-7-7-7-7-7-7-7-7-7-7-7-7-7-7---5-5-5-5-5-5-5-5-5-5-5-5-5-5-5-5---------|
A|-5-5-5-5-5-5-5-5-5-5-5-5-5-5-5-5---3-3-3-3-3-3-3-3-3-3-3-3-3-3-3-3---------|
E|---------------------------------------------------------------------------|

e|--------------------------------------------------------------------------|
B|--------------------------------------------------------------------------|
G|--------------------------------------------------------------------------|
D|-5-5-5-5-9-9-9-9-10-10-10-10-9-9-9-9-7-7-7-7-5-5-5-5-4-4-4-4-5-5-5-5------|
A|-x-x-x-x-x-x-x-x-x--x--x--x--x-x-x-x-x-x-x-x-x-x-x-x-x-x-x-x-x-x-x-x------|
E|-3-3-3-3-7-7-7-7-8--8--8--8--7-7-7-7-5-5-5-5-3-3-3-3-2-2-2-2-3-3-3-3------|

e|--------------------------------------------------------------------------|
B|--------------------------------------------------------------------------|
G|--------------------------------------------------------------------------|
D|-10-10-10-10-10-10-10-10-14--14--14--14--14--14--14--14--12--12-----------|
A|-x--x--x--x--x--x--x--x--x---x---x---x---x---x---x---x---x---x------------|
E|-8--8--8--8--8--8--8--8--12--12--12--12--12--12--12--12--10--10-----------|

e|--------------------------------------------------------------------------|
B|--------------------------------------------------------------------------|
G|--------------------------------------------------------------------------|
D|-xxxx-5-5-xxxx-5-5-xxxx-5-5-----------------------------------------------|
A|-xxxx-5-5-xxxx-5-5-xxxx-5-5-----------------------------------------------|
E|-xxxx-3-3-xxxx-3-3-xxxx-3-3-----------------------------------------------|

VERSE (Palm Muted)


"We can't wait..."

e|--------------------------------------------------------------------------|
B|--------------------------------------------------------------------------|
G|--------------------------------------------------------------------------|
D|-5--5-5--4--4-4--10-10-10-10-10-10-9-7--7-7--12--12-12--14--14-14--13-13-13-|
A|-x--x-x--x--x-x--x--x--x--x--x--x--x-x--x-x--x---x--x---x---x--x---x--x-x-|
E|-3--3-3--2--2-2--8--8--8--8--8--8--7-5--5-5--10--10-10--12--12-12--11-11-11-|

e|--------------------------------------------------------------------------|
B|--------------------------------------------------------------------------|
G|--------------------------------------------------------------------------|
D|-10--10-10--10-10-10-9--7--7-7--12--12-12--1------------------------------|
A|-x---x--x---x--x--x--x--x--x-x--x---x--x----------------------------------|
E|-8---8--8---8--8--8--7--5--5-5--10--10-10---------------------------------|


"Called, your name..."

e|--------------------------------------------------------------------------|
B|--------------------------------------------------------------------------|
G|-5--5-5---5--5-5---7--7-7---7--7-7----------------------------------------|
D|-5--5-5---5--5-5---5--5-5---5--5-5----------------------------------------|
A|-3--3-3---3--3-3---5--5-5---5--5-5----------------------------------------|
E|--------------------------------------------------------------------------|

CHORUS

"Here we go..."

e|---------------------------------------------------------------------------|
B|---------------------------------------------------------------------------|
G|-12-12-12-12-12-12-12-12-12-12-12-12-12-12-12-12---------------------------|
D|-12-12-12-12-12-12-12-12-12-12-12-12-12-12-12-12---------------------------|
A|-10-10-10-10-10-10-10-10-10-10-10-10-10-10-10-10---------------------------|
E|---------------------------------------------------------------------------|

e|---------------------------------------------------------------------------|
B|---------------------------------------------------------------------------|
G|-7-7-7-7-7-7-7-7-7-7-7-7-7-7-7-7---5-5-5-5-5-5-5-5-5-5-5-5-5-5-5-5---------|
D|-7-7-7-7-7-7-7-7-7-7-7-7-7-7-7-7---5-5-5-5-5-5-5-5-5-5-5-5-5-5-5-5---------|
A|-5-5-5-5-5-5-5-5-5-5-5-5-5-5-5-5---3-3-3-3-3-3-3-3-3-3-3-3-3-3-3-3---------|
E|---------------------------------------------------------------------------|

e|---------------------------------------------------------------------------|
B|---------------------------------------------------------------------------|
G|-12-12-12-12-12-12-12-12-12-12-12-12-12-12-12-12---------------------------|
D|-12-12-12-12-12-12-12-12-12-12-12-12-12-12-12-12---------------------------|
A|-10-10-10-10-10-10-10-10-10-10-10-10-10-10-10-10---------------------------|
E|---------------------------------------------------------------------------|   

"Death and glory..."

e|---------------------------------------------------------------------------|
B|---------------------------------------------------------------------------|
G|-12-12-12-12-12-12-12-12-12-12-12-12-12-12-12-12---------------------------|
D|-12-12-12-12-12-12-12-12-12-12-12-12-12-12-12-12---------------------------|
A|-10-10-10-10-10-10-10-10-10-10-10-10-10-10-10-10---------------------------|
E|---------------------------------------------------------------------------|

e|---------------------------------------------------------------------------|
B|---------------------------------------------------------------------------|
G|-7-7-7-7-7-7-7-7-7-7-7-7-7-7-7-7---5-5-5-5-5-5-5-5-5-5-5-5-5-5-5-5---------|
D|-7-7-7-7-7-7-7-7-7-7-7-7-7-7-7-7---5-5-5-5-5-5-5-5-5-5-5-5-5-5-5-5---------|
A|-5-5-5-5-5-5-5-5-5-5-5-5-5-5-5-5---3-3-3-3-3-3-3-3-3-3-3-3-3-3-3-3---------|
E|---------------------------------------------------------------------------|

e|--------------------------------------------------------------------------|
B|--------------------------------------------------------------------------|
G|--------------------------------------------------------------------------|
D|-5-5-5-5-9-9-9-9-10-10-10-10-9-9-9-9-7-7-7-7-5-5-5-5-4-4-4-4-5-5-5-5------|
A|-x-x-x-x-x-x-x-x-x--x--x--x--x-x-x-x-x-x-x-x-x-x-x-x-x-x-x-x-x-x-x-x------|
E|-3-3-3-3-7-7-7-7-8--8--8--8--7-7-7-7-5-5-5-5-3-3-3-3-2-2-2-2-3-3-3-3------|

e|--------------------------------------------------------------------------|
B|--------------------------------------------------------------------------|
G|--------------------------------------------------------------------------|
D|-10-10-10-10-10-10-10-10-14--14--14--14--14--14--14--14--12--12-----------|
A|-x--x--x--x--x--x--x--x--x---x---x---x---x---x---x---x---x---x------------|
E|-8--8--8--8--8--8--8--8--12--12--12--12--12--12--12--12--10--10-----------|

e|--------------------------------------------------------------------------|
B|--------------------------------------------------------------------------|
G|--------------------------------------------------------------------------|
D|-xxxx-5-5-xxxx-5-5-xxxx-5-5-----------------------------------------------|
A|-xxxx-5-5-xxxx-5-5-xxxx-5-5-----------------------------------------------|
E|-xxxx-3-3-xxxx-3-3-xxxx-3-3-----------------------------------------------|

e|--------------------------------------------------------------------------|
B|--------------------------------------------------------------------------|
G|--------------------------------------------------------------------------|
D|-5-5-5-5-9-9-9-9-10-10-10-10-9-9-9-9-7-7-7-7-5-5-5-5-4-4-4-4-5-5-5-5------|
A|-x-x-x-x-x-x-x-x-x--x--x--x--x-x-x-x-x-x-x-x-x-x-x-x-x-x-x-x-x-x-x-x------|
E|-3-3-3-3-7-7-7-7-8--8--8--8--7-7-7-7-5-5-5-5-3-3-3-3-2-2-2-2-3-3-3-3------|

e|--------------------------------------------------------------------------|
B|--------------------------------------------------------------------------|
G|--------------------------------------------------------------------------|
D|-10-10-10-10-10-10-10-10-14--14--14--14--14--14--14--14--12--12-----------|
A|-x--x--x--x--x--x--x--x--x---x---x---x---x---x---x---x---x---x------------|
E|-8--8--8--8--8--8--8--8--12--12--12--12--12--12--12--12--10--10-----------|

e|--------------------------------------------------------------------------|
B|--------------------------------------------------------------------------|
G|--------------------------------------------------------------------------|
D|-xxxx-5-5-xxxx-5-5-xxxx-5-5-----------------------------------------------|
A|-xxxx-5-5-xxxx-5-5-xxxx-5-5-----------------------------------------------|
E|-xxxx-3-3-xxxx-3-3-xxxx-3-3-----------------------------------------------|


QUIET CHORUS (Palm Muted)

"Here we go..."

e|---------------------------------------------------------------------------------|
B|---------------------------------------------------------------------------------|
G|-12----12----12----12----12----12----12----12---7---7---7---7---7---7---7---7----|
D|-12----12----12----12----12----12----12----12---7---7---7---7---7---7---7---7----|
A|----10----10----10----10----10----10----10---10---5---5---5---5---5---5---5---5--|
E|---------------------------------------------------------------------------------|

e|---------------------------------------------------------------------------------|
B|---------------------------------------------------------------------------12----|
G|-5---5---5---5---5---5---5---5---12----12----12----12----12----12----12-12-------|
D|-5---5---5---5---5---5---5---5---12----12----12----12----12----12----12----------|
A|---3---3---3---3---3---3---3---3----10----10----10----10----10----10-------------|
E|---------------------------------------------------------------------------------|

"Death and glory..."

e|---------------------------------------------------------------------------------|
B|---------------------------------------------------------------------------------|
G|-12----12----12----12----12----12----12----12---7---7---7---7---7---7---7---7----|
D|-12----12----12----12----12----12----12----12---7---7---7---7---7---7---7---7----|
A|----10----10----10----10----10----10----10---10---5---5---5---5---5---5---5---5--|
E|---------------------------------------------------------------------------------|

e|--------------------------------------------------------------------------|
B|--------------------------------------------------------------------------|
G|-5---5---5---5---5---5---5---5--------------------------------------------|
D|-5---5---5---5---5---5---5---5-----5-5-xxxx-5-5-xxxx-5-5-xxxx-5-5-5-5-----|
A|---3---3---3---3---3---3---3---3---5-5-xxxx-5-5-xxxx-5-5-xxxx-5-5-5-5-----|
E|-----------------------------------3-3-xxxx-3-3-xxxx-3-3-xxxx-3-3-3-3-----|

SOLO 

"Oh yeeeeeeeeah!"

e|--------------------------------------------------------------------------|
B|-12----12--12--12--12--12--12---------------------------------------------|
G|-14b---14b-14b-14b-14b-14b-14b--14--12--11--12-14-------------------------|
D|--------------------------------------------------------------------------|
A|--------------------------------------------------------------------------|
E|--------------------------------------------------------------------------|

e|--------------------------------------------------------------------------|
B|-12h15p12----12h15p12----12h15p12----12h15p12----12h15p12-----------------|
G|----------14----------14----------14----------14----------14--------------|
D|--------------------------------------------------------------------------|
A|--------------------------------------------------------------------------|
E|--------------------------------------------------------------------------|

e|--------------------------------------------------------------------------|
B|-12h15p12----12h15p12----12h15p12-----15b17r15----------------------------|
G|----------14----------14----------14--------------------------------------|
D|--------------------------------------------------------------------------|
A|--------------------------------------------------------------------------|
E|--------------------------------------------------------------------------|


e|--------------------------------------------------------------------------|
B|--------------------------------------------------------------------------|
G|-14-12--14b--b--b--b--b--14-12-14-12---14b-14b-14b-14b-14b-14b------------|
D|--------------------------------------------------------------------------|
A|--------------------------------------------------------------------------|
E|--------------------------------------------------------------------------|

e|-----------------------------------------------------------------------------------------15b17-15|
B|-------------------------------------------------------------------------------------------------|
G|-12h14p12-11-12-11----11-11-11h12p11----11h12-11-12--16b17-16-14-12-14-16b17-16-14-12-14---------|
D|-------------------14----------------14----------------------------------------------------------|
A|-------------------------------------------------------------------------------------------------|
E|-------------------------------------------------------------------------------------------------|

CHORUS

"Here we go..."

e|---------------------------------------------------------------------------|
B|---------------------------------------------------------------------------|
G|-12-12-12-12-12-12-12-12-12-12-12-12-12-12-12-12---------------------------|
D|-12-12-12-12-12-12-12-12-12-12-12-12-12-12-12-12---------------------------|
A|-10-10-10-10-10-10-10-10-10-10-10-10-10-10-10-10---------------------------|
E|---------------------------------------------------------------------------|

e|---------------------------------------------------------------------------|
B|---------------------------------------------------------------------------|
G|-7-7-7-7-7-7-7-7-7-7-7-7-7-7-7-7---5-5-5-5-5-5-5-5-5-5-5-5-5-5-5-5---------|
D|-7-7-7-7-7-7-7-7-7-7-7-7-7-7-7-7---5-5-5-5-5-5-5-5-5-5-5-5-5-5-5-5---------|
A|-5-5-5-5-5-5-5-5-5-5-5-5-5-5-5-5---3-3-3-3-3-3-3-3-3-3-3-3-3-3-3-3---------|
E|---------------------------------------------------------------------------|

e|---------------------------------------------------------------------------|
B|---------------------------------------------------------------------------|
G|-12-12-12-12-12-12-12-12-12-12-12-12-12-12-12-12---------------------------|
D|-12-12-12-12-12-12-12-12-12-12-12-12-12-12-12-12---------------------------|
A|-10-10-10-10-10-10-10-10-10-10-10-10-10-10-10-10---------------------------|
E|---------------------------------------------------------------------------|   

"Death and glory..."

e|---------------------------------------------------------------------------|
B|---------------------------------------------------------------------------|
G|-12-12-12-12-12-12-12-12-12-12-12-12-12-12-12-12---------------------------|
D|-12-12-12-12-12-12-12-12-12-12-12-12-12-12-12-12---------------------------|
A|-10-10-10-10-10-10-10-10-10-10-10-10-10-10-10-10---------------------------|
E|---------------------------------------------------------------------------|

e|---------------------------------------------------------------------------|
B|---------------------------------------------------------------------------|
G|-7-7-7-7-7-7-7-7-7-7-7-7-7-7-7-7---5-5-5-5-5-5-5-5-5-5-5-5-5-5-5-5---------|
D|-7-7-7-7-7-7-7-7-7-7-7-7-7-7-7-7---5-5-5-5-5-5-5-5-5-5-5-5-5-5-5-5---------|
A|-5-5-5-5-5-5-5-5-5-5-5-5-5-5-5-5---3-3-3-3-3-3-3-3-3-3-3-3-3-3-3-3---------|
E|---------------------------------------------------------------------------|

e|---------------------------------------------------------------------------|
B|---------------------------------------------------------------------------|
G|-12-12-12-12-12-12-12-12-12-12-12-12-12-12-12-12---------------------------|
D|-12-12-12-12-12-12-12-12-12-12-12-12-12-12-12-12---------------------------|
A|-10-10-10-10-10-10-10-10-10-10-10-10-10-10-10-10---------------------------|
E|---------------------------------------------------------------------------|

MORE SOLO

"Ohhh Yeeeeeeah!"

e|-17b---17b-17b-17b-17b-17b-17b-17b-17b---17--15--14-----------------------|
B|-----------------------------------------------------15-15-15-------------|
G|--------------------------------------------------------------------------|
D|--------------------------------------------------------------------------|
A|--------------------------------------------------------------------------|
E|--------------------------------------------------------------------------|

e|--------------------------------------------------------------------------|
B|-15b-15b-15b-15b-15b-15b-15b-15b--12----12-12-12b-12b-12b-12b-------------|
G|-------------------------------------14-----------------------------------|
D|--------------------------------------------------------------------------|
A|--------------------------------------------------------------------------|
E|--------------------------------------------------------------------------|

e|-19b-19b-19b-19b-19b-19b-19b-19b--17--15--14--15-17-19--------------------|
B|--------------------------------------------------------------------------|
G|--------------------------------------------------------------------------|
D|--------------------------------------------------------------------------|
A|--------------------------------------------------------------------------|
E|--------------------------------------------------------------------------|

e|-20b-20b-20b-20b-20b-20b-20b-20b--19-17-19-19-17-19-17-19-17-19b-17-------|
B|--------------------------------------------------------------------------|
G|--------------------------------------------------------------------------|
D|--------------------------------------------------------------------------|
A|--------------------------------------------------------------------------|
E|--------------------------------------------------------------------------|

e|--------------------------------------------------------------15-17-15----|
B|--------------------------------------------------------15-17-------------|
G|-12----12--12b-12b-12b--12-11----------11---12-14-16-17-------------------|
D|----14------------------------14-12-14------------------------------------|
A|--------------------------------------------^^^^^^^^^^^^^^^^^^^^^^^^^^----|
E|----------------------Bend/Release each of these last few notes slightly--|

Phew! That took a while. Please Rate :D


| /  slide up
| \  slide down
| h  hammer-on
| p  pull-off
| ~  vibrato
| +  harmonic
| x  Mute note
| b  bend 2 semi-tones (unless indicated otherwise)
===============================================================================
comments
We did not receive enough feedback on this tab! Please rate:
print report bad tab
1 2 3 4 5
2 comments total.
0 reply
Merc29 wrote on August 4 2010, 03:18 pm

AWESOME!!!!! Are you planning on tabbing any other Ash songs? ....please? You are brilliant! Thank you so much for such an excellent tab!!!

0 reply
karmapolice7 wrote on August 14 2010, 07:49 pm

Great tab man, thanks a lot

I want to post or [tab]
guest
You may want to rate the tab now too:
select rating
Please do not post tabs as comments. Select "correction" instead!