Oops, an error
Loading. Please wait.

Blue Train Tab

19,533 views 17 this week
1 commentread comment
1 2 3 4 5
excellent!
x 9
Autoscroll
+/-
esc
set tempo
stop
Contributor
Difficulty
intermediate
WARNING: You are trying to view
                                    content from Ultimate-Guitar.com
                                    in an unauthorized application,
                                    which is prohibited.

                                    Please use an official Ultimate
                                    Guitar Tabs application for iPhone,
                                    iPad or Android to access legitimate
                                    chords, guitar, bass, and drum tabs
                                    from Ultimate-Guitar.com database.

                                    Type "ultimate guitar tabs" in Apple
                                    App Store's or Android Market's
                                    search to find the application.
Blue Train
Asian Kung-Fu Generation

Tabbed by:
Toshiro

Tuning:
Lead Guitar: E-A-D-G-B-E
Rhythm Guitar: E-A-D-G-B-E

----------------------------------------------------------------------------

LEAD GUITAR

Intro (Clean)
|---------------------------------------------|
|---------------------------------------------|
|-8--8-8-----8--8-8-----8--8-8-----8--8-8-----|
|-9--9-9-----9--9-9-----9--9-9-----9--9-9-----|
|-7--7-7-----7--7-7-----7--7-7-----7--7-7-----|
|---------------------------------------------|

|---------------------------------------------|
|---------------------------------------------|
|-3--3-3-----3--3-3-----3--3-3-----3--3-3-----|
|-4--4-4-----4--4-4-----4--4-4-----4--4-4-----|
|-2--2-2-----2--2-2-----2--2-2-----2--2-2-----|
|---------------------------------------------|

|---------------------------------------------|
|---------------------------------------------|
|-8--8-8-----8--8-8-----8--8-8-----8--8-8-----|
|-9--9-9-----9--9-9-----9--9-9-----9--9-9-----|
|-7--7-7-----7--7-7-----7--7-7-----7--7-7-----|
|---------------------------------------------|

|---------------------------------------------|
|---------------------------------------------|
|-3--3-3-----3--3-3-----3--3-3-----3--3-3-----|
|-4--4-4-----4--4-4-----4--4-4-----4--4-4-----|
|-2--2-2-----2--2-2-----2--2-2-----2--2-2-----|
|---------------------------------------------|

|---------------------------------------------|
|---------------------------------------------|
|-8--8--8-8--8--8--8-8--8--8--8-8--8--8--8-8--|
|-9--9--9-9--9--9--9-9--9--9--9-9--9--9--9-9--|
|-7--7--7-7--7--7--7-7--7--7--7-7--7--7--7-7--|
|---------------------------------------------|

|---------------------------------------------|
|---------------------------------------------|
|-3--3--3-3--3--3--3-3--3--3--3-3--3--3--3-3--|
|-4--4--4-4--4--4--4-4--4--4--4-4--4--4--4-4--|
|-2--2--2-2--2--2--2-2--2--2--2-2--2--2--2-2--|
|---------------------------------------------|

|-----------------------------------------------------|
|-----------------------------------------------------|
|----8----8-------8----8-------8----8-------8----8----|
|------9----9-------9----9-------9----9-------9----9--|
|-7------------7------------7------------7------------|
|-----------------------------------------------------|

|-----------------------------------------------------|
|----0----0-------0----0-------0----0-------0----0----|
|------3----3-------3----3-------3----3-------3----3--|
|-----------------------------------------------------|
|-2------------2------------2------------2------------|
|-----------------------------------------------------|

Verse (x2, Clean)
|-----------------------------------------------------|
|-----------------------------------------------------|
|----8----8-------8----8-------8----8-------8----8----|
|------9----9-------9----9-------9----9-------9----9--|
|-7------------7------------7------------7------------|
|-----------------------------------------------------|

|-----------------------------------------------------|
|----0----0-------0----0-------0----0-------0----0----|
|------3----3-------3----3-------3----3-------3----3--|
|-----------------------------------------------------|
|-2------------2------------2------------2------------|
|-----------------------------------------------------|

Pre-Chorus (Clean)
|-----------------------------------------------------|
|----0----0-------0----0-------0----0-------0----0----|
|------3----3-------3----3-------3----3-------3----3--|
|-----------------------------------------------------|
|-4------------4------------4------------4------------|
|-----------------------------------------------------|

|-----------------------------------------------------|
|----0----0-------0----0-------0----0-------0----0----|
|------3----3-------3----3-------3----3-------3----3--|
|-2------------2------------2------------2------------|
|-----------------------------------------------------|
|-----------------------------------------------------|

Rhythm Figure (x2, Clean)
|---------------------------------------------|
|---------------------------------------------|
|-8--8-8-----8--8-8-----3--3-3-----3--3-3-----|
|-9--9-9-----9--9-9-----4--4-4-----4--4-4-----|
|-7--7-7-----7--7-7-----2--2-2-----2--2-2-----|
|---------------------------------------------|

Verse (x2, Clean)
|-----------------------------------------------------|
|-----------------------------------------------------|
|----8----8-------8----8-------8----8-------8----8----|
|------9----9-------9----9-------9----9-------9----9--|
|-7------------7------------7------------7------------|
|-----------------------------------------------------|

|-----------------------------------------------------|
|----0----0-------0----0-------0----0-------0----0----|
|------3----3-------3----3-------3----3-------3----3--|
|-4------------4------------4------------4------------|
|-----------------------------------------------------|
|-----------------------------------------------------|

Pre-Chorus (Clean)
|-----------------------------------------------------|
|----0----0-------0----0-------0----0-------0----0----|
|------3----3-------3----3-------3----3-------3----3--|
|-----------------------------------------------------|
|-4------------4------------4------------4------------|
|-----------------------------------------------------|

|-----------------------------------------------------|
|----0----0-------0----0-------0----0-------0----0----|
|------3----3-------3----3-------3----3-------3----3--|
|-2------------2------------2------------2------------|
|-----------------------------------------------------|
|-----------------------------------------------------|

Chorus (Distorted)
|-----11--11-11-----11--11-11-----11--11-11-----11--11-11-|
|-----12--12-12-----12--12-12-----12--12-12-----12--12-12-|
|-----11--11-11-----11--11-11-----11--11-11-----11--11-11-|
|---------------------------------------------------------|
|---------------------------------------------------------|
|---------------------------------------------------------|

|-----11--11-11-----11--11-11-----6--6-6-----6--6-6-|
|-----12--12-12-----12--12-12-----7--7-7-----7--7-7-|
|-----11--11-11-----11--11-11-----6--6-6-----6--6-6-|
|---------------------------------------------------|
|---------------------------------------------------|
|---------------------------------------------------|

|-----11--11-11-----11--11-11-----11--11-11-----11--11-11-|
|-----12--12-12-----12--12-12-----12--12-12-----12--12-12-|
|-----11--11-11-----11--11-11-----11--11-11-----11--11-11-|
|---------------------------------------------------------|
|---------------------------------------------------------|
|---------------------------------------------------------|

|-----11--11-11-----11--11-11-----6--6-6-----6--6-6-|
|-----12--12-12-----12--12-12-----7--7-7-----7--7-7-|
|-----11--11-11-----11--11-11-----6--6-6-----6--6-6-|
|---------------------------------------------------|
|---------------------------------------------------|
|---------------------------------------------------|

(Clean)
|--------------------------------------------------------------|
|-----0-------0-------0-------0-------0-------0-------0----4---|
|---3---3---3---3---3---3---3---3---3---3---3---3---3---3--4---|
|-2-------2-------1-------1--------------------------------4---|
|---------------------------------4-------4-------2------------|
|--------------------------------------------------------------|

Interlude (x9, Distorted)
|----------------------7--------|
|-5-x-x-4-x-x-5--7-x-x---x-x-7--|
|-------------------------------|
|-------------------------------|
|-------------------------------|
|-------------------------------|

Rhythm Figure (Clean)
|---------------------------------------------|
|---------------------------------------------|
|-8--8-8-----8--8-8-----3--3-3-----3--3-3-----|
|-9--9-9-----9--9-9-----4--4-4-----4--4-4-----|
|-7--7-7-----7--7-7-----2--2-2-----2--2-2-----|
|---------------------------------------------|

Chorus (Distorted)
|-----11--11-11-----11--11-11-----11--11-11-----11--11-11-|
|-----12--12-12-----12--12-12-----12--12-12-----12--12-12-|
|-----11--11-11-----11--11-11-----11--11-11-----11--11-11-|
|---------------------------------------------------------|
|---------------------------------------------------------|
|---------------------------------------------------------|

|-----11--11-11-----11--11-11-----6--6-6-----6--6-6-|
|-----12--12-12-----12--12-12-----7--7-7-----7--7-7-|
|-----11--11-11-----11--11-11-----6--6-6-----6--6-6-|
|---------------------------------------------------|
|---------------------------------------------------|
|---------------------------------------------------|

|-----11--11-11-----11--11-11-----11--11-11-----11--11-11-|
|-----12--12-12-----12--12-12-----12--12-12-----12--12-12-|
|-----11--11-11-----11--11-11-----11--11-11-----11--11-11-|
|---------------------------------------------------------|
|---------------------------------------------------------|
|---------------------------------------------------------|

|-----11--11-11-----11--11-11-----6--6-6-----6--6-6-|
|-----12--12-12-----12--12-12-----7--7-7-----7--7-7-|
|-----11--11-11-----11--11-11-----6--6-6-----6--6-6-|
|---------------------------------------------------|
|---------------------------------------------------|
|---------------------------------------------------|

(Clean)
|-------------------------------------------------------------|
|-----0-------0-------0-------0-------0-------0-------0-------|
|---3---3---3---3---3---3---3---3---3---3---3---3---3---3-----|
|-2-------2-------1-------1-----------------------------------|
|---------------------------------4-------4-------2--------2--|
|-------------------------------------------------------------|

Outro (Distorted)
|--------------------------------------------------------|
|----------16-------17-------19-------17-------16--------|
|----16-------16-------16-------16-------16-------16-----|
|-16----16-------16-------16-------16-------16-------16--|
|--------------------------------------------------------|
|--------------------------------------------------------|

|--------------------------------------------|
|----------16-------17----16----------16-----|
|-16----16----16-------------16----16--------|
|----16----------16----16-------16-----------|
|--------------------------------------------|
|--------------------------------------------|

----------------------------------------------------------------------

RHYTHM GUITAR

Intro (Distorted)
|-----11--11-11-----11--11-11-----11--11-11-----11--11-11-|
|-----12--12-12-----12--12-12-----12--12-12-----12--12-12-|
|-----11--11-11-----11--11-11-----11--11-11-----11--11-11-|
|---------------------------------------------------------|
|---------------------------------------------------------|
|---------------------------------------------------------|

|-----6--6-6-----6--6-6-----6--6-6-----6--6-6-|
|-----7--7-7-----7--7-7-----7--7-7-----7--7-7-|
|-----6--6-6-----6--6-6-----6--6-6-----6--6-6-|
|---------------------------------------------|
|---------------------------------------------|
|---------------------------------------------|

|-----11--11-11-----11--11-11-----11--11-11-----11--11-11-|
|-----12--12-12-----12--12-12-----12--12-12-----12--12-12-|
|-----11--11-11-----11--11-11-----11--11-11-----11--11-11-|
|---------------------------------------------------------|
|---------------------------------------------------------|
|---------------------------------------------------------|

|-----6--6-6-----6--6-6-----6--6-6-----6--6-6-|
|-----7--7-7-----7--7-7-----7--7-7-----7--7-7-|
|-----6--6-6-----6--6-6-----6--6-6-----6--6-6-|
|---------------------------------------------|
|---------------------------------------------|
|---------------------------------------------|

|-11--11--11-11--11--11--11-11--11--11--11-11--11--11--11-11--|
|-12--12--12-12--12--12--12-12--12--12--12-12--12--12--12-12--|
|-11--11--11-11--11--11--11-11--11--11--11-11--11--11--11-11--|
|-------------------------------------------------------------|
|-------------------------------------------------------------|
|-------------------------------------------------------------|

|-6--6--6-6--6--6--6-6--6--6--6-6--6--6--6-6--|
|-7--7--7-7--7--7--7-7--7--7--7-7--7--7--7-7--|
|-6--6--6-6--6--6--6-6--6--6--6-6--6--6--6-6--|
|---------------------------------------------|
|---------------------------------------------|
|---------------------------------------------|

|-----------------------------------------------------------------|
|-----------------------------------------------------------------|
|-8---------------8---------------8---------------8---------------|
|-9-9-9-9-9-9-9-9-9-9-9-9-9-9-9-9-9-9-9-9-9-9-9-9-9-9-9-9-9-9-9-9-|
|-7-7-7-7-7-7-7-7-7-7-7-7-7-7-7-7-7-7-7-7-7-7-7-7-7-7-7-7-7-7-7-7-|
|-----------------------------------------------------------------|
pm  ..............  ..............  ..............  ..............

|---------------------------------------------|
|---------------------------------------------|
|-3--3-3-----3--3-3-----3--3-3-----3--3-3-----|
|-4--4-4-----4--4-4-----4--4-4-----4--4-4-----|
|-2--2-2-----2--2-2-----2--2-2-----2--2-2-----|
|---------------------------------------------|

Verse (x2, Distorted)
|-----------------------------------------------------------------|
|-----------------------------------------------------------------|
|-8---------------8---------------8---------------8---------------|
|-9-9-9-9-9-9-9-9-9-9-9-9-9-9-9-9-9-9-9-9-9-9-9-9-9-9-9-9-9-9-9-9-|
|-7-7-7-7-7-7-7-7-7-7-7-7-7-7-7-7-7-7-7-7-7-7-7-7-7-7-7-7-7-7-7-7-|
|-----------------------------------------------------------------|
pm  ..............  ..............  ..............  ..............

|---------------------------------------------|
|---------------------------------------------|
|-3--3-3-----3--3-3-----3--3-3-----3--3-3-----|
|-4--4-4-----4--4-4-----4--4-4-----4--4-4-----|
|-2--2-2-----2--2-2-----2--2-2-----2--2-2-----|
|---------------------------------------------|

Pre-Chorus (Distorted)
|-----------------------------------------------------------------|
|-----------------------------------------------------------------|
|-6-6-6-6-6-6-6-6-6-6-6-6-6-6-6-6-6-6-6-6-6-6-6-6-6-6-6-6-6-6-6-6-|
|-6-6-6-6-6-6-6-6-6-6-6-6-6-6-6-6-6-6-6-6-6-6-6-6-6-6-6-6-6-6-6-6-|
|-4-4-4-4-4-4-4-4-4-4-4-4-4-4-4-4-4-4-4-4-4-4-4-4-4-4-4-4-4-4-4-4-|
|-----------------------------------------------------------------|

|---------------------------------------------------------------|
|---------------------------------------------------------------|
|-9-9-9-9-9-9-9-9-9-9-9-9-9-9-9-9-9-9-9-9-9-9-9-9-9-9-9-9-9-9-9-|
|-9-9-9-9-9-9-9-9-9-9-9-9-9-9-9-9-9-9-9-9-9-9-9-9-9-9-9-9-9-9-9-|
|-7-7-7-7-7-7-7-7-7-7-7-7-7-7-7-7-7-7-7-7-7-7-7-7-7-7-7-7-7-7-7-|
|---------------------------------------------------------------|

Rhythm Figure (x2, Distorted)
|-----11--11-11-----11--11-11-----6--6-6-----6--6-6-|
|-----12--12-12-----12--12-12-----7--7-7-----7--7-7-|
|-----11--11-11-----11--11-11-----6--6-6-----6--6-6-|
|---------------------------------------------------|
|---------------------------------------------------|
|---------------------------------------------------|

Verse (x2, Distorted)
|-----------------------------------------------------------------|
|-----------------------------------------------------------------|
|-8---------------8---------------8---------------8---------------|
|-9-9-9-9-9-9-9-9-9-9-9-9-9-9-9-9-9-9-9-9-9-9-9-9-9-9-9-9-9-9-9-9-|
|-7-7-7-7-7-7-7-7-7-7-7-7-7-7-7-7-7-7-7-7-7-7-7-7-7-7-7-7-7-7-7-7-|
|-----------------------------------------------------------------|
pm  ..............  ..............  ..............  ..............

|---------------------------------------------|
|---------------------------------------------|
|-3--3-3-----3--3-3-----3--3-3-----3--3-3-----|
|-4--4-4-----4--4-4-----4--4-4-----4--4-4-----|
|-2--2-2-----2--2-2-----2--2-2-----2--2-2-----|
|---------------------------------------------|

Pre-Chorus (Distorted)
|-----------------------------------------------------------------|
|-----------------------------------------------------------------|
|-6-6-6-6-6-6-6-6-6-6-6-6-6-6-6-6-6-6-6-6-6-6-6-6-6-6-6-6-6-6-6-6-|
|-6-6-6-6-6-6-6-6-6-6-6-6-6-6-6-6-6-6-6-6-6-6-6-6-6-6-6-6-6-6-6-6-|
|-4-4-4-4-4-4-4-4-4-4-4-4-4-4-4-4-4-4-4-4-4-4-4-4-4-4-4-4-4-4-4-4-|
|-----------------------------------------------------------------|

|-------------------------------------------------------------------------|
|-------------------------------------------------------------------------|
|-9-9-9-9-9-9-9-9-9-9-9-9-9-9-9-9-9-9-9-9-9-9-9-9-10-10-10-10-10-10-10-10-|
|-9-9-9-9-9-9-9-9-9-9-9-9-9-9-9-9-9-9-9-9-9-9-9-9-10-10-10-10-10-10-10-10-|
|-7-7-7-7-7-7-7-7-7-7-7-7-7-7-7-7-7-7-7-7-7-7-7-7-8--8--8--8--8--8--8--8--|
|-------------------------------------------------------------------------|

Chorus (Distorted)
|-----------------------------------------------------------------|
|-----------------------------------------------------------------|
|-9-9-9-9-9-9-9-9-9-9-9-9-9-9-9-9-8-8-8-8-8-8-8-8-8-8-8-8-8-8-8-8-|
|-9-9-9-9-9-9-9-9-9-9-9-9-9-9-9-9-9-9-9-9-9-9-9-9-9-9-9-9-9-9-9-9-|
|-7-7-7-7-7-7-7-7-7-7-7-7-7-7-7-7-6-6-6-6-6-6-6-6-6-6-6-6-6-6-6-6-|
|-----------------------------------------------------------------|

|-----------------------------------------------------------------|
|-----------------------------------------------------------------|
|-6-6-6-6-6-6-6-6-6-6-6-6-6-6-6-6-4-4-4-4-4-4-4-4-4-4-4-4-4-4-4-4-|
|-6-6-6-6-6-6-6-6-6-6-6-6-6-6-6-6-4-4-4-4-4-4-4-4-4-4-4-4-4-4-4-4-|
|-4-4-4-4-4-4-4-4-4-4-4-4-4-4-4-4-2-2-2-2-2-2-2-2-2-2-2-2-2-2-2-2-|
|-----------------------------------------------------------------|

|-----------------------------------------------------------------|
|-----------------------------------------------------------------|
|-9-9-9-9-9-9-9-9-9-9-9-9-9-9-9-9-8-8-8-8-8-8-8-8-8-8-8-8-8-8-8-8-|
|-9-9-9-9-9-9-9-9-9-9-9-9-9-9-9-9-9-9-9-9-9-9-9-9-9-9-9-9-9-9-9-9-|
|-7-7-7-7-7-7-7-7-7-7-7-7-7-7-7-7-6-6-6-6-6-6-6-6-6-6-6-6-6-6-6-6-|
|-----------------------------------------------------------------|

|-----------------------------------------------------------------|
|-----------------------------------------------------------------|
|-6-6-6-6-6-6-6-6-6-6-6-6-6-6-6-6-4-4-4-4-4-4-4-4-4-4-4-4-4-4-4-4-|
|-6-6-6-6-6-6-6-6-6-6-6-6-6-6-6-6-4-4-4-4-4-4-4-4-4-4-4-4-4-4-4-4-|
|-4-4-4-4-4-4-4-4-4-4-4-4-4-4-4-4-2-2-2-2-2-2-2-2-2-2-2-2-2-2-2-2-|
|-----------------------------------------------------------------|

|-----------------------------------------------------------------|
|-----------------------------------------------------------------|
|-9-9-9-9-9-9-9-9-9-9-9-9-9-9-9-9-8-8-8-8-8-8-8-8-8-8-8-8-8-8-8-8-|
|-9-9-9-9-9-9-9-9-9-9-9-9-9-9-9-9-9-9-9-9-9-9-9-9-9-9-9-9-9-9-9-9-|
|-7-7-7-7-7-7-7-7-7-7-7-7-7-7-7-7-6-6-6-6-6-6-6-6-6-6-6-6-6-6-6-6-|
|-----------------------------------------------------------------|

|-------------------------------------------------------|
|-------------------------------------------------------|
|-6-6-6-6-6-6-6-6-6-6-6-6-6-6-6-6-4-4-4-4-4-4-4-4-4-----|
|-6-6-6-6-6-6-6-6-6-6-6-6-6-6-6-6-4-4-4-4-4-4-4-4-4-----|
|-4-4-4-4-4-4-4-4-4-4-4-4-4-4-4-4-2-2-2-2-2-2-2-2-2-----|
|-------------------------------------------------------|

Interlude (x8, Distorted, start after Lead's 1st time)
|-------------------------------|
|-------------------------------|
|-9-x-x-8-x-x-6-x-x-4--4-4--4-4-|
|-9-x-x-9-x-x-6-x-x-4--4-4--4-4-|
|-7-x-x-6-x-x-4-x-x-2--2-2--2-2-|
|-------------------------------|

Rhythm Figure (Distorted)
|-----11--11-11-----11--11-11-----6--6-6-----6--6-6-|
|-----12--12-12-----12--12-12-----7--7-7-----7--7-7-|
|-----11--11-11-----11--11-11-----6--6-6-----6--6-6-|
|---------------------------------------------------|
|---------------------------------------------------|
|---------------------------------------------------|

Chorus (x3, Distorted)
|-----------------------------------------------------------------|
|-----------------------------------------------------------------|
|-9-9-9-9-9-9-9-9-9-9-9-9-9-9-9-9-8-8-8-8-8-8-8-8-8-8-8-8-8-8-8-8-|
|-9-9-9-9-9-9-9-9-9-9-9-9-9-9-9-9-9-9-9-9-9-9-9-9-9-9-9-9-9-9-9-9-|
|-7-7-7-7-7-7-7-7-7-7-7-7-7-7-7-7-6-6-6-6-6-6-6-6-6-6-6-6-6-6-6-6-|
|-----------------------------------------------------------------|

|-----------------------------------------------------------------|
|-----------------------------------------------------------------|
|-6-6-6-6-6-6-6-6-6-6-6-6-6-6-6-6-4-4-4-4-4-4-4-4-4-4-4-4-4-4-4-4-|
|-6-6-6-6-6-6-6-6-6-6-6-6-6-6-6-6-4-4-4-4-4-4-4-4-4-4-4-4-4-4-4-4-|
|-4-4-4-4-4-4-4-4-4-4-4-4-4-4-4-4-2-2-2-2-2-2-2-2-2-2-2-2-2-2-2-2-|
|-----------------------------------------------------------------|

Outro (Distorted)
|-----------------------------------------------------------------|
|-----------------------------------------------------------------|
|-9-9-9-9-9-9-9-9-9-9-9-9-9-9-9-9-8-8-8-8-8-8-8-8-8-8-8-8-8-8-8-8-|
|-9-9-9-9-9-9-9-9-9-9-9-9-9-9-9-9-9-9-9-9-9-9-9-9-9-9-9-9-9-9-9-9-|
|-7-7-7-7-7-7-7-7-7-7-7-7-7-7-7-7-6-6-6-6-6-6-6-6-6-6-6-6-6-6-6-6-|
|-----------------------------------------------------------------|

|-----------------------------------------------------|
|-----------------------------------------------------|
|-6-6-6-6-6-6-6-6-6-6-6-6-6-6-6-6-4-4-4-4-4-4-4-4-----|
|-6-6-6-6-6-6-6-6-6-6-6-6-6-6-6-6-4-4-4-4-4-4-4-4-----|
|-4-4-4-4-4-4-4-4-4-4-4-4-4-4-4-4-2-2-2-2-2-2-2-2-----|
|-----------------------------------------------------|
comments
print report bad tab
1 comment total.
0 reply
davidr.ythm94 wrote on August 30 2009, 03:35 am

is this really the chorus? music video shows guitarist playing different notes in chorus

I want to post or [tab]
guest
You may want to rate the tab now too:
select rating
Please do not post tabs as comments. Select "correction" instead!