Oops, an error
Loading. Please wait.

A Single Moment Of Sincerity Tab

ver2
ver2

Whole song

More versions @911Tabs.com
1,074 views 3 this week
no commentswrite comment
1 2 3 4 5
please rate
Autoscroll
+/-
esc
set tempo
stop
Contributor
Difficulty
Tuning
intermediate
D A D G B E
Hey! There's an official Ultimate Guitar app which is ideal
for learning songs when you're away from computer. Get the app
WARNING: You are trying to view
                                    content from Ultimate-Guitar.com
                                    in an unauthorized application,
                                    which is prohibited.

                                    Please use an official Ultimate
                                    Guitar Tabs application for iPhone,
                                    iPad or Android to access legitimate
                                    chords, guitar, bass, and drum tabs
                                    from Ultimate-Guitar.com database.

                                    Type "ultimate guitar tabs" in Apple
                                    App Store's or Android Market's
                                    search to find the application.
hey this is my version of a single moment of sincerity

this is a good song to learn as its fun to play but has some cool technics
in it hope iit helps

drop D tunning (D A D G B E)

intro

-------------------------------------------------------------|
-------------------------------------------------------------|
--------10-10-10-------10-10-10-------10-10-10-------9-9-9---|
--------x--x--x--------x--x--x--------x--x--x--------x-x-x---|
--0-0-0-8--8--8--0-0-0-8--8--8--0-0-0-8--8--8--0-0-0-7-7-7---|
--0-0-0----------0-0-0----------0-0-0----------0-0-0---------|

----------------------------------------------------------------|
----------------------------------------------------------------|
--------14-14-14-------14-14-14-------14-14-14-------12-12-12---|
--------x--x--x--------x--x--x--------x--x--x--------x--x--x----|
--0-0-0-12-12-12-0-0-0-12-12-12-0-0-0-12-12-12-0-0-0-10-10-10---|
--0-0-0----------0-0-0----------0-0-0----------0-0-0------------|

get on ur knees!

----------------------------------------------|
----------------------------------------------|
----------------------------------------------|
----------------------------------------------|
--0--0-0000--0-0-00-0000--0-0000--0-0-00-000--|
--0--0-0000--0-0-00-0000--0-0000--0-0-00-000--|

----------------------------------------------|
----------------------------------------------|
----------------------------------------------|
----------------------------------------------|
--0--0-0000-----00-0000--0-0000-------00-000--|
--1--1-1111-----11-1111--1-1111-------11-111--|

-----------------------------------------------|
-----------------------------------------------|
-----------------------------------------------|
--------------------------------------------0--|
--0--0-0000--0-0-00-0000--0-0000--0-0-00-0000--|
--0--0-0000--0-0-00-0000--0-0000--0-0-00-0000--|

techno/dance bit


---------|
--3-3-3--|
--2-2-2--|
--0-0-0--|
--0-0-0--|
---------|

-------------------------------------------------------------|
-------------------------------------------------------------|
-------------------------------------------------------------|
----------------------------5--------------------------------|
--5-7-8-7-5-7-8-7-5-7-8-7-8---8-7-5-7-8-7-5-7-8-7-5-7-8-7-0--|
---0-0-0-0-0-0-0-0-0-0-0-0-0-0-0-0-0-0-0-0-0-0-0-0-0-0-0--0--|

harmony
-------------------------------------------------------------|
-------------------------------------------------------------|
-------------------------------------------------------------|
----------------------------------3-5-7-5-3-5-7-5-3-5-7-5----|
----------------------------------------------------------0--|
-----------------------------------0-0-0-0-0-0-0-0-0-0-0--0--|


----------------------------------------------------------------|
----------------------------------------------------------------|
----------------------------------------------------------7*----|
------------------------------------------------------------7*--|
--5p0-7p0-8p0-7p0-5p0-7p0-000000-5p0-7p0-8p0-7p0-7h8-7h8--------|
--------------------------000000--------------------0---0-------|

harmony
---------------------------------------------------------------------------|
---------------------------------------------------------------------------|
---------------------------------------------------------------------7*----|
-----------------------------------------------------------------------7*--|
--8p0-10p0-12p0-10p0-8p0-10p0-000000-8p0-10p0-12p0-10p0-10h12-10h12--------|
------------------------------000000-------------------------0-----0-------|


-------------------|
-------------------|
-------------------|
-------------------|
--000-000-000-000--|
--000-000-000-000--|

guitar 1
---------------------------------------------------------|
------------5-5-----------------------5-5---------12-----|
------------8-8-----------------------8-8---------15-----|
----------------5p0-----7p5---------------5p0------------|
--000-3h5-----------8p7-----000-3h5-----------8p7--------|
--000-----0-----------------000-----0--------------------|

---------------------------------------------|
------------5-5-----------------------5-5----|
------------8-8-----------------------8-8----|
----------------5p0-----7p5------------------|
--000-3h5-----------8p7-----000-3h5----------|
--000-----0-----------------000-----0--------|

---------------------------------------------------------|
------------5-5-----------------------5-5---------12-----|
------------8-8-----------------------8-8---------15-----|
----------------5p0-----7p5---------------5p0------------|
--000-3h5-----------8p7-----000-3h5-----------8p7--------|
--000-----0-----------------000-----0--------------------|

---------------------------------------------------------|
------------5-5-----------------------5-5---------12-----|
------------8-8-----------------------8-8---------15-----|
----------------5p0-----7p5---------------5p0------------|
--000-3h5-----------8p7-----000-3h5-----------8p7--------|
--000-----0-----------------000-----0--------------------|

guitar 2

---------------------------------------------------------|
------------5-5-----------------------5-5---------12-----|
------------8-8-5p0-----7p0-----------8-8-5p0-----15-----|
--------------------8p7-----------------------8p7--------|
--000-8h7-------------------000-8p7----------------------|
--000-----0-----------------000-----0--------------------|

--------------------------------------------|
------------5-5-----------------------5-5---|
------------8-8-5p0-----7p0-----------8-8---|
--------------------8p7---------------------|
--000-8p7-------------------000-8p7---------|
--000-----0-----------------000-----0-------|

---------------------------------------------------------|
------------5-5-----------------------5-5---------12-----|
------------8-8-5p0-----7p0-----------8-8-5p0-----15-----|
--------------------8p7-----------------------8p7--------|
--000-8h7-------------------000-8p7----------------------|
--000-----0-----------------000-----0--------------------|

---------------------------------------------------------|
------------5-5-----------------------5-5---------12-----|
------------8-8-5p0-----7p0-----------8-8-5p0-----15-----|
--------------------8p7-----------------------8p7--------|
--000-8h7-------------------000-8p7----------------------|
--000-----0-----------------000-----0--------------------|

----------------------------------------------------------------|
----------------------------------------------------------------|
--------------5p0-7p0-7h8p7---------7h10p7-6h9p6-7h10p7-9h12p9--|
----------------------------------------------------------------|
--00000-00000---------------0-00000-----------------------------|
--00000-00000---------------0-00000-----------------------------|

---------------------------------------------------------|
---------------------------------------------------------|
--------------5p0-7p0-7h8p7------------------------------|
---------------------------------------------------------|
--00000-00000---------------0-00000----------------------|
--00000-00000---------------0-00000----------------------|

----------------------------------------------------------------|
----------------------------------------------------------------|
--------------5p0-7p0-7h8p7---------7h10p7-6h9p6-7h10p7-9h12p9--|
----------------------------------------------------------------|
--00000-00000---------------0-00000-----------------------------|
--00000-00000---------------0-00000-----------------------------|

---------------------------------------------------------|
---------------------------------------------------------|
--------------5p0-7p0-7h8p7------------------------------|
---------------------------------------------------------|
--00000-00000---------------0-00000----------------------|
--00000-00000---------------0-00000----------------------|

chorus
------------------------------|
------------------------------|
------------------------------|
--88888888-1010101010101010---|
--88888888-1010101010101010---|
--88888888-1010101010101010---|

--------------------------------------------|
--------------------------------------------|
--------------------------------------------|
--------------------------------------------|
----7h8-8p7-7h8-8p7-7h8---7h8-8p7-7h8-8p7---|
--00---0---0---0---0----00---0---0---0------|

------------------------------|
------------------------------|
------------------------------|
--88888888-1010101010101010---|
--88888888-1010101010101010---|
--88888888-1010101010101010---|

--------------------------------------------|
--------------------------------------------|
--------------------------------------------|
--------------------------------------------|
----7h8-8p7-7h8-8p7-7h8---7h8-8p7-7h8-8p7---|
--00---0---0---0---0----00---0---0---0------|

harmony
-------------------------------------------------------------------|
-------------------------------------------------------------------|
-------------------------------------------------------------------|
-------------------------------------------------------------------|
----10h12-12p10-10h12-12p10-10h12--10h12-12p10-10h12-12p10-10h12---|
--00-----0-----0-----0-----0-----00-----0-----0-----0-----0--------|

------------------------------|
------------------------------|
------------------------------|
--88888888-1010101010101010---|
--88888888-1010101010101010---|
--88888888-1010101010101010---|

guitar 1
---------------------------------------------------------|
--------------------6h8h10------------------6h8h10-------|
--------5h7h9--------------------5h7h9-------------------|
--5h7h9-------5h7h9--------5h7h9-------5h7h9-------------|
---------------------------------------------------------|
---------------------------------------------------------|

guitar 2
--------------------5h7h8--------------------5h7h8-------|
--------5h7h8--------------------5h7h8-------------------|
--4h5h7-------4h5h7--------4h5h7-------4h5h7-------------|
---------------------------------------------------------|
---------------------------------------------------------|
---------------------------------------------------------|

------------------------------|
------------------------------|
------------------------------|
--88888888-1010101010101010---|
--88888888-1010101010101010---|
--88888888-1010101010101010---|

--------------------------------------------------------------------|
--------------------------------------------------------------------|
--------------------------------------------------------------------|
----------0-----------------0-0----------0---------------------0-0--|
--0-0-0-0-0-0-000-0-0-0-0-0-0-0--0-0-0-0-0-0-000-000-0-0-0-0-0-0-0--|
--0-0-0-0-0-0-000-0-0-0-0-0-0-0--0-0-0-0-0-0-000-000-0-0-0-0-0-0-0--|

clean bit


---------------------------------------------------------------|
---------------------------------------------------------------|
---------------------------------------------------------------|
---------------------------------------------------------------|
--0-0-0-0-0-0-0-0-0-000-000-000-000-0-0-0-0-0-0-0-0-0-000-000--|
--0-0-0-0-0-0-0-0-0-000-000-000-000-0-0-0-0-0-0-0-0-0-000-000--|

----------------------------------------------------------------------|
----------------------------------------------------------------------|
----------------------------------------------------------------------|
----------------------------------------------------------------------|
--0-0-0-0-0-0-0-0-0-000-000-000-000-0-0-0-0-0-0-0-0-0-000-000-00------|
--0-0-0-0-0-0-0-0-0-000-000-000-000-0-0-0-0-0-0-0-0-0-000-000-0012/0--|

----------------------------------------------------------------------|
----------------------------------------------------------------------|
----------------------------------------------------------------------|
----------------------------------------------------------------------|
--0-0-0-0-0-0-0-0-0-000-000-000-000-0-0-0-0-0-0-0-0-0-000-000-00------|
--0-0-0-0-0-0-0-0-0-000-000-000-000-0-0-0-0-0-0-0-0-0-000-000-00------|

---------------------------------------------------------------------------|
---------------------------------------------------------------------------|
---------------------------------------------------------------------------|
------------------------------------------------------------------------0--|
--0-0-0-0-0-0-0-0-0-000-000-000-000-0-0-0-0-0-0-0-0-0-000-000-000-000-000--|
--0-0-0-0-0-0-0-0-0-000-000-000-000-0-0-0-0-0-0-0-0-0-000-000-000-000-000--|


that all hope it help any problems let us know :)
comments
We did not receive enough feedback on this tab! Please rate:
print report bad tab
1 2 3 4 5
I want to post or [tab]
guest
You may want to rate the tab now too:
select rating
Please do not post tabs as comments. Select "correction" instead!