Oops, an error
Loading. Please wait.

Bite Your Lip And Fake It Tab

6,431 views 18 this week
no commentswrite comment
1 2 3 4 5
excellent!
x 1
Autoscroll
+/-
esc
set tempo
stop
Contributor
Difficulty
Tuning
intermediate
D A D G B E
WARNING: You are trying to view
                                    content from Ultimate-Guitar.com
                                    in an unauthorized application,
                                    which is prohibited.

                                    Please use an official Ultimate
                                    Guitar Tabs application for iPhone,
                                    iPad or Android to access legitimate
                                    chords, guitar, bass, and drum tabs
                                    from Ultimate-Guitar.com database.

                                    Type "ultimate guitar tabs" in Apple
                                    App Store's or Android Market's
                                    search to find the application.
Intro/Chorus
Guitar 1
e---------------------------------|---------------------------------|
b---------------------------------|---------------------------------|
g---------------------------------|---------------------------------|
d-----------play 3 times----------|-----------4th time--------------|
a-0-0-0-0-8-8-8-8-7-7-7-7-7-7-7-7-|---0-0-0-0-8-8-8-8-7-7-7-7-/12\--|
d-0-0-0-0-8-8-8-8-7-7-7-7-7-7-7-7-|---0-0-0-0-8-8-8-8-7-7-7-7-/12\--|

e--------------------------------------------|
b--------------------------------------------|
g--------------------------------------------|
d-0-0-0-0-8-8-8-8-7-7-7-7-7-7-7-7---4x-------|
a-0-0-0-0-8-8-8-8-7-7-7-7-7-7-7-7------------|
d-0-0-0-0-8-8-8-8-7-7-7-7-7-7-7-7------------|

Guitar 2
e--------------------------------------------------------------------------|
b--------------------------------------------------------------------------|
g-10-10-10-10-10-10-10-10-10-12-12-12-10-10-10-10-10-10-10-10-10-9-9-9-----|
d-x--x--x--x--x--x--x--x--x--x--x--x--x--x--x--x--x--x--x--x--x--x-x-x-----|4x
a-8--8--8--8--8--8--8--8--8--10-10-10-8--8--8--8--8--8--8--8--8--7-7-7-----|
d--------------------------------------------------------------------------|


Verse 1/2
Guitar 1
e----------------------------|----------------|----------------------------|
b----------------------------|--------12-12-12|----------------------------|
g----------------------------|--------15-15-15|----------------------------|
d---------2h3p2p0-2h3-play 3x|----------------|--------2h3p2p0-2h3-play 3x-|
a-00-0-0---------------------|-00-0-0---------|-00-0-0---------------------|
d-00-0-0---------------------|-00-0-0---------|-00-0-0---------------------|
  .. . .                       .. . .           .. . .
e---------------|
b--------12-x-12|
g--------15-x-15|
d-----------x---|
a-00-0-0--------|
d-00-0-0--------|
  .. . .
Guitar 2
e----------------------------|----------------|----------------------------|
b----------------------------|---------4-4-4--|----------------------------|
g----------------------------|---------7-7-7--|----------------------------|
d---------2h3p2p0-2h3-play 3x|----------------|--------5h7p5-5h7---play 3x-|
a-00-0-0---------------------|-00-0-0---------|-00-0-0------8--------------|
d-00-0-0---------------------|-00-0-0---------|-00-0-0---------------------|
  .. . .                       .. . .           .. . .

e---------------|
b---------------|
g---------------|
d---------------|
a-00-0-0--------|
d-00-0-0--/12\--|
  .. . .
Verse Continued

Guitar 1
e----------------------------|----------------|----------------------------|
b----------------------------|--------12-12-12|----------------------------|
g----------------------------|--------15-15-15|----------------------------|
d---------2h3p2p0-2h3-play 3x|----------------|--------2h3p2p0-2h3-play----| 3x
a-00-0-0---------------------|-00-0-0---------|-00-0-0---------------------|
d-00-0-0---------------------|-00-0-0---------|-00-0-0---------------------|
  .. . .                       .. . .           .. . .
Ending Verse 1  Ending Verse 2
e-------------|----------------|
b-------------|----------------|
g-------------|----------------|
d-------------|----------------|
a-00-0-0-0----|-00-0-0-0~------|
d-00-0-0-0----|-00-0-0-0~------|
  .. . . .      .. . .
Guitar 2
e----------------------------|----------------|----------------------------|
b----------------------------|---------4-4-4--|----------------------------|
g----------------------------|---------7-7-7--|----------------------------|
d---------2h3p2p0-2h3-play 3x|----------------|--------5h7p5-5h7---play----| 3x
a-00-0-0---------------------|-00-0-0---------|-00-0-0------8--------------|
d-00-0-0---------------------|-00-0-0---------|-00-0-0---------------------|
  .. . .                       .. . .           .. . .
Ending Verse 1  Ending Verse 2
e-------------|----------------------------------|
b-------------|--------11------------------------| full bend and release
g-------------|----------------------------------|
d-------------|----------------------------------|
a-00-0-0------|-00-0-0---------------------------|
d-00-0-0-/12\-|-00-0-0---------------------------|
  .. . .        .. . .

Chorus (same as intro)
Guitar 1
e------------------------------------------------------|
b------------------------------------------------------|
g---------------------------------------Play-----------|
d-0-0-0-0-8-8-8-8-7-7-7-7-7-7-7-7------8 times---------|
a-0-0-0-0-8-8-8-8-7-7-7-7-7-7-7-7----------------------|
d-0-0-0-0-8-8-8-8-7-7-7-7-7-7-7-7----------------------|

Guitar 2
e--------------------------------------------------------------------------|
b--------------------------------------------------------------------------|
g-10-10-10-10-10-10-10-10-10-12-12-12-10-10-10-10-10-10-10-10-10-9-9-9-----|
d-x--x--x--x--x--x--x--x--x--x--x--x--x--x--x--x--x--x--x--x--x--x-x-x-----|4x
a-8--8--8--8--8--8--8--8--8--10-10-10-8--8--8--8--8--8--8--8--8--7-7-7-----|
d--------------------------------------------------------------------------|

Verse 2 (see above - different ending)

Chorus 2
Guitar 1
e------------------------------------------------------|
b------------------------------------------------------|
g---------------------------------------Play-----------|
d-0-0-0-0-8-8-8-8-7-7-7-7-7-7-7-7------4 times---------|
a-0-0-0-0-8-8-8-8-7-7-7-7-7-7-7-7----------------------|
d-0-0-0-0-8-8-8-8-7-7-7-7-7-7-7-7----------------------|

Guitar 2
e--------------------------------------------------------------------------|
b--------------------------------------------------------------------------|
g-10-10-10-10-10-10-10-10-10-12-12-12-10-10-10-10-10-10-10-10-10-9-9-9-----|
d-x--x--x--x--x--x--x--x--x--x--x--x--x--x--x--x--x--x--x--x--x--x-x-x-----|2x
a-8--8--8--8--8--8--8--8--8--10-10-10-8--8--8--8--8--8--8--8--8--7-7-7-----|
d--------------------------------------------------------------------------|


Bridge
singing my casualty
Guitars 1&2
e-------------------------------------------------------------------------|
b----------------6-6-6-6-6-6---------------7--7--7--7--7--7---------------|
g----------------9-9-9-9-9-9--------------10-10-10-10-10-10---------------|
d-------------------------------------------------------------------------|
a-00-0-0-00-0-0--------------00-0-0-00-0-0------------------00-0-0-00-0-0-|
d-00-0-0-00-0-0--------------00-0-0-00-0-0------------------00-0-0-00-0-0-|
  .. . . .. . .              .. . . .. . .                  .. . . .. . .
e----------------------------------------------------|
b--------6-6-6----------------7--7--7--7--7--7-------|
g--------9-9-9----------------10-10-10-10-10-10------|
d----------------------------------------------------|
a-00-0-0-------00-0-0-00-0-0-------------------------|
d-00-0-0-------00-0-0-00-0-0-------------------------|
  .. . .       .. . . .. . .

Bridge Cont.
Guitar 1
e-------------------------------------------------------------------------|
b-------------------------------------------------------------------------|
g-------------------------------------------------------------------------|
d---------------------------10-8-7-----------------------------8-7-----2x-|
a-00-0-0---7-8-5---00-0-0-------------00-0-0--7-8-5---00-0-0-------8------|
d-00-0-0-----------00-0-0-------------00-0-0----------00-0-0--------------|
  .. . .           .. . .             .. ..           .. . .
Guitar 2
e---------------------------------------------------------------------------|
b---------------------------------------------------------------------------|
g---------------------------------------------------------------------------|
d-----------------------------------------------------------------------2x--|
a-00-0-0------------00-0-0------------00-0-0------------00-0-0--------------|
d-00-0-0--14-15-12--00-0-0--21-19-18--00-0-0--14-15-12--00-0-0--20-19-15----|
  .. . .            .. . .            .. . .            .. . .

Bridge Cont.
Guitar 1
e--------------------------------------------------------------------------|
b--------------------------------------------------------------------------|
g--------------------------------------------------------------------------|
d--------------------------------------------------------------------------|
a-00-0-0-00-0-0-00-0-0--7-8-5--00-0-0-00-0-0-00-0-0-/12\------------00-0-0-|
d-00-0-0-00-0-0-00-0-0---------00-0-0-00-0-0-00-0-0-/12\------------00-0-0-|
  .. . . .. . . .. . .         .. . . .. . . .. . .                 .. . .

e---------------------------------------------------|
b---------------------------------------------------|
g---------------------------------------------------|
d---------------------------------------------------|
a-00-0-0-00-0-0--7-8-5--00-0-0-00-0-0-00-0-0--------|
d-00-0-0-00-0-0---------00-0-0-00-0-0-00-0-0--------|
  .. . . .. . .         .. . . .. . . .. . .
Guitar 2
e--------------------------------------------------------------------------|
b--------------------------------------------------------------------------|
g--------------------------------------------------------------------------|
d--------------------------------------------------------------------------|
a-00-0-0-00-0-0-00-0-0-------00-0-0-00-0-0-00-0-0-------------------00-0-0-|
d-00-0-0-00-0-0-00-0-0-15~---00-0-0-00-0-0-00-0-0-22-20-19-20-19-15-00-0-0-|
  .. . . .. . . .. . .       .. . . .. . . .. . .                   .. . .

e-------------------------------------------------|
b-------------------------------------------------|
g-------------------------------------------------|
d-------------------------------------------------|
a-00-0-0-00-0-0--------00-0-0-00-0-0-00-0-0-------|
d-00-0-0-00-0-0--15~---00-0-0-00-0-0-00-0-0-------|
  .. . . .. . .        .. . . .. . . .. . .

Guitar 1
e-----------------------|
b-----------------------|
g-----------------------|
d-10-8-7h8p7------------|
a------------8----------|
d-----------------------|
Guitar 2
e----------------------|
b----------------------|
g----------------------|
d----------------------|
a----------------------|
d-22-20-19-20-19-15----|

Guitar 1
e------------------------------------------|------------------|
b------------------------------------------|------------------|
g------------------------------------------|------------------|
d---------------------10-8-7h8p7-----------|------------------|
a-00-0-0-7-8-5-00-0-0------------8--3 times|-00-0-0-0-----0---|
d-00-0-0-------00-0-0----------------------|-00-0-0-0-/12\0---|
  .. . .       .. ..                         .. . . .
Guitar 2
e------------------------------------------|-------------|
b------------------------------------------|-------------|
g------------------------------------------|-------------|
d--------7~--------------------------------|-------------|
a-00-0-0-7~----00-0-0-0----3 times---------|-00-0-0-0----|
d-00-0-0-7~----00-0-0-0--------------------|-00-0-0-0----|
  .. . .       .. . . .                      .. . . .

Clean part
There's no melody that fits with drop-dead gorgeous
Guitar 1
e-----------------------------------------------------|
b-----------------------------------------------------|
g-----------------------------------------------------|
d--------------------------pick slide on fourth time--|
a-----------------------------------------------------|
d-----------------------------------------------------|

Guitar 2
e-----------------------------------------------------|
b-----------------------------------------------------|
g-14-----------------------17-------------------------|   Repeat
d-x--strum about 15 times--x--strum about-6-times-----|  4 times
a-12-----------------------15-------------------------|
d-----------------------------------------------------|

Chorus
Guitar 1
e----------------------------------------------|----------------------------|
b----------------------------------------------|----------------------------|
g---------------------------------------Play---|----------------------------|
d-0-0-0-0-8-8-8-8-7-7-7-7-7-7-7-7------3 times-|-0-0-0-0-8-8-8-8-7-7-7-7-7~-|
a-0-0-0-0-8-8-8-8-7-7-7-7-7-7-7-7--------------|-0-0-0-0-8-8-8-8-7-7-7-7-7~-|
d-0-0-0-0-8-8-8-8-7-7-7-7-7-7-7-7--------------|-0-0-0-0-8-8-8-8-7-7-7-7-7~-|

Guitar 2
e----------------------------------------------------------------------------|
b----------------------------------------------------------------------------|
g-10-10-10-10-10-10-10-10-10-12-12-12-10-10-10-10-10-10-10-10-10-9-9-9-10-10-|
d-x--x--x--x--x--x--x--x--x--x--x--x--x--x--x--x--x--x--x--x--x--x-x-x-x--x--|
a-8--8--8--8--8--8--8--8--8--10-10-10-8--8--8--8--8--8--8--8--8--7-7-7-8--8--|
d----------------------------------------------------------------------------|

e---------------------------------------------------------------------------|
b---------------------------------------------------------------------------|
g-10-10-10-10-10-10-10-10-12-12-12-10-10-10-10-10-10-10-10-10-14~-----------|
d--x--x--x--x--x--x--x--x-x--x--x--x--x--x--x--x--x--x--x--x--x-------------|
a--8--8--8--8--8--8--8--8-10-10-10-8--8--8--8--8--8--8--8--8--12~-----------|
d---------------------------------------------------------------------------|

Outro
Guitar 1
e-------------------------------------------------------------|
b-------------------------------------------------------------|
g-------------------------------------------------------------|
d-----0-----0-----0-----0-----0-----0-----0-----0-------------|
a-0-0-0-0-0-0-0-0-0-0-0-0-0-0-0-0-0-0-0-0-0-0-0-0-etc. for----| 48 times
d-0-0-0-0-0-0-0-0-0-0-0-0-0-0-0-0-0-0-0-0-0-0-0-0-------------|
  . .   . .   . .   . .   . .   . .   . .   . .
Guitar 2
e----------------------------------------------------------|
b----------------------------------------------------------|
g----------------------------------------------------------|
d----7-7h8~-----7-7p5~-----7-7h8~-----10-8-7h8p7-----------|play 4 times
a------------------------------------------------8---------|
d-0-0-------0-0--------0-0--------0-0----------------------|
  . .       . .        . .        . .

Break
would you blow me, would you blow me a kiss
Guitar 1
e-------------------------------------------------------------------------|
b-------------------------------------------------------------------------|
g-10-10-10-10-10-10-10-10-9-9-9-5-5-5-5-5-5-10-10-10-10-10-10-10-10-9-9-9-|
d-x--x--x--x--x--x--x--x--x-x-x-x-x-x-x-x-x-x--x--x--x--x--x--x--x--x-x-x-|
a-8--8--8--8--8--8--8--8--7-7-7-3-3-3-3-3-3-8--8--8--8--8--8--8--8--7-7-7-|
d-------------------------------------------------------------------------|

e----------------------------|
b----------------------------|
g-14-14-14-14-14-14----------|
d-x--x--x--x--x--x---2-------| times
a-12-12-12-12-12-12----------|
d----------------------------|

Guitar 2
e---------------------------------------------------------------------------|
b---------------------------------------------------------------------------|
g---------------------------------------------------------------------------|
d-8~--------------------7~------3~----------8~-------------10~------12~-----|
a-8~--------------------7~------3~----------8~-------------10~------12~--2x-|
d-8~--------------------7~------3~----------8~-------------10~------12~-----|

Outro
Guitar 1						        End
e-------------------------------------------------------------|-----|
b-------------------------------------------------------------|-----|
g-------------------------------------------------------------|-----|
d-----0-----0-----0-----0-----0-----0-----0-------32 times----|--0--|
a-0-0-0-0-0-0-0-0-0-0-0-0-0-0-0-0-0-0-0-0-0-------------------|--0--|
d-0-0-0-0-0-0-0-0-0-0-0-0-0-0-0-0-0-0-0-0-0-------------------|--0--|
  . .   . .   . .   . .   . .   . .   . .

Guitar 2						        End
e-------------------------------------------------------------|------|
b-------------------------------------------------------------|------|
g-------------------------------------------------------------|------|
d-----7-7h8~-----7-7p5~-----7-7h8~-----10-8-7h8p7-----4 times-|--0---|
a-------------------------------------------------8-----------|--0---|
d-0-0--------0-0--------0-0--------0-0------------------------|--0---|
  . .        . .        . .        . .

| /  slide up
| \  slide down
| h  hammer-on
| p  pull-off
| ~  vibrato
| .  palm mute
| +  harmonic
| x  Mute note
comments
We did not receive enough feedback on this tab! Please rate:
1 2 3 4 5
I want to post or [tab]
guest
You may want to rate the tab now too:
select rating
Please do not post tabs as comments. Select "correction" instead!