Oops, an error
Loading. Please wait.

Break Down The Walls Tab

ver1
ver1

Whole song

Interactive

More versions @911Tabs.com
5,855 views 78 this week
4 commentsread comments
1 2 3 4 5
accurate
x 3
Autoscroll
+/-
esc
set tempo
stop
Contributor
Difficulty
Tuning
novice
C G C F A D
WARNING: You are trying to view
                                    content from Ultimate-Guitar.com
                                    in an unauthorized application,
                                    which is prohibited.

                                    Please use an official Ultimate
                                    Guitar Tabs application for iPhone,
                                    iPad or Android to access legitimate
                                    chords, guitar, bass, and drum tabs
                                    from Ultimate-Guitar.com database.

                                    Type "ultimate guitar tabs" in Apple
                                    App Store's or Android Market's
                                    search to find the application.
----------------------------------------------------------------------------
                       Break Down the Walls
                         Asking Alexandria
----------------------------------------------------------------------------

I’m usually not into these types of songs (low pitch lyrics, basic palm riffs) but 
this song seemed to grab my attention. The deep lyrics in the chorus actually got 
me hooked to this song. I could have seen them write a shred solo, but that just 
wouldn’t be AA would it. Enjoy!

Username: dkm817 (same on X box live)
Youtube Cover: https://www.youtube.com/watch?v=ufrVxtQDe1M
Email: guitardrums@rockfan.com

Guitar 1 Rhythmic (C G C F A D)
Guitar 2 Lead     (C G C F A D)

NOTE: This was exported off of guitar pro.


Guitar 1

                             H        H           E  E  E  E  E  E  E  E   
D||-------|-------|-------|--------------------|--------------------------|
A||-------|-------|-------|--------------------|--------------------------|
F||-------|-------|-------|--------------------|--------------------------|
C||-------|-------|-------|-----------0--------|--------------------------|
G||-------|-------|-------|-----------0--------|--------------------------|
C||-------|-------|-------|-----------0--------|--0--0--0--0--0--0--0--0--|


  E  E  E  E  E  E  E  E     E  E  E  E  E  E  E  E   
--------------------------|--------------------------|
--------------------------|--------------------------|
--------------------------|--------------------------|
--------------------------|--------------------------|
--------------------------|--------------------------|
--0--0--0--0--0--0--0--0--|--8--8--8--8--8--8--8--8--|


  E  E  E  E   E   E   E   E     E  E  E  E  E  E  E  E   
------------------------------|--------------------------|
------------------------------|--------------------------|
------------------------------|--------------------------|
------------------------------|--------------------------|
------------------------------|--------------------------|
--5--5--5--5--11--11--11--11--|--0--0--0--0--0--0--0--0--|


  E  E  E  E  E  E  E  E     E  E  E  E  E  E  E  E   
--------------------------|--------------------------|
--------------------------|--------------------------|
--------------------------|--------------------------|
--------------------------|--------------------------|
--------------------------|--------------------------|
--0--0--0--0--0--0--0--0--|--8--8--8--8--8--8--8--8--|


  E  E  E  E   S  S  S  S  T  T  T  T  T  T  T  T  
--------------------------------------------------|
--------------------------------------------------|
--------------------------------------------------|
--------------------------------------------------|
--------------------------------------------------|
--5--5--5--5--11-11-11-11-11-11-11-11-11-11-11-11-|


  PM    PM PM PM PM   PM PM   PM       PM    PM PM PM PM   PM PM   PM     
  E  E  S  S  S  S  S S  S  S E  E     E  E  S  S  S  S  S S  S  S E  E   
------------------------------------|------------------------------------|
------------------------------------|------------------------------------|
------------------------------------|------------------------------------|
--0-----0--0--0--0----0--0----0-----|--0-----0--0--0--0----0--0----0-----|
--0-----0--0--0--0----0--0----0-----|--0-----0--0--0--0----0--0----0-----|
--0-----0--0--0--0----0--0----0-----|--0-----0--0--0--0----0--0----0-----|


  PM    PM PM PM PM   PM PM   PM     
  E  E  S  S  S  S  S S  S  S E  E   
------------------------------------|
------------------------------------|
------------------------------------|
--8-----8--8--8--8----8--8----8-----|
--8-----8--8--8--8----8--8----8-----|
--8-----8--8--8--8----8--8----8-----|


  PM    PM PM PM PM  PM PM PM PM PM PM PM PM 
  E  E  S  S  S  S   S  S  S  S  S  S  S  S  
--------------------------------------------|
--------------------------------------------|
--------------------------------------------|
--5-----5--5--5--5--11-11-11-11-11-11-11-11-|
--5-----5--5--5--5--11-11-11-11-11-11-11-11-|
--5-----5--5--5--5--11-11-11-11-11-11-11-11-|


  PM    PM PM PM PM   PM PM   PM       PM    PM PM PM PM   PM PM   PM     
  E  E  S  S  S  S  S S  S  S E  E     E  E  S  S  S  S  S S  S  S E  E   
------------------------------------|------------------------------------|
------------------------------------|------------------------------------|
------------------------------------|------------------------------------|
--0-----0--0--0--0----0--0----0-----|--0-----0--0--0--0----0--0----0-----|
--0-----0--0--0--0----0--0----0-----|--0-----0--0--0--0----0--0----0-----|
--0-----0--0--0--0----0--0----0-----|--0-----0--0--0--0----0--0----0-----|


  PM    PM PM PM PM   PM PM   PM     
  E  E  S  S  S  S  S S  S  S E  E   
------------------------------------|
------------------------------------|
------------------------------------|
--8-----8--8--8--8----8--8----8-----|
--8-----8--8--8--8----8--8----8-----|
--8-----8--8--8--8----8--8----8-----|


  PM    PM PM PM PM  PM PM PM PM PM PM PM PM 
  E  E  S  S  S  S   S  S  S  S  S  S  S  S  
--------------------------------------------|
--------------------------------------------|
--------------------------------------------|
--5-----5--5--5--5--11-11-11-11-11-11-11-11-|
--5-----5--5--5--5--11-11-11-11-11-11-11-11-|
--5-----5--5--5--5--11-11-11-11-11-11-11-11-|


  PM    PM PM PM PM   PM PM   PM       PM    PM PM PM PM   PM PM   PM     
  E  E  S  S  S  S  S S  S  S E  E     E  E  S  S  S  S  S S  S  S E  E   
------------------------------------|------------------------------------|
------------------------------------|------------------------------------|
------------------------------------|------------------------------------|
--0-----0--0--0--0----0--0----0-----|--0-----0--0--0--0----0--0----0-----|
--0-----0--0--0--0----0--0----0-----|--0-----0--0--0--0----0--0----0-----|
--0-----0--0--0--0----0--0----0-----|--0-----0--0--0--0----0--0----0-----|


  PM    PM PM PM PM   PM PM   PM     
  E  E  S  S  S  S  S S  S  S E  E   
------------------------------------|
------------------------------------|
------------------------------------|
--8-----8--8--8--8----8--8----8-----|
--8-----8--8--8--8----8--8----8-----|
--8-----8--8--8--8----8--8----8-----|


  PM    PM PM PM PM  PM PM PM PM PM PM PM PM 
  E  E  S  S  S  S   S  S  S  S  S  S  S  S  
--------------------------------------------|
--------------------------------------------|
--------------------------------------------|
--5-----5--5--5--5--11-11-11-11-11-11-11-11-|
--5-----5--5--5--5--11-11-11-11-11-11-11-11-|
--5-----5--5--5--5--11-11-11-11-11-11-11-11-|


  PM    PM PM PM PM   PM PM   PM       PM    PM PM PM PM   PM PM   PM     
  E  E  S  S  S  S  S S  S  S E  E     E  E  S  S  S  S  S S  S  S E  E   
------------------------------------|------------------------------------|
------------------------------------|------------------------------------|
------------------------------------|------------------------------------|
--0-----0--0--0--0----0--0----0-----|--0-----0--0--0--0----0--0----0-----|
--0-----0--0--0--0----0--0----0-----|--0-----0--0--0--0----0--0----0-----|
--0-----0--0--0--0----0--0----0-----|--0-----0--0--0--0----0--0----0-----|


  PM    PM PM PM PM   PM PM   PM     
  E  E  S  S  S  S  S S  S  S E  E   
------------------------------------|
------------------------------------|
------------------------------------|
--8-----8--8--8--8----8--8----8-----|
--8-----8--8--8--8----8--8----8-----|
--8-----8--8--8--8----8--8----8-----|


  PM    PM PM PM PM  PM PM PM PM PM PM PM PM                     
  E  E  S  S  S  S   S  S  S  S  S  S  S  S    W                 
--------------------------------------------|-------------------|
--------------------------------------------|-------------------|
--------------------------------------------|-------------------|
--5-----5--5--5--5--11-11-11-11-11-11-11-11-|--0----------------|
--5-----5--5--5--5--11-11-11-11-11-11-11-11-|-------------------|
--5-----5--5--5--5--11-11-11-11-11-11-11-11-|-------------------|


  H        Q    Q       E  E  E  E  E  E  E  E     E  E  E  E  E  E  E  E   
---------------------|--------------------------|--------------------------|
---------------------|--------------------------|--------------------------|
---------------------|--------------------------|--------------------------|
--L--------L---------|--------------------------|--------------------------|
---------------------|--------------------------|--------------------------|
---------------------|--0--0--0--0--0--0--0--0--|--0--0--0--0--0--0--0--0--|


  E  E  E  E  E  E  E  E     E  E  E  E   E   E   E   E   
--------------------------|------------------------------|
--------------------------|------------------------------|
--------------------------|------------------------------|
--------------------------|------------------------------|
--------------------------|------------------------------|
--8--8--8--8--8--8--8--8--|--5--5--5--5--11--11--11--11--|


  E  E  E  E  E  E  E  E     E  E  E  E  E  E  E  E   
--------------------------|--------------------------|
--------------------------|--------------------------|
--------------------------|--------------------------|
--------------------------|--------------------------|
--------------------------|--------------------------|
--0--0--0--0--0--0--0--0--|--0--0--0--0--0--0--0--0--|


  E  E  E  E  E  E  E  E     E  E  E  E   E   E   E   E   
--------------------------|------------------------------|
--------------------------|------------------------------|
--------------------------|------------------------------|
--------------------------|------------------------------|
--------------------------|------------------------------|
--8--8--8--8--8--8--8--8--|--5--5--5--5--11--11--11--11--|


  E  E  E  E  E  E  E  E     E  E  E  E  E  E  E  E   
--------------------------|--------------------------|
--------------------------|--------------------------|
--------------------------|--------------------------|
--------------------------|--------------------------|
--------------------------|--------------------------|
--0--0--0--0--0--0--0--0--|--0--0--0--0--0--0--0--0--|


  E  E  E  E  E  E  E  E     E  E  E  E   E   E   E   E   
--------------------------|------------------------------|
--------------------------|------------------------------|
--------------------------|------------------------------|
--------------------------|------------------------------|
--------------------------|------------------------------|
--8--8--8--8--8--8--8--8--|--5--5--5--5--11--11--11--11--|


  E  E  E  E  E  E  E  E     E  E  E  E  E  E  E  E   
--------------------------|--------------------------|
--------------------------|--------------------------|
--------------------------|--------------------------|
--------------------------|--------------------------|
--------------------------|--------------------------|
--0--0--0--0--0--0--0--0--|--0--0--0--0--0--0--0--0--|


  E  E  E  E  E  E  E  E     E  E  E  E   E   E   E   E   
--------------------------|------------------------------|
--------------------------|------------------------------|
--------------------------|------------------------------|
--------------------------|------------------------------|
--------------------------|------------------------------|
--8--8--8--8--8--8--8--8--|--5--5--5--5--11--11--11--11--|


              PM PM PM PM    PM PM           PM PM PM PM                       
   E   S E  S S  S  E  E  E  S  S      Q     S  S  E  S  E  S T T T T T T T T  
-----------------------------------|------------------------------------------|
-----------------------------------|------------------------------------------|
-----------------------------------|------------------------------------------|
---------0--0-0--0--0--0-----0--0--|---------0--0--0--0--0--L-----------------|
---------0--0-0--0--0--0-----0--0--|---------0--0--0--0--0--L-----------------|
--11b--L-0--0-0--0--0--0-----0--0--|--11b----0--0--0--0--0--L-0---0---0---0---|


  PM PM   PM   PM   PM PM        
  S  S  S E  S S  S E  E  E  E   
--------------------------------|
--------------------------------|
--------------------------------|
--0--0----0--L-0----0--0--------|
--0--0----0--L-0----0--0--------|
--0--0----0--L-0----0--0--------|


  E  E  E  E   S  S  S  S  T  T  T  T  T  T  T  T  
--------------------------------------------------|
--------------------------------------------------|
--------------------------------------------------|
--------------------------------------------------|
--------------------------------------------------|
--8--8--8--8--11-11-11-11-11-11-11-11-11-11-11-11-|


  PM    PM PM PM PM   PM PM   PM       PM    PM PM PM PM   PM PM   PM     
  E  E  S  S  S  S  S S  S  S E  E     E  E  S  S  S  S  S S  S  S E  E   
------------------------------------|------------------------------------|
------------------------------------|------------------------------------|
------------------------------------|------------------------------------|
--0-----0--0--0--0----0--0----0-----|--0-----0--0--0--0----0--0----0-----|
--0-----0--0--0--0----0--0----0-----|--0-----0--0--0--0----0--0----0-----|
--0-----0--0--0--0----0--0----0-----|--0-----0--0--0--0----0--0----0-----|


  PM    PM PM PM PM   PM PM   PM     
  E  E  S  S  S  S  S S  S  S E  E   
------------------------------------|
------------------------------------|
------------------------------------|
--8-----8--8--8--8----8--8----8-----|
--8-----8--8--8--8----8--8----8-----|
--8-----8--8--8--8----8--8----8-----|


  PM    PM PM PM PM  PM PM PM PM PM PM PM PM 
  E  E  S  S  S  S   S  S  S  S  S  S  S  S  
--------------------------------------------|
--------------------------------------------|
--------------------------------------------|
--5-----5--5--5--5--11-11-11-11-11-11-11-11-|
--5-----5--5--5--5--11-11-11-11-11-11-11-11-|
--5-----5--5--5--5--11-11-11-11-11-11-11-11-|


  PM    PM PM PM PM   PM PM   PM       PM    PM PM PM PM   PM PM   PM     
  E  E  S  S  S  S  S S  S  S E  E     E  E  S  S  S  S  S S  S  S E  E   
------------------------------------|------------------------------------|
------------------------------------|------------------------------------|
------------------------------------|------------------------------------|
--0-----0--0--0--0----0--0----0-----|--0-----0--0--0--0----0--0----0-----|
--0-----0--0--0--0----0--0----0-----|--0-----0--0--0--0----0--0----0-----|
--0-----0--0--0--0----0--0----0-----|--0-----0--0--0--0----0--0----0-----|


  PM    PM PM PM PM   PM PM   PM     
  E  E  S  S  S  S  S S  S  S E  E   
------------------------------------|
------------------------------------|
------------------------------------|
--8-----8--8--8--8----8--8----8-----|
--8-----8--8--8--8----8--8----8-----|
--8-----8--8--8--8----8--8----8-----|


  PM    PM PM PM PM  PM PM PM PM PM PM PM PM 
  E  E  S  S  S  S   S  S  S  S  S  S  S  S  
--------------------------------------------|
--------------------------------------------|
--------------------------------------------|
--5-----5--5--5--5--11-11-11-11-11-11-11-11-|
--5-----5--5--5--5--11-11-11-11-11-11-11-11-|
--5-----5--5--5--5--11-11-11-11-11-11-11-11-|


  PM    PM PM PM PM   PM PM   PM       PM    PM PM PM PM   PM PM   PM     
  E  E  S  S  S  S  S S  S  S E  E     E  E  S  S  S  S  S S  S  S E  E   
------------------------------------|------------------------------------|
------------------------------------|------------------------------------|
------------------------------------|------------------------------------|
--0-----0--0--0--0----0--0----0-----|--0-----0--0--0--0----0--0----0-----|
--0-----0--0--0--0----0--0----0-----|--0-----0--0--0--0----0--0----0-----|
--0-----0--0--0--0----0--0----0-----|--0-----0--0--0--0----0--0----0-----|


  PM    PM PM PM PM   PM PM   PM     
  E  E  S  S  S  S  S S  S  S E  E   
------------------------------------|
------------------------------------|
------------------------------------|
--8-----8--8--8--8----8--8----8-----|
--8-----8--8--8--8----8--8----8-----|
--8-----8--8--8--8----8--8----8-----|


  PM    PM PM PM PM  PM PM PM PM PM PM PM PM                     
  E  E  S  S  S  S   S  S  S  S  S  S  S  S    W                 
--------------------------------------------|-------------------|
--------------------------------------------|-------------------|
--------------------------------------------|-------------------|
--5-----5--5--5--5--11-11-11-11-11-11-11-11-|--0----------------|
--5-----5--5--5--5--11-11-11-11-11-11-11-11-|-------------------|
--5-----5--5--5--5--11-11-11-11-11-11-11-11-|-------------------|


  H        Q    Q       E  E  E  E  E  E  E  E     E  E  E  E  E  E  E  E   
---------------------|--------------------------|--------------------------|
---------------------|--------------------------|--------------------------|
---------------------|--------------------------|--------------------------|
--L--------L---------|--------------------------|--------------------------|
---------------------|--------------------------|--------------------------|
---------------------|--0--0--0--0--0--0--0--0--|--0--0--0--0--0--0--0--0--|


  E  E  E  E  E  E  E  E     E  E  E  E   E   E   E   E   
--------------------------|------------------------------|
--------------------------|------------------------------|
--------------------------|------------------------------|
--------------------------|------------------------------|
--------------------------|------------------------------|
--8--8--8--8--8--8--8--8--|--5--5--5--5--11--11--11--11--|


  E  E  E  E  E  E  E  E     E  E  E  E  E  E  E  E   
--------------------------|--------------------------|
--------------------------|--------------------------|
--------------------------|--------------------------|
--------------------------|--------------------------|
--------------------------|--------------------------|
--0--0--0--0--0--0--0--0--|--0--0--0--0--0--0--0--0--|


  E  E  E  E  E  E  E  E     E  E  E  E   E   E   E   E   
--------------------------|------------------------------|
--------------------------|------------------------------|
--------------------------|------------------------------|
--------------------------|------------------------------|
--------------------------|------------------------------|
--8--8--8--8--8--8--8--8--|--5--5--5--5--11--11--11--11--|


  E  E  E  E  E  E  E  E     E  E  E  E  E  E  E  E   
--------------------------|--------------------------|
--------------------------|--------------------------|
--------------------------|--------------------------|
--------------------------|--------------------------|
--------------------------|--------------------------|
--0--0--0--0--0--0--0--0--|--0--0--0--0--0--0--0--0--|


  E  E  E  E  E  E  E  E     E  E  E  E   E   E   E   E   
--------------------------|------------------------------|
--------------------------|------------------------------|
--------------------------|------------------------------|
--------------------------|------------------------------|
--------------------------|------------------------------|
--8--8--8--8--8--8--8--8--|--5--5--5--5--11--11--11--11--|


  E  E  E  E  E  E  E  E     E  E  E  E  E  E  E  E   
--------------------------|--------------------------|
--------------------------|--------------------------|
--------------------------|--------------------------|
--------------------------|--------------------------|
--------------------------|--------------------------|
--0--0--0--0--0--0--0--0--|--0--0--0--0--0--0--0--0--|


  E  E  E  E  E  E  E  E     E  E  E  E   E   E   E   E   
--------------------------|------------------------------|
--------------------------|------------------------------|
--------------------------|------------------------------|
--------------------------|------------------------------|
--------------------------|------------------------------|
--8--8--8--8--8--8--8--8--|--5--5--5--5--11--11--11--11--|


         PM   PM PM PM PM    PM PM           PM PM PM PM  PM  PM  
    E  S E  S S  S  E  E  E  S  S      Q     S  S  E  E.  E.  E   
-----------------------------------|-----------------------------|
-----------------------------------|-----------------------------|
-----------------------------------|-----------------------------|
---------0--0-0--0--0--0-----0--0--|---------0--0--0-------------|
---------0--0-0--0--0--0-----0--0--|---------0--0--0--0---0---0--|
--/12--L-0--0-0--0--0--0-----0--0--|--11b----0--0--0--1---1---1--|


  PM PM PM PM PM PM PM PM PM PM PM PM    PM PM PM PM PM PM PM PM PM PM PM PM  
  S  E  E  S  S  S  E  E  S  S  S  S     S  E  E  S  S  S  E  E  S  S  S  S   
--------------------------------------|--------------------------------------|
--------------------------------------|--------------------------------------|
--------------------------------------|--------------------------------------|
--0--0--0--0--0--0--0--0--0--0--0--0--|--0--0--0--0--0--0--0--0--0--0--0--0--|
--0--0--0--0--0--0--0--0--0--0--0--0--|--0--0--0--0--0--0--0--0--0--0--0--0--|
--0--0--0--0--0--0--0--0--0--0--0--0--|--0--0--0--0--0--0--0--0--0--0--0--0--|


               PM PM PM PM    PM PM              PM PM PM PM  PM  PM  
                                                 |--3--|              
    E  S E   S S  S  E  E  E  S  S      Q     E  S  S  S  E.  E.  E   
------------------------------------|--------------------------------|
------------------------------------|--------------------------------|
------------------------------------|--------------------------------|
-------------0-0--0--0--0-----0--0--|--15\----L--0--0--0-------------|
-------------0-0--0--0--0-----0--0--|--15\----L--0--0--0--0---0---0--|
--/12--L-L\--0-0--0--0--0-----0--0--|--15\----L--0--0--0--1---1---1--|


  PM PM PM PM PM PM PM PM PM PM PM PM  
  S  E  E  S  S  S  E  E  S  S  S  S   
--------------------------------------|
--------------------------------------|
--------------------------------------|
--0--0--0--0--0--0--0--0--0--0--0--0--|
--0--0--0--0--0--0--0--0--0--0--0--0--|
--0--0--0--0--0--0--0--0--0--0--0--0--|


  E  E  E  E   S  S  S  S  T  T  T  T  T  T  T  T    E  E  E  E  E  E  E  E   
--------------------------------------------------|--------------------------|
--------------------------------------------------|--------------------------|
--------------------------------------------------|--------------------------|
--------------------------------------------------|--------------------------|
--------------------------------------------------|--5--5--5--5--5--5--5--5--|
--8--8--8--8--11-11-11-11-11-11-11-11-11-11-11-11-|--------------------------|


  E  E  E  E  E  E  E  E     E  E  E  E  E  E  E  E   
--------------------------|--------------------------|
--------------------------|--------------------------|
--------------------------|--------------------------|
--------------------------|--------------------------|
--5--7--7--7--7--7--7--7--|--7--8--8--8--8--8--8--8--|
--------------------------|--------------------------|


  E   E   E   E   S S  S S  S S  S S    E  E  E  E  E  E  E  E   
-------------------------------------|--------------------------|
-------------------------------------|--------------------------|
-------------------------------------|--------------------------|
-------------------------------------|--------------------------|
--8--10--10--10--10---10---10---10---|--5--5--5--5--5--5--5--5--|
-------------------------------------|--------------------------|


  E  E  E  E  E  E  E  E     E  E  E  E  E  E  E  E   
--------------------------|--------------------------|
--------------------------|--------------------------|
--------------------------|--------------------------|
--------------------------|--------------------------|
--5--7--7--7--7--7--7--7--|--7--8--8--8--8--8--8--8--|
--------------------------|--------------------------|


  E   E   E   E   E   E   E   E     E  E  E  E  E  E  E  E   
---------------------------------|--------------------------|
---------------------------------|--------------------------|
---------------------------------|--------------------------|
---------------------------------|--------------------------|
--8--10--10--10--10--10--10--10--|--5--5--5--5--5--5--5--5--|
---------------------------------|--------------------------|


  E  E  E  E  E  E  E  E     E  E  E  E  E  E  E  E   
--------------------------|--------------------------|
--------------------------|--------------------------|
--------------------------|--------------------------|
--------------------------|--------------------------|
--5--4--4--4--4--4--4--4--|--4--1--1--1--1--1--1--1--|
--------------------------|--------------------------|


  E  E  E  E  E  E  E  E     E  E  E  E  E  E  E  E   
--------------------------|--------------------------|
--------------------------|--------------------------|
--------------------------|--------------------------|
--------------------------|--------------------------|
--------------------------|--5--5--5--5--5--5--5--5--|
--5--5--5--5--5--5--5--5--|--------------------------|


  E  E  E  E  E  E  E  E     E  E  E  E  E  E  E  E   
--------------------------|--------------------------|
--------------------------|--------------------------|
--------------------------|--------------------------|
--------------------------|--------------------------|
--5--7--7--7--7--7--7--7--|--7--4--4--4--4--4--4--4--|
--------------------------|--------------------------|


  E  E  E  E  E  E  E  E     W                   W                 
--------------------------|-------------------|-------------------|
--------------------------|-------------------|-------------------|
--------------------------|-------------------|-------------------|
--------------------------|-------------------|-------------------|
--------------------------|-------------------|-------------------|
--5--5--5--5--5--5--5--5--|--5----------------|--L----------------|


  E  E  E  E  E  E  E  E     E  E  E  E  E  E  E  E   
--------------------------|--------------------------|
--------------------------|--------------------------|
--------------------------|--------------------------|
--------------------------|--------------------------|
--------------------------|--------------------------|
--0--0--0--0--0--0--0--0--|--0--0--0--0--0--0--0--0--|


  E  E  E  E  E  E  E  E     E  E  E  E   E   E   E   E   
--------------------------|------------------------------|
--------------------------|------------------------------|
--------------------------|------------------------------|
--------------------------|------------------------------|
--------------------------|------------------------------|
--8--8--8--8--8--8--8--8--|--5--5--5--5--11--11--11--11--|


  E  E  E  E  E  E  E  E     E  E  E  E  E  E  E  E   
--------------------------|--------------------------|
--------------------------|--------------------------|
--------------------------|--------------------------|
--------------------------|--------------------------|
--------------------------|--------------------------|
--0--0--0--0--0--0--0--0--|--0--0--0--0--0--0--0--0--|


  E  E  E  E  E  E  E  E     E  E  E  E   E   E   E   E   
--------------------------|------------------------------|
--------------------------|------------------------------|
--------------------------|------------------------------|
--------------------------|------------------------------|
--------------------------|------------------------------|
--8--8--8--8--8--8--8--8--|--5--5--5--5--11--11--11--11--|


  E  E  E  E  E  E  E  E     E  E  E  E  E  E  E  E   
--------------------------|--------------------------|
--------------------------|--------------------------|
--------------------------|--------------------------|
--------------------------|--------------------------|
--------------------------|--------------------------|
--0--0--0--0--0--0--0--0--|--0--0--0--0--0--0--0--0--|


  E  E  E  E  E  E  E  E     E  E  E  E   E   E   E   E   
--------------------------|------------------------------|
--------------------------|------------------------------|
--------------------------|------------------------------|
--------------------------|------------------------------|
--------------------------|------------------------------|
--8--8--8--8--8--8--8--8--|--5--5--5--5--11--11--11--11--|


  E  E  E  E  E  E  E  E     E  E  E  E  E  E  E  E   
--------------------------|--------------------------|
--------------------------|--------------------------|
--------------------------|--------------------------|
--------------------------|--------------------------|
--------------------------|--------------------------|
--0--0--0--0--0--0--0--0--|--0--0--0--0--0--0--0--0--|


  E  E  E  E  E  E  E  E     E  E  E  E   E   E   E   E   
--------------------------|------------------------------|
--------------------------|------------------------------|
--------------------------|------------------------------|
--------------------------|------------------------------|
--------------------------|------------------------------|
--8--8--8--8--8--8--8--8--|--5--5--5--5--11--11--11--11--|


              PM PM PM PM    PM PM           PM PM PM PM                       
   E   S E  S S  S  E  E  E  S  S      Q     S  S  E  S  E  S T T T T T T T T  
-----------------------------------|------------------------------------------|
-----------------------------------|------------------------------------------|
-----------------------------------|------------------------------------------|
---------0--0-0--0--0--0-----0--0--|---------0--0--0--0--0--L-----------------|
---------0--0-0--0--0--0-----0--0--|---------0--0--0--0--0--L-----------------|
--11b--L-0--0-0--0--0--0-----0--0--|--11b----0--0--0--0--0--L-0---0---0---0---|


  PM PM   PM   PM   PM PM        
  S  S  S E  S S  S E  E  E  E   
--------------------------------|
--------------------------------|
--------------------------------|
--0--0----0--L-0----0--0--------|
--0--0----0--L-0----0--0--------|
--0--0----0--L-0----0--0--------|


  E  E  E  E   S  S  S  S  T  T  T  T  T  T  T  T   
--------------------------------------------------||
--------------------------------------------------||
--------------------------------------------------||
--------------------------------------------------||
--------------------------------------------------||
--8--8--8--8--11-11-11-11-11-11-11-11-11-11-11-11-||


Guitar 2


      E  E   S  S  S  S S  S  S S  E  E   
D||--------------------------------------|
A||--------------------------------------|
F||--10-----10-10-10-10---10-10---10-----|
C||---x------x--x--x--x----x--x----x-----|
G||---8------8--8--8--8----8--8----8-----|
C||--------------------------------------|


   E  E   S  S  S  S S  S  S S  E  E     E  E  S S S S S S S S E  E   
--------------------------------------|------------------------------|
--------------------------------------|------------------------------|
--10-----10-10-10-10---10-10---10-----|--9-----9-9-9-9---9-9---9-----|
---x------x--x--x--x----x--x----x-----|--x-----x-x-x-x---x-x---x-----|
---8------8--8--8--8----8--8----8-----|--7-----7-7-7-7---7-7---7-----|
--------------------------------------|------------------------------|


   E  E   S  S  S  S E  E  E  E      E   E  E  E  E  E  E  E   
---------------------------------|----------------------------|
---------------------------------|----------------------------|
--12-----12-12-12-12-------------|--10--10--------------------|
---x------x--x--x--x-------------|---x---x--------------------|
--10-----10-10-10-10-------------|---8---8--------------------|
---------------------------------|----------------------------|


  E  E  E  E  E  E  E  E      E   E   E   E   E   E   E   E   
--------------------------|----------------------------------|
--------------------------|--15--15--15--15--15--15--15--15--|
--9--9--------------------|---x---x---x---x---x---x---x---x--|
--x--x--------------------|--12--12--12--12--12--12--12--12--|
--7--7--------------------|----------------------------------|
--------------------------|----------------------------------|


   E   E   E   E   E   E   E   E      E   E  E  E  E  E  E  E   
----------------------------------|----------------------------|
--11--11--11--11--17--17--17--17--|----------------------------|
---x---x---x---x---x---x---x---x--|--10--10--------------------|
---8---8---8---8--14--14--14--14--|---x---x--------------------|
----------------------------------|---8---8--------------------|
----------------------------------|----------------------------|


  E  E  E  E  E  E  E  E      E   E   E   E   E   E   E   E   
--------------------------|----------------------------------|
--------------------------|--15--15--15--15--15--15--15--15--|
--9--9--------------------|---x---x---x---x---x---x---x---x--|
--x--x--------------------|--12--12--12--12--12--12--12--12--|
--7--7--------------------|----------------------------------|
--------------------------|----------------------------------|


                                     PM    PM PM PM PM   PM PM   PM     
   E   E   E   E   E   E   E   E     E  E  S  S  S  S  S S  S  S E  E   
----------------------------------|------------------------------------|
--11--11--11--11--10--10--10--10--|------------------------------------|
---x---x---x---x---x---x---x---x--|------------------------------------|
---8---8---8---8---7---7---7---7--|--0-----0--0--0--0----0--0----0-----|
----------------------------------|--0-----0--0--0--0----0--0----0-----|
----------------------------------|--0-----0--0--0--0----0--0----0-----|


  PM    PM PM PM PM   PM PM   PM       PM    PM PM PM PM   PM PM   PM     
  E  E  S  S  S  S  S S  S  S E  E     E  E  S  S  S  S  S S  S  S E  E   
------------------------------------|------------------------------------|
------------------------------------|------------------------------------|
------------------------------------|------------------------------------|
--0-----0--0--0--0----0--0----0-----|--8-----8--8--8--8----8--8----8-----|
--0-----0--0--0--0----0--0----0-----|--8-----8--8--8--8----8--8----8-----|
--0-----0--0--0--0----0--0----0-----|--8-----8--8--8--8----8--8----8-----|


  PM    PM PM PM PM  PM PM PM PM PM PM PM PM 
  E  E  S  S  S  S   S  S  S  S  S  S  S  S  
--------------------------------------------|
--------------------------------------------|
--------------------------------------------|
--5-----5--5--5--5--11-11-11-11-11-11-11-11-|
--5-----5--5--5--5--11-11-11-11-11-11-11-11-|
--5-----5--5--5--5--11-11-11-11-11-11-11-11-|


  PM    PM PM PM PM   PM PM   PM       PM    PM PM PM PM   PM PM   PM     
  E  E  S  S  S  S  S S  S  S E  E     E  E  S  S  S  S  S S  S  S E  E   
------------------------------------|------------------------------------|
------------------------------------|------------------------------------|
------------------------------------|------------------------------------|
--0-----0--0--0--0----0--0----0-----|--0-----0--0--0--0----0--0----0-----|
--0-----0--0--0--0----0--0----0-----|--0-----0--0--0--0----0--0----0-----|
--0-----0--0--0--0----0--0----0-----|--0-----0--0--0--0----0--0----0-----|


  PM    PM PM PM PM   PM PM   PM     
  E  E  S  S  S  S  S S  S  S E  E   
------------------------------------|
------------------------------------|
------------------------------------|
--8-----8--8--8--8----8--8----8-----|
--8-----8--8--8--8----8--8----8-----|
--8-----8--8--8--8----8--8----8-----|


  PM    PM PM PM PM  PM PM PM PM PM PM PM PM 
  E  E  S  S  S  S   S  S  S  S  S  S  S  S  
--------------------------------------------|
--------------------------------------------|
--------------------------------------------|
--5-----5--5--5--5--11-11-11-11-11-11-11-11-|
--5-----5--5--5--5--11-11-11-11-11-11-11-11-|
--5-----5--5--5--5--11-11-11-11-11-11-11-11-|


   E  E   S  S  S  S S  S  S S  E  E      E  E   S  S  S  S S  S  S S  E  E   
--------------------------------------|--------------------------------------|
--------------------------------------|--------------------------------------|
--10-----10-10-10-10---10-10---10-----|--10-----10-10-10-10---10-10---10-----|
---x------x--x--x--x----x--x----x-----|---x------x--x--x--x----x--x----x-----|
---8------8--8--8--8----8--8----8-----|---8------8--8--8--8----8--8----8-----|
--------------------------------------|--------------------------------------|


  E  E  S S S S S S S S E  E      E  E   S  S  S  S S S S S S S S S  
------------------------------|-------------------------------------|
------------------------------|-------------------------------------|
--9-----9-9-9-9---9-9---9-----|--12-----12-12-12-12-6-6-6-6-6-6-6-6-|
--x-----x-x-x-x---x-x---x-----|---x------x--x--x--x-x-x-x-x-x-x-x-x-|
--7-----7-7-7-7---7-7---7-----|--10-----10-10-10-10-4-4-4-4-4-4-4-4-|
------------------------------|-------------------------------------|


   E  E   S  S  S  S S  S  S S  E  E      E  E   S  S  S  S S  S  S S  E  E   
--------------------------------------|--------------------------------------|
--------------------------------------|--------------------------------------|
--10-----10-10-10-10---10-10---10-----|--10-----10-10-10-10---10-10---10-----|
---x------x--x--x--x----x--x----x-----|---x------x--x--x--x----x--x----x-----|
---8------8--8--8--8----8--8----8-----|---8------8--8--8--8----8--8----8-----|
--------------------------------------|--------------------------------------|


  E  E  S S S S S S S S E  E      E  E   S  S  S  S S S S S S S S S  
------------------------------|-------------------------------------|
------------------------------|-------------------------------------|
--9-----9-9-9-9---9-9---9-----|--12-----12-12-12-12-6-6-6-6-6-6-6-6-|
--x-----x-x-x-x---x-x---x-----|---x------x--x--x--x-x-x-x-x-x-x-x-x-|
--7-----7-7-7-7---7-7---7-----|--10-----10-10-10-10-4-4-4-4-4-4-4-4-|
------------------------------|-------------------------------------|


   S  S  S  S  S  S  S  S  S  S  S  S  S  S  S  S  
--------------------------------------------------|
--------------------------------------------------|
--10-10-10-10-10-10-10-10-10-10-10-10-10-10-10-10-|
---x--x--x--x--x--x--x--x--x--x--x--x--x--x--x--x-|
---8--8--8--8--8--8--8--8--8--8--8--8--8--8--8--8-|
--------------------------------------------------|


  S S S S S S S S S S S S S S S S     E   E   E   E   E   E   E   E   
----------------------------------|----------------------------------|
----------------------------------|--10--10--10--10--10--10--10--10--|
--6-6-6-6-6-6-6-6-6-6-6-6-6-6-6-6-|---x---x---x---x---x---x---x---x--|
--x-x-x-x-x-x-x-x-x-x-x-x-x-x-x-x-|---7---7---7---7---7---7---7---7--|
--4-4-4-4-4-4-4-4-4-4-4-4-4-4-4-4-|----------------------------------|
----------------------------------|----------------------------------|


   E   E   E   E   E   E   E   E      E   E   E   E   E   E   E   E   
----------------------------------|----------------------------------|
--10--10--10--10--10--10--10--10--|--15--15--15--15--15--15--15--15--|
---x---x---x---x---x---x---x---x--|---x---x---x---x---x---x---x---x--|
---7---7---7---7---7---7---7---7--|--12--12--12--12--12--12--12--12--|
----------------------------------|----------------------------------|
----------------------------------|----------------------------------|


   E   E   E   E   E   E   E   E      E   E   E   E   E   E   E   E   
----------------------------------|----------------------------------|
--11--11--11--11--10--10--10--10--|--10--10--10--10--10--10--10--10--|
---x---x---x---x---x---x---x---x--|---x---x---x---x---x---x---x---x--|
---8---8---8---8---7---7---7---7--|---7---7---7---7---7---7---7---7--|
----------------------------------|----------------------------------|
----------------------------------|----------------------------------|


   E   E   E   E   E   E   E   E      E   E   E   E   E   E   E   E   
----------------------------------|----------------------------------|
--10--10--10--10--10--10--10--10--|--15--15--15--15--15--15--15--15--|
---x---x---x---x---x---x---x---x--|---x---x---x---x---x---x---x---x--|
---7---7---7---7---7---7---7---7--|--12--12--12--12--12--12--12--12--|
----------------------------------|----------------------------------|
----------------------------------|----------------------------------|


   E   E   E   E   E   E   E   E      E   E   E   E   E   E   E   E   
----------------------------------|----------------------------------|
--11--11--11--11--10--10--10--10--|--10--10--10--10--10--10--10--10--|
---x---x---x---x---x---x---x---x--|---x---x---x---x---x---x---x---x--|
---8---8---8---8---7---7---7---7--|---7---7---7---7---7---7---7---7--|
----------------------------------|----------------------------------|
----------------------------------|----------------------------------|


   E   E   E   E   E   E   E   E      E   E   E   E   E   E   E   E   
----------------------------------|----------------------------------|
--10--10--10--10--10--10--10--10--|--15--15--15--15--15--15--15--15--|
---x---x---x---x---x---x---x---x--|---x---x---x---x---x---x---x---x--|
---7---7---7---7---7---7---7---7--|--12--12--12--12--12--12--12--12--|
----------------------------------|----------------------------------|
----------------------------------|----------------------------------|


   E   E   E   E   E   E   E   E      E   E   E   E   E   E   E   E   
----------------------------------|----------------------------------|
--11--11--11--11--10--10--10--10--|--10--10--10--10--10--10--10--10--|
---x---x---x---x---x---x---x---x--|---x---x---x---x---x---x---x---x--|
---8---8---8---8---7---7---7---7--|---7---7---7---7---7---7---7---7--|
----------------------------------|----------------------------------|
----------------------------------|----------------------------------|


   E   E   E   E   E   E   E   E      E   E   E   E   E   E   E   E   
----------------------------------|----------------------------------|
--10--10--10--10--10--10--10--10--|--15--15--15--15--15--15--15--15--|
---x---x---x---x---x---x---x---x--|---x---x---x---x---x---x---x---x--|
---7---7---7---7---7---7---7---7--|--12--12--12--12--12--12--12--12--|
----------------------------------|----------------------------------|
----------------------------------|----------------------------------|


                                                 PM PM PM PM    PM PM  
   E   E   E   E   E   E   E   E      E   S E  S S  S  E  E  E  S  S   
----------------------------------|-----------------------------------|
--11--11--11--11--10--10--10--10--|-----------------------------------|
---x---x---x---x---x---x---x---x--|-----------------------------------|
---8---8---8---8---7---7---7---7--|---------0--0-0--0--0--0-----0--0--|
----------------------------------|---------0--0-0--0--0--0-----0--0--|
----------------------------------|--11b--L-0--0-0--0--0--0-----0--0--|


         PM PM PM PM                         PM PM   PM   PM   PM PM        
   Q     S  S  E  S  E  S T T T T T T T T    S  S  S E  S S  S E  E  E  E   
------------------------------------------|--------------------------------|
------------------------------------------|--------------------------------|
------------------------------------------|--------------------------------|
---------0--0--0--0--0--L-----------------|--0--0----0--L-0----0--0--------|
---------0--0--0--0--0--L-----------------|--0--0----0--L-0----0--0--------|
--11b----0--0--0--0--0--L-0---0---0---0---|--0--0----0--L-0----0--0--------|


                         PM    PM PM PM PM   PM PM   PM     
  Q    Q    Q    Q       E  E  S  S  S  S  S S  S  S E  E   
----------------------|------------------------------------|
----------------------|------------------------------------|
-------7--------------|------------------------------------|
--7----L--------------|--0-----0--0--0--0----0--0----0-----|
----------------------|--0-----0--0--0--0----0--0----0-----|
----------------------|--0-----0--0--0--0----0--0----0-----|


  PM    PM PM PM PM   PM PM   PM       PM    PM PM PM PM   PM PM   PM     
  E  E  S  S  S  S  S S  S  S E  E     E  E  S  S  S  S  S S  S  S E  E   
------------------------------------|------------------------------------|
------------------------------------|------------------------------------|
------------------------------------|------------------------------------|
--0-----0--0--0--0----0--0----0-----|--8-----8--8--8--8----8--8----8-----|
--0-----0--0--0--0----0--0----0-----|--8-----8--8--8--8----8--8----8-----|
--0-----0--0--0--0----0--0----0-----|--8-----8--8--8--8----8--8----8-----|


  PM    PM PM PM PM  PM PM PM PM PM PM PM PM 
  E  E  S  S  S  S   S  S  S  S  S  S  S  S  
--------------------------------------------|
--------------------------------------------|
--------------------------------------------|
--5-----5--5--5--5--11-11-11-11-11-11-11-11-|
--5-----5--5--5--5--11-11-11-11-11-11-11-11-|
--5-----5--5--5--5--11-11-11-11-11-11-11-11-|


   E  E   S  S  S  S S  S  S S  E  E      E  E   S  S  S  S S  S  S S  E  E   
--------------------------------------|--------------------------------------|
--------------------------------------|--------------------------------------|
--10-----10-10-10-10---10-10---10-----|--10-----10-10-10-10---10-10---10-----|
---x------x--x--x--x----x--x----x-----|---x------x--x--x--x----x--x----x-----|
---8------8--8--8--8----8--8----8-----|---8------8--8--8--8----8--8----8-----|
--------------------------------------|--------------------------------------|


  E  E  S S S S S S S S E  E      E  E   S  S  S  S S S S S S S S S  
------------------------------|-------------------------------------|
------------------------------|-------------------------------------|
--9-----9-9-9-9---9-9---9-----|--12-----12-12-12-12-6-6-6-6-6-6-6-6-|
--x-----x-x-x-x---x-x---x-----|---x------x--x--x--x-x-x-x-x-x-x-x-x-|
--7-----7-7-7-7---7-7---7-----|--10-----10-10-10-10-4-4-4-4-4-4-4-4-|
------------------------------|-------------------------------------|


   E  E   S  S  S  S S  S  S S  E  E      E  E   S  S  S  S S  S  S S  E  E   
--------------------------------------|--------------------------------------|
--------------------------------------|--------------------------------------|
--10-----10-10-10-10---10-10---10-----|--10-----10-10-10-10---10-10---10-----|
---x------x--x--x--x----x--x----x-----|---x------x--x--x--x----x--x----x-----|
---8------8--8--8--8----8--8----8-----|---8------8--8--8--8----8--8----8-----|
--------------------------------------|--------------------------------------|


  E  E  S S S S S S S S E  E      E  E   S  S  S  S S S S S S S S S  
------------------------------|-------------------------------------|
------------------------------|-------------------------------------|
--9-----9-9-9-9---9-9---9-----|--12-----12-12-12-12-6-6-6-6-6-6-6-6-|
--x-----x-x-x-x---x-x---x-----|---x------x--x--x--x-x-x-x-x-x-x-x-x-|
--7-----7-7-7-7---7-7---7-----|--10-----10-10-10-10-4-4-4-4-4-4-4-4-|
------------------------------|-------------------------------------|


   S  S  S  S  S  S  S  S  S  S  S  S  S  S  S  S  
--------------------------------------------------|
--------------------------------------------------|
--10-10-10-10-10-10-10-10-10-10-10-10-10-10-10-10-|
---x--x--x--x--x--x--x--x--x--x--x--x--x--x--x--x-|
---8--8--8--8--8--8--8--8--8--8--8--8--8--8--8--8-|
--------------------------------------------------|


  S S S S S S S S S S S S S S S S     E   E   E   E   E   E   E   E   
----------------------------------|----------------------------------|
----------------------------------|--10--10--10--10--10--10--10--10--|
--6-6-6-6-6-6-6-6-6-6-6-6-6-6-6-6-|---x---x---x---x---x---x---x---x--|
--x-x-x-x-x-x-x-x-x-x-x-x-x-x-x-x-|---7---7---7---7---7---7---7---7--|
--4-4-4-4-4-4-4-4-4-4-4-4-4-4-4-4-|----------------------------------|
----------------------------------|----------------------------------|


   E   E   E   E   E   E   E   E      E   E   E   E   E   E   E   E   
----------------------------------|----------------------------------|
--10--10--10--10--10--10--10--10--|--15--15--15--15--15--15--15--15--|
---x---x---x---x---x---x---x---x--|---x---x---x---x---x---x---x---x--|
---7---7---7---7---7---7---7---7--|--12--12--12--12--12--12--12--12--|
----------------------------------|----------------------------------|
----------------------------------|----------------------------------|


   E   E   E   E   E   E   E   E      E   E   E   E   E   E   E   E   
----------------------------------|----------------------------------|
--11--11--11--11--10--10--10--10--|--10--10--10--10--10--10--10--10--|
---x---x---x---x---x---x---x---x--|---x---x---x---x---x---x---x---x--|
---8---8---8---8---7---7---7---7--|---7---7---7---7---7---7---7---7--|
----------------------------------|----------------------------------|
----------------------------------|----------------------------------|


   E   E   E   E   E   E   E   E      E   E   E   E   E   E   E   E   
----------------------------------|----------------------------------|
--10--10--10--10--10--10--10--10--|--15--15--15--15--15--15--15--15--|
---x---x---x---x---x---x---x---x--|---x---x---x---x---x---x---x---x--|
---7---7---7---7---7---7---7---7--|--12--12--12--12--12--12--12--12--|
----------------------------------|----------------------------------|
----------------------------------|----------------------------------|


   E   E   E   E   E   E   E   E      E   E   E   E   E   E   E   E   
----------------------------------|----------------------------------|
--11--11--11--11--10--10--10--10--|--10--10--10--10--10--10--10--10--|
---x---x---x---x---x---x---x---x--|---x---x---x---x---x---x---x---x--|
---8---8---8---8---7---7---7---7--|---7---7---7---7---7---7---7---7--|
----------------------------------|----------------------------------|
----------------------------------|----------------------------------|


   E   E   E   E   E   E   E   E      E   E   E   E   E   E   E   E   
----------------------------------|----------------------------------|
--10--10--10--10--10--10--10--10--|--15--15--15--15--15--15--15--15--|
---x---x---x---x---x---x---x---x--|---x---x---x---x---x---x---x---x--|
---7---7---7---7---7---7---7---7--|--12--12--12--12--12--12--12--12--|
----------------------------------|----------------------------------|
----------------------------------|----------------------------------|


   E   E   E   E   E   E   E   E      E   E   E   E   E   E   E   E   
----------------------------------|----------------------------------|
--11--11--11--11--10--10--10--10--|--10--10--10--10--10--10--10--10--|
---x---x---x---x---x---x---x---x--|---x---x---x---x---x---x---x---x--|
---8---8---8---8---7---7---7---7--|---7---7---7---7---7---7---7---7--|
----------------------------------|----------------------------------|
----------------------------------|----------------------------------|


   E   E   E   E   E   E   E   E      E   E   E   E   E   E   E   E   
----------------------------------|----------------------------------|
--10--10--10--10--10--10--10--10--|--15--15--15--15--15--15--15--15--|
---x---x---x---x---x---x---x---x--|---x---x---x---x---x---x---x---x--|
---7---7---7---7---7---7---7---7--|--12--12--12--12--12--12--12--12--|
----------------------------------|----------------------------------|
----------------------------------|----------------------------------|


   E   E   E   E   E   E   E   E      S S S  S S S  S S S  S S S  S  S S S  
----------------------------------|----------------------------------------|
--11--11--11--11--10--10--10--10--|----------------------------------------|
---x---x---x---x---x---x---x---x--|----------------------------------------|
---8---8---8---8---7---7---7---7--|--12-0-0-10-0-0-13-0-0-12-0-0-10-12-0-0-|
----------------------------------|----------------------------------------|
----------------------------------|----------------------------------------|


   S S S  S S S  S S S  S S S  S  S S S  
----------------------------------------|
----------------------------------------|
----------------------------------------|
--12-0-0-10-0-0-13-0-0-12-0-0-10-12-0-0-|
----------------------------------------|
----------------------------------------|


   S S S  S S S  S S S  S S S  S  S S S  
----------------------------------------|
----------------------------------------|
----------------------------------------|
--12-0-0-10-0-0-13-0-0-12-0-0-10-12-0-0-|
----------------------------------------|
----------------------------------------|


   S S S  S S S  S S S  S S S  S  S S S  
----------------------------------------|
----------------------------------------|
----------------------------------------|
--12-0-0-10-0-0-13-0-0-12-0-0-10-12-0-0-|
----------------------------------------|
----------------------------------------|


   S S S  S S S  S S S  S S S  S  S S S  
----------------------------------------|
----------------------------------------|
----------------------------------------|
--12-0-0-10-0-0-13-0-0-12-0-0-10-12-0-0-|
----------------------------------------|
----------------------------------------|


   S S S  S S S  S S S  S S S  S  S S S  
----------------------------------------|
----------------------------------------|
----------------------------------------|
--12-0-0-10-0-0-13-0-0-12-0-0-10-12-0-0-|
----------------------------------------|
----------------------------------------|


   S S S  S S S  S S S  S S S  S  S S S     E   E   E   E  E  E  E  E   
----------------------------------------|------------------------------|
----------------------------------------|--15--15--15--15--------------|
----------------------------------------|---x---x---x---x--------------|
--12-0-0-10-0-0-13-0-0-12-0-0-10-12-0-0-|--12--12--12--12--------------|
----------------------------------------|------------------------------|
----------------------------------------|------------------------------|


   H        Q     E   E      H         H         
--13--------L----15--17--|--15------------------|
-------------------------|------------17--------|
-------------------------|----------------------|
-------------------------|----------------------|
-------------------------|----------------------|
-------------------------|----------------------|


   E   E   E   E   E   E   Q        W                    H        Q     E   E   
--13----------------------------|--------------------|--13--------L----15--13--|
------17--15--13--15--17--15----|--------------------|-------------------------|
--------------------------------|--14----------------|-------------------------|
--------------------------------|--------------------|-------------------------|
--------------------------------|--------------------|-------------------------|
--------------------------------|--------------------|-------------------------|


                       |--3--|                             
    H         Q    E   S  S  S     Q     Q     Q     Q     
--/17--------15----L-----------|--17----15----13----------|
----------------------15-17-18-|--------------------17----|
-------------------------------|--------------------------|
-------------------------------|--------------------------|
-------------------------------|--------------------------|
-------------------------------|--------------------------|


    H         H            H        Q     E   E      H         H         
-----------------------|--13--------L----15--17--|--15------------------|
--/15------------------|-------------------------|------------17--------|
-------------14--------|-------------------------|----------------------|
-----------------------|-------------------------|----------------------|
-----------------------|-------------------------|----------------------|
-----------------------|-------------------------|----------------------|


   E   E   E   E   E   E   Q        W                    H        Q     E   E   
--13----------------------------|--------------------|--13--------L----15--13--|
------17--15--13--15--17--15----|--------------------|-------------------------|
--------------------------------|--15----------------|-------------------------|
--------------------------------|--------------------|-------------------------|
--------------------------------|--------------------|-------------------------|
--------------------------------|--------------------|-------------------------|


                       |--3--|                             
    H         Q    E   S  S  S     Q     Q     Q     Q     
--/17--------15----L-----------|--17----15----13----------|
----------------------15-17-18-|--------------------17----|
-------------------------------|--------------------------|
-------------------------------|--------------------------|
-------------------------------|--------------------------|
-------------------------------|--------------------------|


    H         H            S  S  S  S  S  S  S  S  S  S  S  S  S  S  S  S  
-----------------------|--------------------------------------------------|
--/15------------------|--18-17-15----15-17-18-17-15----15-17-18-17-15----|
-------------14--------|-----------15----------------15----------------15-|
-----------------------|--------------------------------------------------|
-----------------------|--------------------------------------------------|
-----------------------|--------------------------------------------------|


   W                    E   E   E   E   E   E   E   E   
--15----------------|----------------------------------|
--------------------|--10--10--10--10--10--10--10--10--|
--------------------|---x---x---x---x---x---x---x---x--|
--------------------|---7---7---7---7---7---7---7---7--|
--------------------|----------------------------------|
--------------------|----------------------------------|


   E   E   E   E   E   E   E   E      E   E   E   E   E   E   E   E   
----------------------------------|----------------------------------|
--10--10--10--10--10--10--10--10--|--15--15--15--15--15--15--15--15--|
---x---x---x---x---x---x---x---x--|---x---x---x---x---x---x---x---x--|
---7---7---7---7---7---7---7---7--|--12--12--12--12--12--12--12--12--|
----------------------------------|----------------------------------|
----------------------------------|----------------------------------|


   E   E   E   E   E   E   E   E      E   E   E   E   E   E   E   E   
----------------------------------|----------------------------------|
--11--11--11--11--10--10--10--10--|--10--10--10--10--10--10--10--10--|
---x---x---x---x---x---x---x---x--|---x---x---x---x---x---x---x---x--|
---8---8---8---8---7---7---7---7--|---7---7---7---7---7---7---7---7--|
----------------------------------|----------------------------------|
----------------------------------|----------------------------------|


   E   E   E   E   E   E   E   E      E   E   E   E   E   E   E   E   
----------------------------------|----------------------------------|
--10--10--10--10--10--10--10--10--|--15--15--15--15--15--15--15--15--|
---x---x---x---x---x---x---x---x--|---x---x---x---x---x---x---x---x--|
---7---7---7---7---7---7---7---7--|--12--12--12--12--12--12--12--12--|
----------------------------------|----------------------------------|
----------------------------------|----------------------------------|


   E   E   E   E   E   E   E   E      E   E   E   E   E   E   E   E   
----------------------------------|----------------------------------|
--11--11--11--11--10--10--10--10--|--10--10--10--10--10--10--10--10--|
---x---x---x---x---x---x---x---x--|---x---x---x---x---x---x---x---x--|
---8---8---8---8---7---7---7---7--|---7---7---7---7---7---7---7---7--|
----------------------------------|----------------------------------|
----------------------------------|----------------------------------|


   E   E   E   E   E   E   E   E      E   E   E   E   E   E   E   E   
----------------------------------|----------------------------------|
--10--10--10--10--10--10--10--10--|--15--15--15--15--15--15--15--15--|
---x---x---x---x---x---x---x---x--|---x---x---x---x---x---x---x---x--|
---7---7---7---7---7---7---7---7--|--12--12--12--12--12--12--12--12--|
----------------------------------|----------------------------------|
----------------------------------|----------------------------------|


   E   E   E   E   E   E   E   E      E   E   E   E   E   E   E   E   
----------------------------------|----------------------------------|
--11--11--11--11--10--10--10--10--|--10--10--10--10--10--10--10--10--|
---x---x---x---x---x---x---x---x--|---x---x---x---x---x---x---x---x--|
---8---8---8---8---7---7---7---7--|---7---7---7---7---7---7---7---7--|
----------------------------------|----------------------------------|
----------------------------------|----------------------------------|


   E   E   E   E   E   E   E   E      E   E   E   E   E   E   E   E   
----------------------------------|----------------------------------|
--10--10--10--10--10--10--10--10--|--15--15--15--15--15--15--15--15--|
---x---x---x---x---x---x---x---x--|---x---x---x---x---x---x---x---x--|
---7---7---7---7---7---7---7---7--|--12--12--12--12--12--12--12--12--|
----------------------------------|----------------------------------|
----------------------------------|----------------------------------|


                                                 PM PM PM PM    PM PM  
   E   E   E   E   E   E   E   E      E   S E  S S  S  E  E  E  S  S   
----------------------------------|-----------------------------------|
--11--11--11--11--10--10--10--10--|-----------------------------------|
---x---x---x---x---x---x---x---x--|-----------------------------------|
---8---8---8---8---7---7---7---7--|---------0--0-0--0--0--0-----0--0--|
----------------------------------|---------0--0-0--0--0--0-----0--0--|
----------------------------------|--11b--L-0--0-0--0--0--0-----0--0--|


         PM PM PM PM                         PM PM   PM   PM   PM PM        
   Q     S  S  E  S  E  S T T T T T T T T    S  S  S E  S S  S E  E  E  E   
------------------------------------------|--------------------------------|
------------------------------------------|--------------------------------|
------------------------------------------|--------------------------------|
---------0--0--0--0--0--L-----------------|--0--0----0--L-0----0--0--------|
---------0--0--0--0--0--L-----------------|--0--0----0--L-0----0--0--------|
--11b----0--0--0--0--0--L-0---0---0---0---|--0--0----0--L-0----0--0--------|


  Q    Q    Q    Q      
----------------------||
----------------------||
-------7--------------||
--7----L--------------||
----------------------||
----------------------||


Duration Legend
---------------
W - whole
H - half
Q - quarter
E - 8th
S - 16th
T - 32nd
X - 64th
. - note dotted
|-n-|  - n-tuplets


Tablature Legend
----------------
L - tied note
x - dead note
g - grace note
(n) - ghost note
> - accentuded note
NH - natural harmonic
AH - artificial harmonic
TH - tapped harmonic
SH - semi harmonic
PH - pitch harmonic
h - hammer on
p - pull off
b - bend
br - bendRelease
pb - preBend
pbr - preBendRelease
brb - bendReleaseBend
\n/ - tremolo bar dip
\n - tremolo bar dive
-/n - tremolo bar Release up
/n\ - tremolo bar inverted dip
/n - tremolo bar return
-\n - tremolo bar Release down
S - shift slide
s - legato slide
/ -  slide into from below or out of upwards
\ -  slide into from above or out of downwards
~ - vibrato
W - wide vibrato
tr - trill
TP - tremolo picking
T - tapping
S - slap
P - pop
< - fade in
^ - brush up
v - brush down


That is all! I hope this helped, and be sure to check out my cover if you are
having problems with the tab. Thanks, oh and one last thing... ROCK OUT!!!!
comments
We did not receive enough feedback on this tab! Please rate:
print report bad tab
1 2 3 4 5
4 comments total. Showing first comments.
-2 reply
PinkiePie2 wrote on August 10 2013, 11:00 am

I dont think about tune

0 reply
dkm817 wrote on August 11 2013, 02:43 pm

What about it?

-2 reply
PinkiePie2 wrote on August 12 2013, 01:48 am

All album "From Death to Destiny" write in Drop B

I want to post or [tab]
guest
You may want to rate the tab now too:
select rating
Please do not post tabs as comments. Select "correction" instead!