Oops, an error
Loading. Please wait.

Breathless Tab

ver2
ver2

Whole song

Interactive

More versions @911Tabs.com
6,649 views 21 this week
no commentswrite comment
1 2 3 4 5
accurate
x 3
Autoscroll
+/-
esc
set tempo
stop
Contributor
Difficulty
Tuning
novice
C G C F A D
Hey! There's an official Ultimate Guitar app which is ideal
for learning songs when you're away from computer. Get the app
WARNING: You are trying to view
                                    content from Ultimate-Guitar.com
                                    in an unauthorized application,
                                    which is prohibited.

                                    Please use an official Ultimate
                                    Guitar Tabs application for iPhone,
                                    iPad or Android to access legitimate
                                    chords, guitar, bass, and drum tabs
                                    from Ultimate-Guitar.com database.

                                    Type "ultimate guitar tabs" in Apple
                                    App Store's or Android Market's
                                    search to find the application.
Breathless
-----------

song- Breathless
band- Asking Alexandria
album- Reckless & Relentless
tuning- Drop C (C G C F A D)


INTROv(0:00-0:19)

            /------------------3x----------------------\
|----------|--------------------------------------------|
|----------|--------------------------------------------|
|----------|--------------------------------------------|
|------0<--|--------------------------------------------|
|------0<--|--------------------------------------------|
|------0<--|0-0-0--0--0---0--0--0---0-0-0-0---0-0-0-0---|
            PM---------------------------------------|

|------------------------------------------|
|------------------------------------------|
|------------------------------------------|
|------------------------------------------|
|----------------------------------0-------|
|0-0-0--0--0---0--0--0---0-0-0-0---0-------|
 PM---------------------------------|


RIFF 1 (0:20-0:33)

 /-------------------3x--------------------\
|-------------------------------------------|
|-------------------------------------------|
|-------------------------------------------|
|-------------------------------------------|
|0-0-0--0--0---0--0--0---0-0-0-0---0-0-0-0--|
|0-0-0--0--0---0--0--0---0-0-0-0---0-0-0-0--|
 PM---------------------------------------|

|--------------------------------------------------|
|--------------------------------------------------|
|--------------------------------------------------|
|--------------------------------------------------|
|0-0-0--0--0---0--0--0---0-0-0-0-------------------|
|0-0-0--0--0---0--0--0---0-0-0-0---8-8-8-8-7-7-7-7-|
 PM-----------------------------|


VERSE 1 (0:34-0:57)

 /----------------------------------4x-----------------------------------\
|-------------------------------|-----------------------------------------|
|-------------------------------|-----------------------------------------|
|-------------------------------|-----------------------------------------|
|-------------------------------|-----------------------------------------|
|-----7----8-0-------8----------|----7---8-0-------8----------------------|
|0-0----0------0-8-0----0-0-0-0-|0-0---0-----0-8-0----0-0-8-8-8-8-7-7-7-7-|
 PM-|   PM     PM  PM   PM----------|  PM    PM  PM   PM-|


CHORUS 1 (0:58-1:24)

 /--------------------------------2x-------------------------------\
|----------------|----------------|----------------|----------------|
|----------------|----------------|----------------|----------------|
|----------------|----------------|----------------|----------------|
|8-8-8-8-8-8-8-8-|5-5-5-5-5-5-5-5-|0-0-0-0-0-0-0-0-|3-3-3-3-3-3-3-3-|
|8-8-8-8-8-8-8-8-|5-5-5-5-5-5-5-5-|0-0-0-0-0-0-0-0-|3-3-3-3-3-3-3-3-|
|8-8-8-8-8-8-8-8-|5-5-5-5-5-5-5-5-|0-0-0-0-0-0-0-0-|3-3-3-3-3-3-3-3-|

|----------------|----------------|----------------|----------------|
|----------------|----------------|----------------|----------------|
|----------------|----------------|----------------|----------------|
|----------------|----------------|----------------|----------------|
|----------------|----------------|----------------|----------------|
|8-8-8-8-8-8-8-8-|5-5-5-5-5-5-5-5-|0-0-0-0-0-0-0-0-|3-3-3-3-3-3-3-3-|

|----------------|----------------|----------------|----------------|-------|
|----------------|----------------|----------------|----------------|-------|
|----------------|----------------|----------------|----------------|-------|
|----------------|----------------|----------------|----------------|-------|
|----------------|----------------|----------------|----------------|0------|
|8-8-8-8-8-8-8-8-|5-5-5-5-5-5-5-5-|0-0-0-0-0-0-0-0-|0-0-0-0-0-0-0-0-|1------|
                                                                     PM


VERSE 2 (1:25-1:43)

|------------------------------------------------|
|------------------------------------------------|
|------------------------------------------------|
|------------------------------------------------|
|0-0---0-0---0-0-0-0-0---0-0-0-0-0---0-0-0-0-0---|
|0-0---0-0---0-0-0-0-0---0-0-0-0-0---0-0-0-0-0---|
 PM-------------------------------------------|

|--------------------------------------------------|
|--------------------------------------------------|
|--------------------------------------------------|
|--------------------------------------------------|
|0-0---0-0---0-0-0-0-0---0-0-0-0-0---0-0--0-0-0-0--|
|0-0---0-0---0-0-0-0-0---0-0-0-0-0---0-0--0-0-0-0--|
 PM----------------------------------------------|

 /-------------------4x---------------------\
|--------------------------------------------|
|--------------------------------------------|
|--------------------------------------------|
|--------------------------------------------|
|0-0---0-0---0-0-0-0-0------0-0-0-0-0-0-0----|
|0-0---0-0---0-0-0-0-0------0-0-0-0-0-0-0----|
 PM--------------------------------------|


CHORUS 2 (1:44-2:07)

 /--------------------------------2x-------------------------------\
|----------------|----------------|----------------|----------------|
|----------------|----------------|----------------|----------------|
|----------------|----------------|----------------|----------------|
|8-8-8-8-8-8-8-8-|5-5-5-5-5-5-5-5-|0-0-0-0-0-0-0-0-|3-3-3-3-3-3-3-3-|
|8-8-8-8-8-8-8-8-|5-5-5-5-5-5-5-5-|0-0-0-0-0-0-0-0-|3-3-3-3-3-3-3-3-|
|8-8-8-8-8-8-8-8-|5-5-5-5-5-5-5-5-|0-0-0-0-0-0-0-0-|3-3-3-3-3-3-3-3-|

|----------------|----------------|----------------|----------------|
|----------------|----------------|----------------|----------------|
|----------------|----------------|----------------|----------------|
|----------------|----------------|----------------|----------------|
|----------------|----------------|----------------|----------------|
|8-8-8-8-8-8-8-8-|5-5-5-5-5-5-5-5-|0-0-0-0-0-0-0-0-|3-3-3-3-3-3-3-3-|

|----------------|----------------|----------------|----------------|
|----------------|----------------|----------------|----------------|
|----------------|----------------|----------------|----------------|
|----------------|----------------|----------------|----------------|
|----------------|----------------|----------------|----------------|
|8-8-8-8-8-8-8-8-|5-5-5-5-5-5-5-5-|0-0-0-0-0-0-0-0-|0-0-0-0-0-0-0-0-|


INTERLUDE (2:08-2:43)

|----------------|----------------|------------------------|----------------|
|----------------|----------------|------------------------|----------------|
|----------------|----------------|10-10-10-10-10-10-10-10-|9-9-9-9-9-9-9-9-|
|----------------|----------------|-x--x--x--x--x--x--x--x-|x-x-x-x-x-x-x-x-|
|----------------|----------------|-8--8--8--8--8--8--8--8-|7-7-7-7-7-7-7-7-|
|8-8-8-8-8-8-8-8-|7-7-7-7-7-7-7-7-|------------------------|----------------|

|----------------|------------------------|
|----------------|------------------------|
|----------------|------------------------|
|----------------|------------------------|
|----------------|------------------------|
|8-8-8-8-8-8-8-8-|10-10-10-10-10-10-10-10-|

|------------------------|------------------------|
|------------------------|------------------------|
|10-10-10-10-10-10-10-10-|12-12-12-12-12-12-12-12-|
|-x--x--x--x--x--x--x--x-|-x--x--x--x--x--x--x--x-|
|-8--8--8--8--8--8--8--8-|10-10-10-10-10-10-10-10-|
|------------------------|------------------------|

|----------------|----------------|----------------------------------------|
|----------------|----------------|----------------------------------------|
|----------------|----------------|----------------------------------------|
|----------------|----------------|----------------------------------------|
|----------------|----------------|0-0-0--0--0--0-0-0--0--0--0-0-0--0-0-0--|
|8-8-8-8-8-8-8-8-|7-7-7-7-7-7-7-7-|0-0-0--0--0--0-0-0--0--0--0-0-0--0-0-0--|
                                   PM------------------------------------|

|----------------|------------------------|
|----------------|------------------------|
|----------------|------------------------|
|----------------|------------------------|
|----------------|------------------------|
|8-8-8-8-8-8-8-8-|10-10-10-10-10-10-10-10-|

|----------------------------------------|----------------------------------|
|----------------------------------------|----------------------------------|
|----------------------------------------|----------------------------------|
|----------------------------------------|0---------------------------------|
|0-0-0--0--0--0-0-0--0--0--0-0-0--0-0-0--|0---------------------------------|
|0-0-0--0--0--0-0-0--0--0--0-0-0--0-0-0--|0-----------------8-8-8-8-7-7-7-7-|
 PM------------------------------------|

|----------------------------------------|-------------------------|
|----------------------------------------|-------------------------|
|----------------------------------------|-------------------------|
|----------------------------------------|-------------------------|
|0-0-0--0--0--0-0-0--0--0--0-0-0--0-0-0--|0-0-0--0--0-0------------|
|0-0-0--0--0--0-0-0--0--0--0-0-0--0-0-0--|0-0-0--0--0-0------------|
 PM----------------------------------------------------|


BREAKDOWN 1 (2:44-3:07)

 /-----------------6x-------------------\
|----------------------------------------|
|----------------------------------------|
|----------------------------------------|
|----------------------------------------|
|0-0-0--0--0--0-0-0--0--0--0-0-0--0-0-0--|
|0-0-0--0--0--0-0-0--0--0--0-0-0--0-0-0--|
 PM------------------------------------|

 /-------------------2x-----------------\
|----------------------------------------|
|----------------------------------------|
|----------------------------------------|
|----------------------------------------|
|0-0-0--0--0--0-0-0--0--0--0-0-0--0-0-0--|
|1-1-1--1--1--1-1-1--1--1--1-1-1--1-1-1--|
 PM------------------------------------|


VERSE 3 (3:08-3:30)

|------------------------------------------|
|------------------------------------------|
|------------------------------------------|
|------------------------------------------|
|-----------------------------0-0-0--0--0--|
|0-0-0-0-0-0-0-0-8--7--0--5---0-0-0--0--0--|
 PM-------------|             PM---------|

|------------------------------------------|
|------------------------------------------|
|------------------------------------------|
|------------------------------------------|
|-------------------8--7--5-----------0----|
|0-0-0-0-0-0-0-0-10-------------------0----|
 PM-------------|                     PM

|------------------------------------------| ---
|------------------------------------------|  |
|------------------------------------------|  |
|------------------------------------------|  |
|-----------------------------0-0-0--0--0--|  |
|0-0-0-0-0-0-0-0-8--7--0--5---0-0-0--0--0--|  |
 PM-------------|             PM---------|    |
                                              2x
|------------------------------------------|  |
|------------------------------------------|  |
|------------------------------------------|  |
|------------------------------------------|  |
|-------------------8--7--5-----------0----|  |
|0-0-0-0-0-0-0-0-10-------------------1----| ---
 PM-------------|                     PM

|-----------------------------------------|
|-----------------------------------------|
|-----------------------------------------|
|0----------------------------------------|
|0-------0-0-0--0--0--0-0-0--0--0---------|
|0-------0-0-0--0--0--0-0-0--0--0--0\\\\\-|
         PM----------------------|

OUTRO (3:31-4:10)

 /---------------------3x-----------------------\
|------------------------------------------------|
|------------------------------------------------|
|------------------------------------------------|
|------------------------------------------------|
|0-0-0--0--0--0-0-0--0--0----0-0-0--0-0-0--0--0--|
|0-0-0--0--0--0-0-0--0--0----0-0-0--0-0-0--0--0--|
 PM--------------------------------------------|

|------------------------------------------------|
|------------------------------------------------|
|------------------------------------------------|
|------------------------------------------------|
|0-0-0--0--0--0-0-0--0--0--7h10p7p0-5p0-4p0-0----|
|0-0-0--0--0--0-0-0--0--0------------------------|
 PM----------------------|

|-------------------------------------------|-------------------------------|
|-------------------------------------------|-------------------------------|
|-------------------------------------------|-------------------------------|
|-------------------------------------------|-------------------------------|
|0-0-0--0--0--0-0-0--0--0--0-0-0--0--0------|0--0-0-0---7h10p7p0-5p0-4p0-0--|
|0-0-0--0--0--0-0-0--0--0--0-0-0--0--0------|0--0-0-0-----------------------|
 PM--------------------------------------------------|

|-----------------------------------------|
|-----------------------------------------|
|-----------------------------------------|
|-----------------------------------------|
|0-0-0--0--0--0-0-0--0--0--0-0-0--0--0----|
|0-0-0--0--0--0-0-0--0--0--0-0-0--0--0----|
 PM-----------------------------------|

|--------------------------------------|
|--------------------------------------|
|--------------------------------------|
|--------------------------------0--0--|
|0--0-0-0---0-0-0--0-0-0--0-0-0--0--0--|
|0--0-0-0---0-0-0--0-0-0--0-0-0--0--0--|
 PM----------------------------------|

END



Legend
--------

PM          palm mute
\\\\        whammy bar dive
h           hammer on
p           pull off
x           mute string
<           volume swell
comments
We did not receive enough feedback on this tab! Please rate:
print report bad tab
1 2 3 4 5
I want to post or [tab]
guest
You may want to rate the tab now too:
select rating
Please do not post tabs as comments. Select "correction" instead!