Oops, an error
Loading. Please wait.

If You Cant Ride Two Horses At Once You Should Get Out Of The Circus Tab

ver5
ver5

Whole song

Interactive

More versions @911Tabs.com
185 views 1 this week
no commentswrite comment
1 2 3 4 5
poor
x 1
add to favorites
launch autoscroll
font size
0
reset
Tab Pro tools
  • play this tab
  • loop segment
  • change instrument
  • show fretboard
  • metronome
×
Best way to learn
"If You Cant Ride Two Horses At Once You Should Get Out Of The Circus"
Autoscroll
+/-
esc
set tempo
stop
Contributor
Difficulty
Tuning
novice
D A D G B E
WARNING: You are trying to view
                                    content from Ultimate-Guitar.com
                                    in an unauthorized application,
                                    which is prohibited.

                                    Please use an official Ultimate
                                    Guitar Tabs application for iPhone,
                                    iPad or Android to access legitimate
                                    chords, guitar, bass, and drum tabs
                                    from Ultimate-Guitar.com database.

                                    Type "ultimate guitar tabs" in Apple
                                    App Store's or Android Market's
                                    search to find the application.
DROP D - DADGBE

h = Hammer-on
p = Pull-off
. = Palm Mute
~ = Let Ring
" = Tremolo Picking
/ = Slide Up
\ = Slide Down

---

GUITAR 1

e|------------------------------------------------------------------------------|
B|------------------------------------------------------------------------------|
G|------------------------------------------------------------------------------|
D|------------------------------------------------------------------------------|
A|-5"---------------8"-------7"---------------------------------10"--8"--7"--8"-|
D|------------------------------------8"---------------7"-----------------------|

e|----------------------------------------------------------------------|
B|----------------------------------------------------------------------|
G|----------------------------------------------------------------------|
D|----------------------------------------------------------------------|
A|-5"---------------8"-------7"-----------------------------------------|
D|------------------------------------8"---------------7"---------------|

e|-------------------------------------------------------------|
B|-------------------------------------------------------------|
G|-------------------------------------------------------------|
D|-------------------------------------------------------------|
A|-000000~-000000~-0000~-000000~-000000~-000000~-0000~-000000~-|
D|-000000~-000000~-0000~-000000~-000000~-000000~-0000~-000000~-|
   ......  ......  ....  ......  ......  ......  ....  ......

e|----------------------------------------------------------------|
B|---------6----------------6------------6------------------------|
G|-----------9------------9---9------------9----------------------|
D|-------------7--------7--------------------7--------------------|
A|-000000---------0000-----------000000---------0000--00000-00000-|
D|-000000---------0000-----------000000---------0000--00000-00000-|
   ......         ....           ......         ....  ..... .....
                                                      ^^^^^ ^^^^^
                                                     Faster Strums

e|-------------------------------------------------------------|
B|---------6----------------6------------6---------------------|
G|-----------9------------9---9------------9----------5--7-----|
D|-------------7--------7--------------------7--------x--x--0~-|
A|-000000---------0000-----------000000---------0000--3--5--0~-|
D|-000000---------0000-----------000000---------0000--------0~-|
   ......         ....           ......         ....

GUITAR 2

e|------------------------------------------------------------|
B|------------------------------------------------------------|
G|------------------------------------------------------------|
D|------------------------------------------------------------|
A|-000000--000000--0000--000000--000000--000000--0000--000000-|
D|-000000--000000--0000--000000--000000--000000--0000--000000-|
   ......  ......  ....  ......  ......  ......  ....  ......

e|-----------------------------------------------------------|
B|-----------------------------------------------------------|
G|-----------------------------------------------------------|
D|-----------------------------------------------------------|
A|-000000--000000--0000--000000--000000--000000--0000--00000-|
D|-000000--000000--0000--000000--000000--000000--0000--00000-|
   ......  ......  ....  ......  ......  ......  ....  .....

e|-------------------------------------------------------------|
B|-------------------------------------------------------------|
G|-------------------------------------------------------------|
D|-------------------------------------------------------------|
A|-000000~-000000~-0000~-000000~-000000~-000000~-0000~-000000~-|
D|-000000~-000000~-0000~-000000~-000000~-000000~-0000~-000000~-|
   ......  ......  ....  ......  ......  ......  ....  ......

e|----------------------------------------------------------------|
B|----------------------------------------------------------------|
G|---------5----------------5------------5------------------------|
D|-----------3------------3---3------------3----------------------|
A|-000000------0--0000--0--------000000------0--0000--00000-00000-|
D|-000000---------0000-----------000000---------0000--00000-00000-|
   ......         ....           ......         ....  ..... .....
                                                      ^^^^^ ^^^^^
                                                     Faster Strums

e|-------------------------------------------------------------------|
B|-------------------------------------------------------------------|
G|---------5----------------5------------5---------------------------|
D|-----------3------------3---3------------3----------------------0~-|
A|-000000------0--0000--0--------000000------0--0000--00000-00000-0~-|
D|-000000---------0000-----------000000---------0000--00000-00000-0~-|
   ......         ....           ......         ....  ..... .....
                                                      ^^^^^ ^^^^^
                                                     Faster Strums

---

GUITAR 1

e|------------------------------------------------------------------|
B|------------------------------------------------------------------|
G|------------------------------------------------------------------|
D|------------------------------------------------------------------|
A|-5-----5-----5---8---7---5---7-------------------------------10-8-|
D|---0-0---0-0---0---0---0---0---0-8-0-0-8-0-0-8-0-7-0-0-7-0-0------|
     . .   . .   .   .   .   .   .   . .   . .   .   . .   . .

e|--------------------------------------------------------------------|
B|--------------------------------------------------------------------|
G|--------------------------------------------------------------------|
D|--------------------------------------------------------------------|
A|-5-----5-----5---8---7---5---7---10-----10-----10---8-----8-----8---|
D|---0-0---0-0---0---0---0---0---0----0-0----0-0----0---0-0---0-0---0-|
     . .   . .   .   .   .   .   .    . .    . .    .   . .   . .   .

e|------------------------------------------------------------------|
B|------------------------------------------------------------------|
G|------------------------------------------------------------------|
D|------------------------------------------------------------------|
A|-5-----5-----5---8---7---5---7-------------------------------10-8-|
D|---0-0---0-0---0---0---0---0---0-8-0-0-8-0-0-8-0-7-0-0-7-0-0------|
     . .   . .   .   .   .   .   .   . .   . .   .   . .   . .

e|--------------------------------------------------------------------|
B|--------------------------------------------------------------------|
G|--------------------------------------------------------------------|
D|--------------------------------------------------------------------|
A|-5-----5-----5---8---7---5---7---10-----10-----10---8-----8-----8---|
D|---0-0---0-0---0---0---0---0---0----0-0----0-0----0---0-0---0-0---0-|
     . .   . .   .   .   .   .   .    . .    . .    .   . .   . .   .

e|----------|
B|----------|
G|----------|
D|-8-----10-|
A|-8-----10-|
D|-8-0-0-10-|
     . .

GUITAR 2

e|-----------------------------------------|
B|-----------------------------------------|
G|-----------------------------------------|
D|-----------------------------------------|
A|-0-------------------0-0------------0----|
D|-0-------------------0-0------------0----|
   .                   . .            .

e|--------------------------------|
B|--------------------------------|
G|--------------------------------|
D|--------------------------------|
A|-0-0~-----------\\\Pickslide\\\-|
D|-0-0~---------------------------|
   . .

e|-----------------------------------------------------------------|
B|-----------------------------------------------------------------|
G|-----------------------------------------------------------------|
D|-3-----3-----3---7---5---3---5-------------------------------8-7-|
A|---------------------------------5-----5-----5---3-----3---------|
D|---0-0---0-0---0---0---0---0---0---0-0---0-0---0---0-0---0-0-----|
     . .   . .   .   .   .   .   .   . .   . .   .   . .   . .

e|-----------------------------------------------------------------|
B|-----------------------------------------------------------------|
G|-----------------------------------------------------------------|
D|-3-----3-----3---7---5---3---5---8-----8-----8---7-----7-----7---|
A|-----------------------------------------------------------------|
D|---0-0---0-0---0---0---0---0---0---0-0---0-0---0---0-0---0-0---0-|
     . .   . .   .   .   .   .   .   . .   . .   .   . .   . .   .

e|----------|
B|----------|
G|----------|
D|-8-----10-|
A|-8-----10-|
D|-8-0-0-10-|
     . .

---

BOTH GUITARS (1 & 2)

e|---------------------------------------------------------|
B|---------------------------------------------------------|
G|---------------------------------------------------------|
D|---------------------------------------------------------|
A|-3-00------3h5--3-00-------3-00------3h5--3-00---3-0-0-5-|
D|-3-00------3h5--3-00-------3-00------3h5--3-00---3-0-0-5-|
                                                     . .

e|--------------------------------------------------|
B|--------------------------------------------------|
G|--------------------------------------------------|
D|-------------------------------------------3h5p3--|
A|-3-00--000-----------------3-00--000----3h5-----5-|
D|-3-00--000-3p0-0-5p0-0-6p0-3-00--000-3h5----------|
         ...     .     .           ...

e|---------------------------------------------|
B|---------------------------------------------|
G|---------------------------------------------|
D|---------------------------------------------|
A|-3-00--000-----------------3-00--000-3-0-0-5-|
D|-3-00--000-3p0-0-5p0-0-6p0-3-00--000-3-0-0-5-|
         ...     .     .           ...   . .

e|--------------------------------------------------|
B|--------------------------------------------------|
G|--------------------------------------------------|
D|-------------------------------------------3h5p3--|
A|-3-00--000-----------------3-00--000----3h5-----5-|
D|-3-00--000-3p0-0-5p0-0-6p0-3-00--000-3h5----------|
         ...     .     .           ...

e|---------------------------------------------|
B|---------------------------------------------|
G|---------------------------------------------|
D|---------------------------------------------|
A|-3-00--000-----------------3-00--000-3-0-0-5-|
D|-3-00--000-3p0-0-5p0-0-6p0-3-00--000-3-0-0-5-|
         ...     .     .           ...   . .

---

GUITAR 1

e|----------------------------------------------------------|
B|----------------------------------------------------------|
G|-10--------9---------10--------14--------12-------15------|
D|-x--(16x)--x--(16x)--x--(16x)--x---(8x)--x--(4x)--x--(4x)-|
A|-8---------7---------8---------12--------10-------13------|
D|----------------------------------------------------------|

e|-----------------------------------------------------|
B|-----------------------------------------------------|
G|-10--------9---------10--------3--------9--------10~-|
D|-x--(16x)--x--(16x)--x--(16x)--x--(8x)--x--(8x)--x---|
A|-8---------7---------8---------1--------7--------8~--|
D|-----------------------------------------------------|

GUITAR 2

e|--------------------------------------------------|
B|--------------------------------------------------|
G|--------------------------------------------------|
D|-0---------3---------8---------7--------10--------|
A|-0--(16x)--3--(16x)--8--(16x)--7--(8x)--10--(8x)--|
D|-0---------3---------8---------7--------10--------|

e|-----------------------------------------------------|
B|-----------------------------------------------------|
G|-----------------------------------------------------|
D|-0---------3---------8---------7--------10--------0~-|
A|-0--(16x)--3--(16x)--8--(16x)--7--(8x)--10--(8x)--0~-|
D|-0---------3---------8---------7--------10--------0~-|

---

BOTH GUITARS (1 & 2)

e|------------------------------------------|
B|------------------------------------------|
G|------------------------------------------|
D|------------------------------------------|
A|-000000000--0000000-00-000000000--0000000-|
D|-000000000--0000000-00-000000000--0000000-|
   .........  ....... .. .........  .......

e|--------------------------------------|
B|--------------------------------------|
G|--------------------------------------|
D|--------------------------------------|
A|-0~0~0~0--0000000-00--0~0~0~0-0000000-|
D|-0~0~0~0--0000000-00--0~0~0~0-0000000-|
   . . . .  ....... ..  . . . . .......

---

GUITAR 1

e|------------------------------------------|
B|------------------------------------------|
G|------------------------------------------|
D|------------------------------------------|
A|-5"---8"---4"---7"---5"---8"---10"---7"---|
D|------------------------------------------|

e|------------------------------------------|
B|------------------------------------------|
G|------------------------------------------|
D|------------------------------------------|
A|-5"---8"---4"---7"---5"---8"---10"---7"---|
D|------------------------------------------|

GUITAR 2

e|-----------------------|
B|-----------------------|
G|-----------------------|
D|-----------------------|
A|-000000000--0000000-00-|
D|-000000000--0000000-00-|
   .........  ....... ..

e|-----------------------|
B|-----------------------|
G|-----------------------|
D|-----------------------|
A|-000000000--0000000-00-|
D|-000000000--0000000-00-|
   .........  ....... ..

GUITAR 3

e|-------------------------------------------|
B|-------------------------------------------|
G|-------------------------------------------|
D|-------------------------------------------|
A|-------------------------------------------|
D|-------------------------------------------|

e|-------------------------------------------|
B|-------------------------------------------|
G|-------------------------------------------|
D|-------------------------------------------|
A|-8"---12"--7"---10"--8"---12"--13"---10"---|
D|-------------------------------------------|

---

BOTH GUITARS (1 & 2)

e|----------------------------------------------------|
B|----------------------------------------------------|
G|----------------------------------------------------|
D|----------------------------------------------------|
A|-000000000~-0000000~-00~-000000000~-0000000~-00~-0~-|
D|-111111111~-1111111~-11~-111111111~-1111111~-11~-0~-|

---

GUITAR 1

e|--------------------------------------------|
B|--------------------------------------------|
G|-10-------9-------10-------15-------14------|
D|-x--(8x)--x-(8x)--x--(8x)--x--(4x)--x--(4x)-|
A|-8--------7-------8--------13-------12------|
D|--------------------------------------------|

e|------------------------------------------|
B|------------------------------------------|
G|-10-------9-------10-------3-------5------|
D|-x--(8x)--x-(8x)--x--(8x)--x-(4x)--x-(4x)-|
A|-8--------7-------8--------1-------3------|
D|------------------------------------------|

e|--------------------------------------------|
B|--------------------------------------------|
G|-10-------9-------10-------15-------14------|
D|-x--(8x)--x-(8x)--x--(8x)--x--(4x)--x--(4x)-|
A|-8--------7-------8--------13-------12------|
D|--------------------------------------------|

e|---------------------------------------------|
B|---------------------------------------------|
G|-10-------9-------10-------3-------5---------|
D|-x--(8x)--x-(8x)--x--(8x)--x-(4x)--x-(4x)-0~-|
A|-8--------7-------8--------1-------3------0~-|
D|------------------------------------------0~-|

---

GUITAR 2

e|-----------------------------------------------|
B|-----------------------------------------------|
G|-----------------------------------------------|
D|-0--------10--------8--------3--------2--------|
A|-0--(8x)--10--(8x)--8--(8x)--3--(4x)--2--(4x)--|
D|-0--------10--------8--------3--------2--------|

e|------------------------------------------------|
B|------------------------------------------------|
G|------------------------------------------------|
D|-0--------10--------8--------5--------10--------|
A|-0--(8x)--10--(8x)--8--(8x)--5--(4x)--10--(4x)--|
D|-0--------10--------8--------5--------10--------|

e|-----------------------------------------------|
B|-----------------------------------------------|
G|-----------------------------------------------|
D|-0--------10--------8--------3--------2--------|
A|-0--(8x)--10--(8x)--8--(8x)--3--(4x)--2--(4x)--|
D|-0--------10--------8--------3--------2--------|

e|---------------------------------------------------|
B|---------------------------------------------------|
G|---------------------------------------------------|
D|-0--------10--------8--------5--------10--------0~-|
A|-0--(8x)--10--(8x)--8--(8x)--5--(4x)--10--(4x)--0~-|
D|-0--------10--------8--------5--------10--------0~-|

---

GUITAR 3 (REPEAT UNTIL THE END)

e|-17-------15-------15----|
B|----15-15----15-15----15-|
G|-------------------------|
D|-------------------------|
A|-------------------------|
D|-------------------------|
comments
We did not receive enough feedback on this tab! Please rate:
print report bad tab
1 2 3 4 5
I want to post or [tab]
guest
You may want to rate the tab now too:
select rating
Please do not post tabs as comments. Select "correction" instead!