Oops, an error
Loading. Please wait.

Killing You Tab

ver1
ver1

Whole song

Interactive

More versions @911Tabs.com
13,857 views 155 this week
1 commentread comment
1 2 3 4 5
excellent!
x 4
Autoscroll
+/-
esc
set tempo
stop
Contributor
Difficulty
Tuning
intermediate
B F# B E G# C#
Hey! There's an official Ultimate Guitar app which is ideal
for learning songs when you're away from computer. Get the app
WARNING: You are trying to view
                                    content from Ultimate-Guitar.com
                                    in an unauthorized application,
                                    which is prohibited.

                                    Please use an official Ultimate
                                    Guitar Tabs application for iPhone,
                                    iPad or Android to access legitimate
                                    chords, guitar, bass, and drum tabs
                                    from Ultimate-Guitar.com database.

                                    Type "ultimate guitar tabs" in Apple
                                    App Store's or Android Market's
                                    search to find the application.
----------------------------------------------------------------------------
                            Killing You
                         Asking Alexandria
----------------------------------------------------------------------------

Asking Alexandria changes every album. Even though, personally, I don’t think anything
can top “Reckless and Relentless”, this album seems to be peaking my interests after
every single. “Killing You” contains glimpses of other AA songs like “Dear Insanity” and 
“Run Fee” but I think it worked well in this song. Enjoy!

Username: dkm817 (same on X box live)
Youtube Cover: https://www.youtube.com/watch?v=-13ViRf0ttU
Email: guitardrums@rockfan.com

Guitar 1 Rhythmic (B  F# B  E  G# C# )
Guitar 2 Lead     (B  F# B  E  G# C# )
Guitar 2 Lead     (B  F# B  E  G# C# )

NOTE: This was exported off of guitar pro.

Guitar 1

Starts at (00:24)

          S S S S S S S S S S S S S S S S    S S S S S S S S S S S S S S S S
-------|----------------------------------|----------------------------------|
-------|----------------------------------|----------------------------------|
-------|----------------------------------|----------------------------------|
-------|----------------------------------|----------------------------------|
-------|----------------------------------|----------------------------------|
-------|--0-0-0-0-0-0-0-0-0-0-0-0-0-0-0-0-|--0-0-0-0-0-0-0-0-0-0-0-0-0-0-0-0-|


  S S S S S S S S S S S S S S S S    S S S S S S S S S S S S S S S S
----------------------------------|----------------------------------|
----------------------------------|----------------------------------|
----------------------------------|----------------------------------|
----------------------------------|----------------------------------|
----------------------------------|----------------------------------|
--8-8-8-8-8-8-8-8-8-8-8-8-8-8-8-8-|--5-5-5-5-5-5-5-5-5-5-5-5-5-5-5-5-|


  S S S S S S S S S S S S S S S S    S S S S S S S S S S S S S S S S
----------------------------------|----------------------------------|
----------------------------------|----------------------------------|
----------------------------------|----------------------------------|
----------------------------------|----------------------------------|
----------------------------------|----------------------------------|
--0-0-0-0-0-0-0-0-0-0-0-0-0-0-0-0-|--0-0-0-0-0-0-0-0-0-0-0-0-0-0-0-0-|


  S S S S S S S S S S S S S S S S    S S S S S S S S S S S S S S S S
----------------------------------|----------------------------------|
----------------------------------|----------------------------------|
----------------------------------|----------------------------------|
----------------------------------|----------------------------------|
----------------------------------|----------------------------------|
--8-8-8-8-8-8-8-8-8-8-8-8-8-8-8-8-|--5-5-5-5-5-5-5-5-5-5-5-5-5-5-5-5-|


                  PM PM PM PM PM PM PM PM PM PM
  S S S S S S S S S  T  T  S  S  T  T  S  S  S
------------------------------------------------|
------------------------------------------------|
------------------------------------------------|
------------------------------------------------|
------------------------------------------------|
--0-0-0-0-0-0-0-0-0--0--0--0--0--0--0--0--0--0--|


  S S S S S S S S S S S S  S  S  S  S
--------------------------------------|
--------------------------------------|
--------------------------------------|
--------------------------------------|
--------------------------------------|
--8-8-8-8-8-8-8-8-5-5-5-5-10-10-10-10-|


                  PM PM PM PM PM PM PM PM PM PM PM
  S S S S S S S S T  T  S  S  T  T  S  S  T  T  S
---------------------------------------------------|
---------------------------------------------------|
---------------------------------------------------|
---------------------------------------------------|
---------------------------------------------------|
--0-0-0-0-0-0-0-0-0--0--0--0--0--0--0--0--0--0--0--|


  S S S S S S S S S S S S  S  S  S  S
--------------------------------------|
--------------------------------------|
--------------------------------------|
--------------------------------------|
--------------------------------------|
--8-8-8-8-8-8-8-8-5-5-5-5-10-10-10-10-|


                  PM PM PM PM PM PM PM PM PM PM
  S S S S S S S S S  T  T  S  S  T  T  S  S  S
------------------------------------------------|
------------------------------------------------|
------------------------------------------------|
------------------------------------------------|
------------------------------------------------|
--0-0-0-0-0-0-0-0-0--0--0--0--0--0--0--0--0--0--|


  S S S S S S S S S S S S  S  S  S  S
--------------------------------------|
--------------------------------------|
--------------------------------------|
--------------------------------------|
--------------------------------------|
--8-8-8-8-8-8-8-8-5-5-5-5-10-10-10-10-|


                  PM PM PM PM PM PM PM PM PM PM PM
  S S S S S S S S T  T  S  S  T  T  S  S  T  T  S
---------------------------------------------------|
---------------------------------------------------|
---------------------------------------------------|
---------------------------------------------------|
---------------------------------------------------|
--0-0-0-0-0-0-0-0-0--0--0--0--0--0--0--0--0--0--0--|


  S S S S S S S S S S S S  S  S  S  S    E  S E  S E  E  S E  S E
--------------------------------------|----------------------------|
--------------------------------------|----------------------------|
--------------------------------------|----------------------------|
--------------------------------------|--0--L-0--L-0--0--L-0--L-0--|
--------------------------------------|--0--L-0--L-0--0--L-0--L-0--|
--8-8-8-8-8-8-8-8-5-5-5-5-10-10-10-10-|--0--L-0--L-0--0--L-0--L-0--|


  E  S E  S E  E  S E  S E     E  S E  S E  E  S E  S E
----------------------------|----------------------------|
----------------------------|----------------------------|
----------------------------|----------------------------|
--5--L-5--L-5--5--L-5--L-5--|--8--L-8--L-8--8--L-8--L-8--|
--5--L-5--L-5--5--L-5--L-5--|--8--L-8--L-8--8--L-8--L-8--|
--5--L-5--L-5--5--L-5--L-5--|--8--L-8--L-8--8--L-8--L-8--|


   E  S  E  S  E   E  S  E  S  E     S S S S S S S S S S S S S S S S
----------------------------------|----------------------------------|
----------------------------------|----------------------------------|
----------------------------------|----------------------------------|
--10--L-10--L-10--10--L-10--L-10--|--0-0-0-0-0-0-0-0-0-0-0-0-0-0-0-0-|
--10--L-10--L-10--10--L-10--L-10--|--0-0-0-0-0-0-0-0-0-0-0-0-0-0-0-0-|
--10--L-10--L-10--10--L-10--L-10--|--0-0-0-0-0-0-0-0-0-0-0-0-0-0-0-0-|


  S S S S S S S S S S S S S S S S    S S S S S S S S S S S S S S S S
----------------------------------|----------------------------------|
----------------------------------|----------------------------------|
----------------------------------|----------------------------------|
--5-5-5-5-5-5-5-5-5-5-5-5-5-5-5-5-|--8-8-8-8-8-8-8-8-8-8-8-8-8-8-8-8-|
--5-5-5-5-5-5-5-5-5-5-5-5-5-5-5-5-|--8-8-8-8-8-8-8-8-8-8-8-8-8-8-8-8-|
--5-5-5-5-5-5-5-5-5-5-5-5-5-5-5-5-|--8-8-8-8-8-8-8-8-8-8-8-8-8-8-8-8-|


   S  S  S  S  S  S  S  S  S  S  S  S  S  S  S  S
--------------------------------------------------|
--------------------------------------------------|
--------------------------------------------------|
--10-10-10-10-10-10-10-10-10-10-10-10-10-10-10-10-|
--10-10-10-10-10-10-10-10-10-10-10-10-10-10-10-10-|
--10-10-10-10-10-10-10-10-10-10-10-10-10-10-10-10-|


    PM PM   PM   PM PM     PM     PM
  S S  S  S S  S S  S  S S S  S S S  S S
-----------------------------------------|
-----------------------------------------|
-----------------------------------------|
-------------------------------------2-3-|
-----------------------5-3----0-1--------|
--0-0--0--0-0--0-0--0------0------0------|


    PM PM   PM   PM PM     PM     PM
  S S  S  S S  S S  S  S S S  S S S  S S
-----------------------------------------|
-----------------------------------------|
-----------------------------------------|
------------------------------5-3----2-3-|
-----------------------5-3---------------|
--0-0--0--0-0--0-0--0------0------0------|


    PM PM   PM   PM PM     PM     PM
  S S  S  S S  S S  S  S S S  S S S  S S
-----------------------------------------|
-----------------------------------------|
-----------------------------------------|
-------------------------------------2-3-|
-----------------------5-3----0-1--------|
--0-0--0--0-0--0-0--0------0------0------|


  S S S S S S S S  S  S  S  S  S  S  S  S
------------------------------------------|
------------------------------------------|
------------------------------------------|
------------------------------------------|
------------------------------------------|
--8-8-8-8-8-8-8-8-10-10-10-10-10-10-10-10-|


    PM PM   PM   PM PM     PM     PM
  S S  S  S S  S S  S  S S S  S S S  S S
-----------------------------------------|
-----------------------------------------|
-----------------------------------------|
-------------------------------------2-3-|
-----------------------5-3----0-1--------|
--0-0--0--0-0--0-0--0------0------0------|


    PM PM   PM   PM PM     PM     PM
  S S  S  S S  S S  S  S S S  S S S  S S
-----------------------------------------|
-----------------------------------------|
-----------------------------------------|
------------------------------5-3----2-3-|
-----------------------5-3---------------|
--0-0--0--0-0--0-0--0------0------0------|


    PM PM   PM   PM PM     PM     PM
  S S  S  S S  S S  S  S S S  S S S  S S
-----------------------------------------|
-----------------------------------------|
-----------------------------------------|
-------------------------------------2-3-|
-----------------------5-3----0-1--------|
--0-0--0--0-0--0-0--0------0------0------|


  S S S S S S S S  S  S  S  S  S  S  S  S
------------------------------------------|
------------------------------------------|
------------------------------------------|
------------------------------------------|
------------------------------------------|
--8-8-8-8-8-8-8-8-10-10-10-10-10-10-10-10-|


   S  E   S  S  E   S  S  E   S  S  E   S    S E  S S E  S E  E  E  E
------------------------------------------|----------------------------|
------------------------------------------|----------------------------|
--10-10--10-10-10--10-10-10--10-10-10--10-|--9-9--9-9-9--9-7-----------|
---x--x---x--x--x---x--x--x---x--x--x---x-|--x-x--x-x-x--x-x-----------|
---8--8---8--8--8---8--8--8---8--8--8---8-|--7-7--7-7-7--7-5-----------|
------------------------------------------|----------------------------|


  PM PM PM PM                     PM PM PM    PM PM PM PM    PM
  S  S  S  S  H        Q       E  E  S  S  E  S  S  S  S  E  E
----------------------------|-----------------------------------|
----------------------------|-----------------------------------|
----------------------------|-----------------------------------|
--0--0--0--0--L--------L----|--L--0--0--0--L--0--0--0--0--L--0--|
--0--0--0--0--L--------L----|--L--0--0--0--L--0--0--0--0--L--0--|
--0--0--0--0--L--------L----|--L--0--0--0--L--0--0--0--0--L--0--|


  PM PM PM PM
  S  S  S  S  H        Q
----------------------------|
----------------------------|
----------------------------|
--0--0--0--0--L--------L----|
--0--0--0--0--L--------L----|
--0--0--0--0--L--------L----|


     PM PM PM    PM PM PM PM PM   PM PM PM PM PM
  E  E  S  S  E  T  T  T  T  S  S T  T  T  T  S  S
---------------------------------------------------|
---------------------------------------------------|
---------------------------------------------------|
--L--0--0--0--L--0--0--0--0--0----0--0--0--0--0----|
--L--0--0--0--L--0--0--0--0--0----0--0--0--0--0----|
--L--0--0--0--L--0--0--0--0--0----0--0--0--0--0----|


  PM PM PM PM
  S  S  S  S  H        Q
----------------------------|
----------------------------|
----------------------------|
--0--0--0--0----------------|
--0--0--0--0----------------|
--0--0--0--0----------------|


     PM PM PM PM PM PM     PM PM PM PM PM   PM PM PM PM PM
  E  T  T  T  T  S  S  S S T  T  T  T  S  S T  T  T  T  S  S
-------------------------------------------------------------|
-------------------------------------------------------------|
-------------------------------------------------------------|
-----0--0--0--0--0--0------0--0--0--0--0----0--0--0--0--0----|
-----0--0--0--0--0--0------0--0--0--0--0----0--0--0--0--0----|
-----0--0--0--0--0--0------0--0--0--0--0----0--0--0--0--0----|


  PM PM PM PM
  S  S  S  S  H        Q
----------------------------|
----------------------------|
----------------------------|
--0--0--0--0----------------|
--0--0--0--0----------------|
--0--0--0--0----------------|


     PM PM PM PM PM PM     PM PM PM PM PM   PM PM PM PM PM
  E  T  T  T  T  S  S  S S T  T  T  T  S  S T  T  T  T  S  S
-------------------------------------------------------------|
-------------------------------------------------------------|
-------------------------------------------------------------|
-----0--0--0--0--0--0------0--0--0--0--0----0--0--0--0--0----|
-----0--0--0--0--0--0------0--0--0--0--0----0--0--0--0--0----|
-----0--0--0--0--0--0------0--0--0--0--0----0--0--0--0--0----|


  PM
  E  E  E  E  E  E  E  E     E  S E  S E  E  S E  S E
--------------------------|----------------------------|
--------------------------|----------------------------|
--------------------------|----------------------------|
--0-----------------------|--0--L-0--L-0--0--L-0--L-0--|
--0-----------------------|--0--L-0--L-0--0--L-0--L-0--|
--0-----------------------|--0--L-0--L-0--0--L-0--L-0--|


  E  S E  S E  E  S E  S E     E  S E  S E  E  S E  S E
----------------------------|----------------------------|
----------------------------|----------------------------|
----------------------------|----------------------------|
--5--L-5--L-5--5--L-5--L-5--|--8--L-8--L-8--8--L-8--L-8--|
--5--L-5--L-5--5--L-5--L-5--|--8--L-8--L-8--8--L-8--L-8--|
--5--L-5--L-5--5--L-5--L-5--|--8--L-8--L-8--8--L-8--L-8--|


   E  S  E  S  E   E  S  E  S  E     E  S E  S E  E  S E  S E
----------------------------------|----------------------------|
----------------------------------|----------------------------|
----------------------------------|----------------------------|
--10--L-10--L-10--10--L-10--L-10--|--0--L-0--L-0--0--L-0--L-0--|
--10--L-10--L-10--10--L-10--L-10--|--0--L-0--L-0--0--L-0--L-0--|
--10--L-10--L-10--10--L-10--L-10--|--0--L-0--L-0--0--L-0--L-0--|


  E  S E  S E  E  S E  S E     E  S E  S E  E  S E  S E
----------------------------|----------------------------|
----------------------------|----------------------------|
----------------------------|----------------------------|
--5--L-5--L-5--5--L-5--L-5--|--8--L-8--L-8--8--L-8--L-8--|
--5--L-5--L-5--5--L-5--L-5--|--8--L-8--L-8--8--L-8--L-8--|
--5--L-5--L-5--5--L-5--L-5--|--8--L-8--L-8--8--L-8--L-8--|


   E  S  E  S  E   E  S  E  S  E     S S S S S S S S S S S S S S S S
----------------------------------|----------------------------------|
----------------------------------|----------------------------------|
----------------------------------|----------------------------------|
--10--L-10--L-10--10--L-10--L-10--|--0-0-0-0-0-0-0-0-0-0-0-0-0-0-0-0-|
--10--L-10--L-10--10--L-10--L-10--|--0-0-0-0-0-0-0-0-0-0-0-0-0-0-0-0-|
--10--L-10--L-10--10--L-10--L-10--|--0-0-0-0-0-0-0-0-0-0-0-0-0-0-0-0-|


  S S S S S S S S S S S S S S S S    S S S S S S S S S S S S S S S S
----------------------------------|----------------------------------|
----------------------------------|----------------------------------|
----------------------------------|----------------------------------|
--5-5-5-5-5-5-5-5-5-5-5-5-5-5-5-5-|--8-8-8-8-8-8-8-8-8-8-8-8-8-8-8-8-|
--5-5-5-5-5-5-5-5-5-5-5-5-5-5-5-5-|--8-8-8-8-8-8-8-8-8-8-8-8-8-8-8-8-|
--5-5-5-5-5-5-5-5-5-5-5-5-5-5-5-5-|--8-8-8-8-8-8-8-8-8-8-8-8-8-8-8-8-|


   S  S  S  S  S  S  S  S  S  S  S  S  S  S  S  S
--------------------------------------------------|
--------------------------------------------------|
--------------------------------------------------|
--10-10-10-10-10-10-10-10-10-10-10-10-10-10-10-10-|
--10-10-10-10-10-10-10-10-10-10-10-10-10-10-10-10-|
--10-10-10-10-10-10-10-10-10-10-10-10-10-10-10-10-|


  S S S S S S S S S S S S S S S S    S S S S S S S S S S S S S S S S
----------------------------------|----------------------------------|
----------------------------------|----------------------------------|
----------------------------------|----------------------------------|
--0-0-0-0-0-0-0-0-0-0-0-0-0-0-0-0-|--5-5-5-5-5-5-5-5-5-5-5-5-5-5-5-5-|
--0-0-0-0-0-0-0-0-0-0-0-0-0-0-0-0-|--5-5-5-5-5-5-5-5-5-5-5-5-5-5-5-5-|
--0-0-0-0-0-0-0-0-0-0-0-0-0-0-0-0-|--5-5-5-5-5-5-5-5-5-5-5-5-5-5-5-5-|


  S S S S S S S S S S S S S S S S
----------------------------------|
----------------------------------|
----------------------------------|
--8-8-8-8-8-8-8-8-8-8-8-8-8-8-8-8-|
--8-8-8-8-8-8-8-8-8-8-8-8-8-8-8-8-|
--8-8-8-8-8-8-8-8-8-8-8-8-8-8-8-8-|


   S  S  S  S  S  S  S  S  S  S  S  S  S  S  S  S
--------------------------------------------------|
--------------------------------------------------|
--------------------------------------------------|
--10-10-10-10-10-10-10-10-10-10-10-10-10-10-10-10-|
--10-10-10-10-10-10-10-10-10-10-10-10-10-10-10-10-|
--10-10-10-10-10-10-10-10-10-10-10-10-10-10-10-10-|


  S S S S S S S S S S S S S S S S    S S S S S S S S S S S S S S S S
----------------------------------|----------------------------------|
----------------------------------|----------------------------------|
----------------------------------|----------------------------------|
----------------------------------|----------------------------------|
----------------------------------|----------------------------------|
--0-0-0-0-0-0-0-0-0-0-0-0-0-0-0-0-|--0-0-0-0-0-0-0-0-0-0-0-0-0-0-0-0-|


  S S S S S S S S S S S S S S S S    S S S S S S S S S S S S S S S S
----------------------------------|----------------------------------|
----------------------------------|----------------------------------|
----------------------------------|----------------------------------|
----------------------------------|----------------------------------|
----------------------------------|----------------------------------|
--8-8-8-8-8-8-8-8-8-8-8-8-8-8-8-8-|--5-5-5-5-5-5-5-5-5-5-5-5-5-5-5-5-|


  S S S S S S S S S S S S S S S S    S S S S S S S S S S S S S S S S
----------------------------------|----------------------------------|
----------------------------------|----------------------------------|
----------------------------------|----------------------------------|
----------------------------------|----------------------------------|
----------------------------------|----------------------------------|
--0-0-0-0-0-0-0-0-0-0-0-0-0-0-0-0-|--0-0-0-0-0-0-0-0-0-0-0-0-0-0-0-0-|


  S S S S S S S S S S S S S S S S    S S S S S S S S S S S S S S S S
----------------------------------|----------------------------------|
----------------------------------|----------------------------------|
----------------------------------|----------------------------------|
----------------------------------|----------------------------------|
----------------------------------|----------------------------------|
--8-8-8-8-8-8-8-8-8-8-8-8-8-8-8-8-|--5-5-5-5-5-5-5-5-5-5-5-5-5-5-5-5-|


  W                   H        H
-------------------|--------------------||
-------------------|--------------------||
-------------------|--------------------||
--0----------------|--L-----------------||
--0----------------|--L-----------------||
--0----------------|--L-----------------||


Guitar 2

               S S  S S  S S  S  S  S S  S  S  S S  S S
C#||-------|--------------------------------------------|
G#||-------|--------------------------------------------|
E ||-------|----------------------------------10--------|
B ||-------|--12-0-10-0-10-0-10-12-14-0-10-14----0-10-0-|
F#||-------|--------------------------------------------|
B ||-------|--------------------------------------------|


   S S  S S  S S  S S S S S  S S S S  S
----------------------------------------|
----------------------------------------|
--------------------7-------------------|
--10-7-10-7-10-7-10---7-5-7-10-8-7-8-10-|
----------------------------------------|
----------------------------------------|


   T    T    T    T    T    T    T    T
   S S  S S  S S  S S  S S  S S  S S  S S
------------------------------------------|
--20---20---20---20---20---20---20---20---|
------------------------------------------|
-----5----5----5----5----5----5----5----5-|
------------------------------------------|
------------------------------------------|


   T    T    T    T    T    T    T    T
   S S  S S  S S  S S  S S  S S  S S  S S
------------------------------------------|
--18---18---18---18---17---17---17---17---|
------------------------------------------|
-----7----7----7----7----7----7----7----7-|
------------------------------------------|
------------------------------------------|


   S S  S S  S S  S  S  S S  S  S  S S  S S
--------------------------------------------|
--------------------------------------------|
----------------------------------10--------|
--12-0-10-0-10-0-10-12-14-0-10-14----0-10-0-|
--------------------------------------------|
--------------------------------------------|


   S S  S S  S S  S S S S S  S S S S  S
----------------------------------------|
----------------------------------------|
--------------------7-------------------|
--10-7-10-7-10-7-10---7-5-7-10-8-7-8-10-|
----------------------------------------|
----------------------------------------|


   T    T    T    T    T    T    T    T
   S S  S S  S S  S S  S S  S S  S S  S S
------------------------------------------|
--20---20---20---20---20---20---20---20---|
------------------------------------------|
-----5----5----5----5----5----5----5----5-|
------------------------------------------|
------------------------------------------|


   T    T    T    T    T    T    T
   S S  S S  S S  S S  S S  S S  Q       Q    Q    Q    Q
--------------------------------------|----------------------|
--18---18---18---18---17---17---17----|--L-------------------|
--------------------------------------|----------------------|
-----7----7----7----7----7----7--L----|--L-------------------|
--------------------------------------|----------------------|
--------------------------------------|----------------------|


  S S S S S S S S S S S S S S S S    S S S S S S S S S S S S S S S S
----------------------------------|----------------------------------|
----------------------------------|----------------------------------|
----------------------------------|----------------------------------|
----------------------------------|----------------------------------|
----------------------------------|----------------------------------|
--0-0-0-0-0-0-0-0-0-0-0-0-0-0-0-0-|--0-0-0-0-0-0-0-0-0-0-0-0-0-0-0-0-|


   S  S  S  S  S  S  S  S  S  S  S  S  S  S  S  S
--------------------------------------------------|
--------------------------------------------------|
--------------------------------------------------|
--------------------------------------------------|
--------------------------------------------------|
--10-10-10-10-10-10-10-10-10-10-10-10-10-10-10-10-|


  S S S S S S S S S S S S S S S S    S S S S S S S S S S S S S S S S
----------------------------------|----------------------------------|
----------------------------------|----------------------------------|
----------------------------------|----------------------------------|
----------------------------------|----------------------------------|
----------------------------------|----------------------------------|
--7-7-7-7-7-7-7-7-7-7-7-7-7-7-7-7-|--0-0-0-0-0-0-0-0-0-0-0-0-0-0-0-0-|


  S S S S S S S S S S S S S S S S    S S S S S S S S S S S S S S S S
----------------------------------|----------------------------------|
----------------------------------|----------------------------------|
----------------------------------|----------------------------------|
----------------------------------|----------------------------------|
----------------------------------|--7-7-7-7-7-7-7-7-7-7-7-7-7-7-7-7-|
--0-0-0-0-0-0-0-0-0-0-0-0-0-0-0-0-|----------------------------------|


  S S S S S S S S S S S S S S S S
----------------------------------|
----------------------------------|
----------------------------------|
----------------------------------|
--8-8-8-8-8-8-8-8-8-8-8-8-8-8-8-8-|
----------------------------------|


                  PM PM PM PM PM PM PM PM PM PM
  S S S S S S S S S  T  T  S  S  T  T  S  S  S
------------------------------------------------|
------------------------------------------------|
------------------------------------------------|
------------------------------------------------|
------------------------------------------------|
--0-0-0-0-0-0-0-0-0--0--0--0--0--0--0--0--0--0--|


   S  S  S  S  S  S  S  S  S  S  S  S  S  S  S  S
--------------------------------------------------|
--------------------------------------------------|
--------------------------------------------------|
--------------------------------------------------|
--------------------------------------------------|
--12-12-12-12-12-12-12-12-10-10-10-10-14-14-14-14-|


                  PM PM PM PM PM PM PM PM PM PM PM
  S S S S S S S S T  T  S  S  T  T  S  S  T  T  S
---------------------------------------------------|
---------------------------------------------------|
---------------------------------------------------|
---------------------------------------------------|
---------------------------------------------------|
--0-0-0-0-0-0-0-0-0--0--0--0--0--0--0--0--0--0--0--|


   S  S  S  S  S  S  S  S  S  S  S  S  S  S  S  S
--------------------------------------------------|
--------------------------------------------------|
--------------------------------------------------|
--------------------------------------------------|
--------------------------------------------------|
--12-12-12-12-12-12-12-12-10-10-10-10-14-14-14-14-|


  PM PM   PM   PM      PM   PM PM
  S  S  S S  S S  S  S S  S S  S  S  S S S
-------------------------------------------|
-------------------------------------------|
--------7----9------10----9-------9-10-9-7-|
-------------------------------------------|
-------------------------------------------|
--0--0----0----0--0----0----0--0-----------|


  PM PM   PM   PM      PM   PM PM
  S  S  S S  S S  S  S S  S S  S  S  S S  S
--------------------------------------------|
--------------------------------------------|
--------7----9------10----9-------9-10-9----|
-----------------------------------------10-|
--------------------------------------------|
--0--0----0----0--0----0----0--0------------|


  PM PM   PM   PM      PM   PM PM
  S  S  S S  S S  S  S S  S S  S  S  S S S
-------------------------------------------|
-------------------------------------------|
--------7----9------10----9-------9-10-9-7-|
-------------------------------------------|
-------------------------------------------|
--0--0----0----0--0----0----0--0-----------|


  PM PM   PM          PM PM   PM
  S  S  S S   S S S S S  S  S S   S S S S
------------------------------------------|
------------------------------------------|
--------7----10-9-7-9-------7----10-9-7-9-|
------------------------------------------|
------------------------------------------|
--0--0----0-----------0--0----0-----------|


  S S S S S S S S S S S S  S  S  S  S
--------------------------------------|
--------------------------------------|
--7-7-7-7-7-7-7-7-9-9-9-9-10-10-10-10-|
--x-x-x-x-x-x-x-x-x-x-x-x--x--x--x--x-|
--5-5-5-5-5-5-5-5-7-7-7-7--8--8--8--8-|
--------------------------------------|


   S  S  S  S  S  S  S  S  S  S  S  S  S  S  S  S
--------------------------------------------------|
--------------------------------------------------|
--14-14-14-14-14-14-14-14-14-14-14-14-14-14-14-14-|
---x--x--x--x--x--x--x--x--x--x--x--x--x--x--x--x-|
--12-12-12-12-12-12-12-12-12-12-12-12-12-12-12-12-|
--------------------------------------------------|


   S  S  S  S  S  S  S  S  S  S  S  S  S  S  S  S
--------------------------------------------------|
--------------------------------------------------|
--12-12-12-12-12-12-12-12-15-15-15-15-15-15-15-15-|
---x--x--x--x--x--x--x--x--x--x--x--x--x--x--x--x-|
--10-10-10-10-10-10-10-10-13-13-13-13-13-13-13-13-|
--------------------------------------------------|


   S  S  S  S  S  S  S  S  S  S  S  S  S  S  S  S
--------------------------------------------------|
--------------------------------------------------|
--14-14-14-14-14-14-14-14-12-12-12-12-12-12-12-12-|
---x--x--x--x--x--x--x--x--x--x--x--x--x--x--x--x-|
--12-12-12-12-12-12-12-12-10-10-10-10-10-10-10-10-|
--------------------------------------------------|


  S S S S S S S S S S S S  S  S  S  S
--------------------------------------|
--------------------------------------|
--7-7-7-7-7-7-7-7-9-9-9-9-10-10-10-10-|
--x-x-x-x-x-x-x-x-x-x-x-x--x--x--x--x-|
--5-5-5-5-5-5-5-5-7-7-7-7--8--8--8--8-|
--------------------------------------|


   S  S  S  S  S  S  S  S  S  S  S  S  S  S  S  S
--------------------------------------------------|
--------------------------------------------------|
--14-14-14-14-14-14-14-14-14-14-14-14-14-14-14-14-|
---x--x--x--x--x--x--x--x--x--x--x--x--x--x--x--x-|
--12-12-12-12-12-12-12-12-12-12-12-12-12-12-12-12-|
--------------------------------------------------|


   S  S  S  S  S  S  S  S  S  S  S  S  S  S  S  S
--------------------------------------------------|
--------------------------------------------------|
--12-12-12-12-12-12-12-12-15-15-15-15-15-15-15-15-|
---x--x--x--x--x--x--x--x--x--x--x--x--x--x--x--x-|
--10-10-10-10-10-10-10-10-13-13-13-13-13-13-13-13-|
--------------------------------------------------|


   S  S  S  S  S  S  S  S  S  S  S  S  S  S  S  S
--------------------------------------------------|
--------------------------------------------------|
--14-14-14-14-14-14-14-14-12-12-12-12-12-12-12-12-|
---x--x--x--x--x--x--x--x--x--x--x--x--x--x--x--x-|
--12-12-12-12-12-12-12-12-10-10-10-10-10-10-10-10-|
--------------------------------------------------|


    PM PM   PM   PM PM     PM     PM
  S S  S  S S  S S  S  S S S  S S S  S S
-----------------------------------------|
-----------------------------------------|
-----------------------------------------|
-------------------------------------2-3-|
-----------------------5-3----0-1--------|
--0-0--0--0-0--0-0--0------0------0------|


    PM PM   PM   PM PM     PM     PM
  S S  S  S S  S S  S  S S S  S S S  S S
-----------------------------------------|
-----------------------------------------|
-----------------------------------------|
------------------------------5-3----2-3-|
-----------------------5-3---------------|
--0-0--0--0-0--0-0--0------0------0------|


    PM PM   PM   PM PM     PM     PM
  S S  S  S S  S S  S  S S S  S S S  S S
-----------------------------------------|
-----------------------------------------|
-----------------------------------------|
-------------------------------------2-3-|
-----------------------5-3----0-1--------|
--0-0--0--0-0--0-0--0------0------0------|


  S S S S S S S S  S  S  S  S  S  S  S  S
------------------------------------------|
------------------------------------------|
------------------------------------------|
------------------------------------------|
------------------------------------------|
--8-8-8-8-8-8-8-8-10-10-10-10-10-10-10-10-|


    PM PM   PM   PM PM     PM     PM
  S S  S  S S  S S  S  S S S  S S S  S S
-----------------------------------------|
-----------------------------------------|
-----------------------------------------|
-------------------------------------5-7-|
-----------------------8-7----3-5--------|
--0-0--0--0-0--0-0--0------0------0------|


    PM PM   PM   PM PM     PM     PM
  S S  S  S S  S S  S  S S S  S S S  S S
-----------------------------------------|
-----------------------------------------|
-----------------------------------------|
------------------------------8-7----5-7-|
-----------------------8-7---------------|
--0-0--0--0-0--0-0--0------0------0------|


    PM PM   PM   PM PM     PM     PM
  S S  S  S S  S S  S  S S S  S S S  S S    S S S S S S S S S S S S S S S S
-----------------------------------------|----------------------------------|
-----------------------------------------|----------------------------------|
-----------------------------------------|----------------------------------|
-------------------------------------5-7-|----------------------------------|
-----------------------8-7----3-5--------|----------------------------------|
--0-0--0--0-0--0-0--0------0------0------|--8-8-8-8-8-8-8-8-7-7-7-7-7-7-7-7-|


  S E  S S E  S S E  S S E  S    S E  S S E  S  E  E  E  E
------------------------------|-----------------------------|
------------------------------|-----------------------------|
--7-7--7-7-7--7-7-7--7-7-7--7-|--9-9--9-9-9--9-10-----------|
--x-x--x-x-x--x-x-x--x-x-x--x-|--x-x--x-x-x--x--x-----------|
--5-5--5-5-5--5-5-5--5-5-5--5-|--7-7--7-7-7--7--8-----------|
------------------------------|-----------------------------|


  PM PM PM PM                     PM PM PM    PM PM PM PM    PM
  S  S  S  S  H        Q       E  E  S  S  E  S  S  S  S  E  E
----------------------------|-----------------------------------|
----------------------------|-----------------------------------|
----------------------------|-----------------------------------|
--0--0--0--0--L--------L----|--L--0--0--0--L--0--0--0--0--L--0--|
--0--0--0--0--L--------L----|--L--0--0--0--L--0--0--0--0--L--0--|
--0--0--0--0--L--------L----|--L--0--0--0--L--0--0--0--0--L--0--|


  PM PM PM PM
  S  S  S  S  H        Q
----------------------------|
----------------------------|
----------------------------|
--0--0--0--0--L--------L----|
--0--0--0--0--L--------L----|
--0--0--0--0--L--------L----|


     PM PM PM    PM PM PM PM PM   PM PM PM PM PM
  E  E  S  S  E  T  T  T  T  S  S T  T  T  T  S  S
---------------------------------------------------|
---------------------------------------------------|
---------------------------------------------------|
--L--0--0--0--L--0--0--0--0--0----0--0--0--0--0----|
--L--0--0--0--L--0--0--0--0--0----0--0--0--0--0----|
--L--0--0--0--L--0--0--0--0--0----0--0--0--0--0----|


  PM PM PM PM
  S  S  S  S  H        Q
----------------------------|
----------------------------|
----------------------------|
--0--0--0--0----------------|
--0--0--0--0----------------|
--0--0--0--0----------------|


     PM PM PM PM PM PM     PM PM PM PM PM   PM PM PM PM PM
  E  T  T  T  T  S  S  S S T  T  T  T  S  S T  T  T  T  S  S
-------------------------------------------------------------|
-------------------------------------------------------------|
-------------------------------------------------------------|
-----0--0--0--0--0--0------0--0--0--0--0----0--0--0--0--0----|
-----0--0--0--0--0--0------0--0--0--0--0----0--0--0--0--0----|
-----0--0--0--0--0--0------0--0--0--0--0----0--0--0--0--0----|


  PM PM PM PM
  S  S  S  S  H        Q
----------------------------|
----------------------------|
----------------------------|
--0--0--0--0----------------|
--0--0--0--0----------------|
--0--0--0--0----------------|


     PM PM PM PM PM PM     PM PM PM PM PM   PM PM PM PM PM
  E  T  T  T  T  S  S  S S T  T  T  T  S  S T  T  T  T  S  S
-------------------------------------------------------------|
-------------------------------------------------------------|
-------------------------------------------------------------|
-----0--0--0--0--0--0------0--0--0--0--0----0--0--0--0--0----|
-----0--0--0--0--0--0------0--0--0--0--0----0--0--0--0--0----|
-----0--0--0--0--0--0------0--0--0--0--0----0--0--0--0--0----|


  PM
  E  E  E  E  E  E  E  E     S S S S S S S S S S S S  S  S  S  S
--------------------------|--------------------------------------|
--------------------------|--------------------------------------|
--------------------------|--7-7-7-7-7-7-7-7-9-9-9-9-10-10-10-10-|
--0-----------------------|--x-x-x-x-x-x-x-x-x-x-x-x--x--x--x--x-|
--0-----------------------|--5-5-5-5-5-5-5-5-7-7-7-7--8--8--8--8-|
--0-----------------------|--------------------------------------|


   S  S  S  S  S  S  S  S  S  S  S  S  S  S  S  S
--------------------------------------------------|
--------------------------------------------------|
--14-14-14-14-14-14-14-14-14-14-14-14-14-14-14-14-|
---x--x--x--x--x--x--x--x--x--x--x--x--x--x--x--x-|
--12-12-12-12-12-12-12-12-12-12-12-12-12-12-12-12-|
--------------------------------------------------|


   S  S  S  S  S  S  S  S  S  S  S  S  S  S  S  S
--------------------------------------------------|
--------------------------------------------------|
--12-12-12-12-12-12-12-12-15-15-15-15-15-15-15-15-|
---x--x--x--x--x--x--x--x--x--x--x--x--x--x--x--x-|
--10-10-10-10-10-10-10-10-13-13-13-13-13-13-13-13-|
--------------------------------------------------|


   S  S  S  S  S  S  S  S  S  S  S  S  S  S  S  S
--------------------------------------------------|
--------------------------------------------------|
--14-14-14-14-14-14-14-14-12-12-12-12-12-12-12-12-|
---x--x--x--x--x--x--x--x--x--x--x--x--x--x--x--x-|
--12-12-12-12-12-12-12-12-10-10-10-10-10-10-10-10-|
--------------------------------------------------|


  S S S S S S S S S S S S  S  S  S  S
--------------------------------------|
--------------------------------------|
--7-7-7-7-7-7-7-7-9-9-9-9-10-10-10-10-|
--x-x-x-x-x-x-x-x-x-x-x-x--x--x--x--x-|
--5-5-5-5-5-5-5-5-7-7-7-7--8--8--8--8-|
--------------------------------------|


   S  S  S  S  S  S  S  S  S  S  S  S  S  S  S  S
--------------------------------------------------|
--------------------------------------------------|
--14-14-14-14-14-14-14-14-14-14-14-14-14-14-14-14-|
---x--x--x--x--x--x--x--x--x--x--x--x--x--x--x--x-|
--12-12-12-12-12-12-12-12-12-12-12-12-12-12-12-12-|
--------------------------------------------------|


   S  S  S  S  S  S  S  S  S  S  S  S  S  S  S  S
--------------------------------------------------|
--------------------------------------------------|
--12-12-12-12-12-12-12-12-15-15-15-15-15-15-15-15-|
---x--x--x--x--x--x--x--x--x--x--x--x--x--x--x--x-|
--10-10-10-10-10-10-10-10-13-13-13-13-13-13-13-13-|
--------------------------------------------------|


   S  S  S  S  S  S  S  S  S  S  S  S  S  S  S  S
--------------------------------------------------|
--------------------------------------------------|
--14-14-14-14-14-14-14-14-12-12-12-12-12-12-12-12-|
---x--x--x--x--x--x--x--x--x--x--x--x--x--x--x--x-|
--12-12-12-12-12-12-12-12-10-10-10-10-10-10-10-10-|
--------------------------------------------------|


  S S S S S S S S S S S S  S  S  S  S
--------------------------------------|
--------------------------------------|
--7-7-7-7-7-7-7-7-9-9-9-9-10-10-10-10-|
--x-x-x-x-x-x-x-x-x-x-x-x--x--x--x--x-|
--5-5-5-5-5-5-5-5-7-7-7-7--8--8--8--8-|
--------------------------------------|


   S  S  S  S  S  S  S  S  S  S  S  S  S  S  S  S
--------------------------------------------------|
--------------------------------------------------|
--14-14-14-14-14-14-14-14-14-14-14-14-14-14-14-14-|
---x--x--x--x--x--x--x--x--x--x--x--x--x--x--x--x-|
--12-12-12-12-12-12-12-12-12-12-12-12-12-12-12-12-|
--------------------------------------------------|


   S  S  S  S  S  S  S  S  S  S  S  S  S  S  S  S
--------------------------------------------------|
--------------------------------------------------|
--12-12-12-12-12-12-12-12-15-15-15-15-15-15-15-15-|
---x--x--x--x--x--x--x--x--x--x--x--x--x--x--x--x-|
--10-10-10-10-10-10-10-10-13-13-13-13-13-13-13-13-|
--------------------------------------------------|


   S  S  S  S  S  S  S  S  S  S  S  S  S  S  S  S
--------------------------------------------------|
--------------------------------------------------|
--14-14-14-14-14-14-14-14-12-12-12-12-12-12-12-12-|
---x--x--x--x--x--x--x--x--x--x--x--x--x--x--x--x-|
--12-12-12-12-12-12-12-12-10-10-10-10-10-10-10-10-|
--------------------------------------------------|


  S S S S S S S S S S S S  S  S  S  S
--------------------------------------|
--------------------------------------|
--7-7-7-7-7-7-7-7-9-9-9-9-10-10-10-10-|
--x-x-x-x-x-x-x-x-x-x-x-x--x--x--x--x-|
--5-5-5-5-5-5-5-5-7-7-7-7--8--8--8--8-|
--------------------------------------|


   S  S  S  S  S  S  S  S  S  S  S  S  S  S  S  S
--------------------------------------------------|
--------------------------------------------------|
--14-14-14-14-14-14-14-14-14-14-14-14-14-14-14-14-|
---x--x--x--x--x--x--x--x--x--x--x--x--x--x--x--x-|
--12-12-12-12-12-12-12-12-12-12-12-12-12-12-12-12-|
--------------------------------------------------|


   S  S  S  S  S  S  S  S  S  S  S  S  S  S  S  S
--------------------------------------------------|
--------------------------------------------------|
--12-12-12-12-12-12-12-12-15-15-15-15-15-15-15-15-|
---x--x--x--x--x--x--x--x--x--x--x--x--x--x--x--x-|
--10-10-10-10-10-10-10-10-13-13-13-13-13-13-13-13-|
--------------------------------------------------|


   S  S  S  S  S  S  S  S  S  S  S  S  S  S  S  S
--------------------------------------------------|
--------------------------------------------------|
--14-14-14-14-14-14-14-14-12-12-12-12-12-12-12-12-|
---x--x--x--x--x--x--x--x--x--x--x--x--x--x--x--x-|
--12-12-12-12-12-12-12-12-10-10-10-10-10-10-10-10-|
--------------------------------------------------|


  S S S S S S S S S S S S S S S S    S S S S S S S S S S S S S S S S
----------------------------------|----------------------------------|
----------------------------------|----------------------------------|
----------------------------------|----------------------------------|
----------------------------------|----------------------------------|
----------------------------------|----------------------------------|
--0-0-0-0-0-0-0-0-0-0-0-0-0-0-0-0-|--0-0-0-0-0-0-0-0-0-0-0-0-0-0-0-0-|


   S  S  S  S  S  S  S  S  S  S  S  S  S  S  S  S
--------------------------------------------------|
--------------------------------------------------|
--------------------------------------------------|
--------------------------------------------------|
--------------------------------------------------|
--10-10-10-10-10-10-10-10-10-10-10-10-10-10-10-10-|


  S S S S S S S S S S S S S S S S    S S S S S S S S S S S S S S S S
----------------------------------|----------------------------------|
----------------------------------|----------------------------------|
----------------------------------|----------------------------------|
----------------------------------|----------------------------------|
----------------------------------|----------------------------------|
--7-7-7-7-7-7-7-7-7-7-7-7-7-7-7-7-|--0-0-0-0-0-0-0-0-0-0-0-0-0-0-0-0-|


  S S S S S S S S S S S S S S S S    S S S S S S S S S S S S S S S S
----------------------------------|----------------------------------|
----------------------------------|----------------------------------|
----------------------------------|----------------------------------|
----------------------------------|----------------------------------|
----------------------------------|--7-7-7-7-7-7-7-7-7-7-7-7-7-7-7-7-|
--0-0-0-0-0-0-0-0-0-0-0-0-0-0-0-0-|----------------------------------|


  S S S S S S S S S S S S S S S S    W                   H        H
----------------------------------|-------------------|--------------------||
----------------------------------|-------------------|--------------------||
----------------------------------|-------------------|--------------------||
----------------------------------|--0----------------|--L-----------------||
--8-8-8-8-8-8-8-8-8-8-8-8-8-8-8-8-|--0----------------|--L-----------------||
----------------------------------|--0----------------|--L-----------------||


Guitar 3

Starts at (00:33)

                                           E  S  E  S  E   E  S  E  S  E
-------|-------|-------|-------|-------|--12--L--------L--12--L--------L--|
-------|-------|-------|-------|-------|--------10--L--L------L-10--L--L--|
-------|-------|-------|-------|-------|--------------12------------L-12--|
-------|-------|-------|-------|-------|----------------------------------|
-------|-------|-------|-------|-------|----------------------------------|
-------|-------|-------|-------|-------|----------------------------------|


   E  S  E  S  E   E  S  E  S  E      E  S  E  S  E   E  S  E  S  E
--12--L--------L--12--L--------L--|--10--L--------L--10--L--------L--|
------L-10--L--L------L-10--L--L--|------L-10--L--L------L-10--L--L--|
------------L-12------------L-12--|------------L-12------------L-12--|
----------------------------------|----------------------------------|
----------------------------------|----------------------------------|
----------------------------------|----------------------------------|


   E  S  E  S  E   E  S  E  S  E
--10--L--------L--10--L--------L--|
------L-10--L--L------L-10--L--L--|
------------L-12------------L-12--|
----------------------------------|
----------------------------------|
----------------------------------|


                  PM PM PM PM PM PM PM PM PM PM
  S S S S S S S S S  T  T  S  S  T  T  S  S  S
------------------------------------------------|
------------------------------------------------|
------------------------------------------------|
------------------------------------------------|
------------------------------------------------|
--0-0-0-0-0-0-0-0-0--0--0--0--0--0--0--0--0--0--|


   S  S  S  S  S  S  S  S S S S S  S  S  S  S
----------------------------------------------|
--10-10-10-10-10-10-10-10-8-8-8-8-11-11-11-11-|
---x--x--x--x--x--x--x--x-x-x-x-x--x--x--x--x-|
---7--7--7--7--7--7--7--7-5-5-5-5--8--8--8--8-|
----------------------------------------------|
----------------------------------------------|


                  PM PM PM PM PM PM PM PM PM PM PM
  S S S S S S S S T  T  S  S  T  T  S  S  T  T  S
---------------------------------------------------|
---------------------------------------------------|
---------------------------------------------------|
---------------------------------------------------|
---------------------------------------------------|
--0-0-0-0-0-0-0-0-0--0--0--0--0--0--0--0--0--0--0--|


   S  S  S  S  S  S  S  S  S  S  S  S  S  S  S  S
--------------------------------------------------|
--10-10-10-10-10-10-10-10-13-13-13-13-11-11-11-11-|
---x--x--x--x--x--x--x--x--x--x--x--x--x--x--x--x-|
---7--7--7--7--7--7--7--7-10-10-10-10--8--8--8--8-|
--------------------------------------------------|
--------------------------------------------------|


                  PM PM PM PM PM PM PM PM PM PM
  S S S S S S S S S  T  T  S  S  T  T  S  S  S
------------------------------------------------|
------------------------------------------------|
------------------------------------------------|
------------------------------------------------|
------------------------------------------------|
--0-0-0-0-0-0-0-0-0--0--0--0--0--0--0--0--0--0--|


   S  S  S  S  S  S  S  S S S S S  S  S  S  S
----------------------------------------------|
--10-10-10-10-10-10-10-10-8-8-8-8-11-11-11-11-|
---x--x--x--x--x--x--x--x-x-x-x-x--x--x--x--x-|
---7--7--7--7--7--7--7--7-5-5-5-5--8--8--8--8-|
----------------------------------------------|
----------------------------------------------|


                  PM PM PM PM PM PM PM PM PM PM PM
  S S S S S S S S T  T  S  S  T  T  S  S  T  T  S
---------------------------------------------------|
---------------------------------------------------|
---------------------------------------------------|
---------------------------------------------------|
---------------------------------------------------|
--0-0-0-0-0-0-0-0-0--0--0--0--0--0--0--0--0--0--0--|


   S  S  S  S  S  S  S  S  S  S  S  S  S  S  S  S    E  S E  S E  E  S E  S E
--------------------------------------------------|----------------------------|
--10-10-10-10-10-10-10-10-13-13-13-13-11-11-11-11-|----------------------------|
---x--x--x--x--x--x--x--x--x--x--x--x--x--x--x--x-|----------------------------|
---7--7--7--7--7--7--7--7-10-10-10-10--8--8--8--8-|--0--L-0--L-0--0--L-0--L-0--|
--------------------------------------------------|--0--L-0--L-0--0--L-0--L-0--|
--------------------------------------------------|--0--L-0--L-0--0--L-0--L-0--|


  E  S E  S E  E  S E  S E     E  S E  S E  E  S E  S E
----------------------------|----------------------------|
----------------------------|----------------------------|
----------------------------|----------------------------|
--5--L-5--L-5--5--L-5--L-5--|--8--L-8--L-8--8--L-8--L-8--|
--5--L-5--L-5--5--L-5--L-5--|--8--L-8--L-8--8--L-8--L-8--|
--5--L-5--L-5--5--L-5--L-5--|--8--L-8--L-8--8--L-8--L-8--|


   E  S  E  S  E   E  S  E  S  E     S S S S S S S S S S S S  S  S  S  S
----------------------------------|--------------------------------------|
----------------------------------|--6-6-6-6-6-6-6-6-8-8-8-8-10-10-10-10-|
----------------------------------|--x-x-x-x-x-x-x-x-x-x-x-x--x--x--x--x-|
--10--L-10--L-10--10--L-10--L-10--|--3-3-3-3-3-3-3-3-5-5-5-5--7--7--7--7-|
--10--L-10--L-10--10--L-10--L-10--|--------------------------------------|
--10--L-10--L-10--10--L-10--L-10--|--------------------------------------|


   S  S  S  S  S  S  S  S  S  S  S  S  S  S  S  S
--------------------------------------------------|
--13-13-13-13-13-13-13-13-13-13-13-13-13-13-13-13-|
---x--x--x--x--x--x--x--x--x--x--x--x--x--x--x--x-|
--10-10-10-10-10-10-10-10-10-10-10-10-10-10-10-10-|
--------------------------------------------------|
--------------------------------------------------|


   S  S  S  S  S  S  S  S  S  S  S  S  S  S  S  S
--------------------------------------------------|
--11-11-11-11-11-11-11-11-15-15-15-15-15-15-15-15-|
---x--x--x--x--x--x--x--x--x--x--x--x--x--x--x--x-|
---8--8--8--8--8--8--8--8-12-12-12-12-12-12-12-12-|
--------------------------------------------------|
--------------------------------------------------|


   S  S  S  S  S  S  S  S  S  S  S  S  S  S  S  S
--------------------------------------------------|----|----|----|----|----|
--13-13-13-13-13-13-13-13-11-11-11-11-11-11-11-11-|----|----|----|----|----|
---x--x--x--x--x--x--x--x--x--x--x--x--x--x--x--x-|----|----|----|----|----|
--10-10-10-10-10-10-10-10--8--8--8--8--8--8--8--8-|----|----|----|----|----|
--------------------------------------------------|----|----|----|----|----|
--------------------------------------------------|----|----|----|----|----|


(02:08)

  E  S E  S E  E  S E  S E     E  S E  S E  E  S E  S E
----------------------------|----------------------------|
----------------------------|----------------------------|
----------------------------|----------------------------|
--0--L-0--L-0--0--L-0--L-0--|--5--L-5--L-5--5--L-5--L-5--|
--0--L-0--L-0--0--L-0--L-0--|--5--L-5--L-5--5--L-5--L-5--|
--0--L-0--L-0--0--L-0--L-0--|--5--L-5--L-5--5--L-5--L-5--|


  E  S E  S E  E  S E  S E      E  S  E  S  E   E  S  E  S  E
----------------------------|----------------------------------|
----------------------------|----------------------------------|
----------------------------|----------------------------------|
--8--L-8--L-8--8--L-8--L-8--|--10--L-10--L-10--10--L-10--L-10--|
--8--L-8--L-8--8--L-8--L-8--|--10--L-10--L-10--10--L-10--L-10--|
--8--L-8--L-8--8--L-8--L-8--|--10--L-10--L-10--10--L-10--L-10--|


  E  S E  S E  E  S E  S E     E  S E  S E  E  S E  S E
----------------------------|----------------------------|
----------------------------|----------------------------|
----------------------------|----------------------------|
--0--L-0--L-0--0--L-0--L-0--|--5--L-5--L-5--5--L-5--L-5--|
--0--L-0--L-0--0--L-0--L-0--|--5--L-5--L-5--5--L-5--L-5--|
--0--L-0--L-0--0--L-0--L-0--|--5--L-5--L-5--5--L-5--L-5--|


  E  S E  S E  E  S E  S E      E  S  E  S  E   E  S  E  S  E
----------------------------|----------------------------------|
----------------------------|----------------------------------|
----------------------------|----------------------------------|
--8--L-8--L-8--8--L-8--L-8--|--10--L-10--L-10--10--L-10--L-10--|
--8--L-8--L-8--8--L-8--L-8--|--10--L-10--L-10--10--L-10--L-10--|
--8--L-8--L-8--8--L-8--L-8--|--10--L-10--L-10--10--L-10--L-10--|


  S S S S S S S S S S S S  S  S  S  S
--------------------------------------|
--6-6-6-6-6-6-6-6-8-8-8-8-10-10-10-10-|
--x-x-x-x-x-x-x-x-x-x-x-x--x--x--x--x-|
--3-3-3-3-3-3-3-3-5-5-5-5--7--7--7--7-|
--------------------------------------|
--------------------------------------|


   S  S  S  S  S  S  S  S  S  S  S  S  S  S  S  S
--------------------------------------------------|
--13-13-13-13-13-13-13-13-13-13-13-13-13-13-13-13-|
---x--x--x--x--x--x--x--x--x--x--x--x--x--x--x--x-|
--10-10-10-10-10-10-10-10-10-10-10-10-10-10-10-10-|
--------------------------------------------------|
--------------------------------------------------|


   S  S  S  S  S  S  S  S  S  S  S  S  S  S  S  S
--------------------------------------------------|
--11-11-11-11-11-11-11-11-15-15-15-15-15-15-15-15-|
---x--x--x--x--x--x--x--x--x--x--x--x--x--x--x--x-|
---8--8--8--8--8--8--8--8-12-12-12-12-12-12-12-12-|
--------------------------------------------------|
--------------------------------------------------|


   S  S  S  S  S  S  S  S  S  S  S  S  S  S  S  S
--------------------------------------------------|
--13-13-13-13-13-13-13-13-11-11-11-11-11-11-11-11-|
---x--x--x--x--x--x--x--x--x--x--x--x--x--x--x--x-|
--10-10-10-10-10-10-10-10--8--8--8--8--8--8--8--8-|
--------------------------------------------------|
--------------------------------------------------|


  S S S S S S S S S S S S  S  S  S  S
--------------------------------------|
--6-6-6-6-6-6-6-6-8-8-8-8-10-10-10-10-|
--x-x-x-x-x-x-x-x-x-x-x-x--x--x--x--x-|
--3-3-3-3-3-3-3-3-5-5-5-5--7--7--7--7-|
--------------------------------------|
--------------------------------------|


   S  S  S  S  S  S  S  S  S  S  S  S  S  S  S  S
--------------------------------------------------|
--13-13-13-13-13-13-13-13-13-13-13-13-13-13-13-13-|
---x--x--x--x--x--x--x--x--x--x--x--x--x--x--x--x-|
--10-10-10-10-10-10-10-10-10-10-10-10-10-10-10-10-|
--------------------------------------------------|
--------------------------------------------------|


   S  S  S  S  S  S  S  S  S  S  S  S  S  S  S  S
--------------------------------------------------|
--11-11-11-11-11-11-11-11-15-15-15-15-15-15-15-15-|
---x--x--x--x--x--x--x--x--x--x--x--x--x--x--x--x-|
---8--8--8--8--8--8--8--8-12-12-12-12-12-12-12-12-|
--------------------------------------------------|
--------------------------------------------------|


   S  S  S  S  S  S  S  S  S  S  S  S  S  S  S  S
--------------------------------------------------|
--13-13-13-13-13-13-13-13-11-11-11-11-11-11-11-11-|
---x--x--x--x--x--x--x--x--x--x--x--x--x--x--x--x-|
--10-10-10-10-10-10-10-10--8--8--8--8--8--8--8--8-|
--------------------------------------------------|
--------------------------------------------------|


   E  S  E  S  E   E  S  E  S  E      E  S  E  S  E   E  S  E  S  E
--12--L--------L--12--L--------L--|--12--L--------L--12--L--------L--|
--------10--L--L------L-10--L--L--|------L-10--L--L------L-10--L--L--|
--------------12------------L-12--|------------L-12------------L-12--|
----------------------------------|----------------------------------|
----------------------------------|----------------------------------|
----------------------------------|----------------------------------|


   E  S  E  S  E   E  S  E  S  E      E  S  E  S  E   E  S  E  S  E
--10--L--------L--10--L--------L--|--10--L--------L--10--L--------L--|
------L-10--L--L------L-10--L--L--|------L-10--L--L------L-10--L--L--|
------------L-12------------L-12--|------------L-12------------L-12--|
----------------------------------|----------------------------------|
----------------------------------|----------------------------------|
----------------------------------|----------------------------------|


   E  S  E  S  E   E  S  E  S  E      E  S  E  S  E   E  S  E  S  E
--12--L--------L--12--L--------L--|--12--L--------L--12--L--------L--|
--------10--L--L------L-10--L--L--|------L-10--L--L------L-10--L--L--|
--------------12------------L-12--|------------L-12------------L-12--|
----------------------------------|----------------------------------|
----------------------------------|----------------------------------|
----------------------------------|----------------------------------|


   E  S  E  S  E   E  S  E  S  E      E  S  E  S  E   E  S  E  S  E
--10--L--------L--10--L--------L--|--10--L--------L--10--L--------L--|
------L-10--L--L------L-10--L--L--|------L-10--L--L------L-10--L--L--|
------------L-12------------L-12--|------------L-12------------L-12--|
----------------------------------|----------------------------------|
----------------------------------|----------------------------------|
----------------------------------|----------------------------------|


  W                   H        H
-------------------|--------------------||
-------------------|--------------------||
-------------------|--------------------||
--0----------------|--L-----------------||
--0----------------|--L-----------------||
--0----------------|--L-----------------||


Duration Legend
---------------
W - whole
H - half
Q - quarter
E - 8th
S - 16th
T - 32nd
X - 64th
. - note dotted
|-n-|  - n-tuplets


Tablature Legend
----------------
L - tied note
x - dead note
g - grace note
(n) - ghost note
> - accentuded note
NH - natural harmonic
AH - artificial harmonic
TH - tapped harmonic
SH - semi harmonic
PH - pitch harmonic
h - hammer on
p - pull off
b - bend
br - bendRelease
pb - preBend
pbr - preBendRelease
brb - bendReleaseBend
\n/ - tremolo bar dip
\n - tremolo bar dive
-/n - tremolo bar Release up
/n\ - tremolo bar inverted dip
/n - tremolo bar return
-\n - tremolo bar Release down
S - shift slide
s - legato slide
/ -  slide into from below or out of upwards
\ -  slide into from above or out of downwards
~ - vibrato
W - wide vibrato
tr - trill
TP - tremolo picking
T - tapping
S - slap
P - pop
< - fade in
^ - brush up
v - brush down


That is all! I hope this helped, and be sure to check out my cover if you are
having problems with the tab. Thanks, oh and one last thing... ROCK OUT!!!!
comments
print report bad tab
1 comment total.
0 reply
0schuyler wrote on July 24 2013, 04:29 pm

Check out my cover! https://www.youtube.com/watch?v=IUtSLcZr4OY

I want to post or [tab]
guest
You may want to rate the tab now too:
select rating
Please do not post tabs as comments. Select "correction" instead!