Oops, an error
Loading. Please wait.

Morte Et Dabo Tab

ver1
ver1

Whole song

More versions @911Tabs.com
27,963 views 43 this week
9 commentsread comments
1 2 3 4 5
accurate
x 9
Autoscroll
+/-
esc
set tempo
stop
Contributor
Difficulty
Tuning
intermediate
C G C F A D
WARNING: You are trying to view
                                    content from Ultimate-Guitar.com
                                    in an unauthorized application,
                                    which is prohibited.

                                    Please use an official Ultimate
                                    Guitar Tabs application for iPhone,
                                    iPad or Android to access legitimate
                                    chords, guitar, bass, and drum tabs
                                    from Ultimate-Guitar.com database.

                                    Type "ultimate guitar tabs" in Apple
                                    App Store's or Android Market's
                                    search to find the application.
Enjoy.. if anything is wrong, im sorry. Seeming though there is not many tabs for 
this song, please try and be grateful..

" = Tremolo Pick
h = Hammer-on
p = Pull-off
* = Palm Mute
/ = Slide Up
\ = Slide Down
~ = Let Note Ring

(Intro)

e|------------------------------------|         e|--------------------|    e|---------------------|
B|------------------------------------|         B|--------------------|    B|---------------------|
G|------------------------------------|         G|--------------------|    G|---------------------|
D|-------------3-----5----------------|         D|--------------------|    D|---------------------|
A|---5-----0--------------------------|         A|--------------------|    A|---5-----0----1------|
E|-----0-0---0----0-------------------|         E|--0-0-0-0-0-0-0-0---|    E|-----0-0---0-----0--0|


e|------------------------------------|
B|------------------------------------|
G|------------------------------------|
D|------------------------------------|
A|------------------------------------|
E|-------4"-------3"------------------|   x4  


Bow down before me...

e|------------------------|         e|-----------------------------|
B|------------------------|         B|-----------------------------|
G|------------------------|         G|-----------------------------|
D|------------------------|         D|-----------------------------|
A|--0-0-0-0----0-0---0-0--|         A|--0-0-0-0-----0-0--0-0--0-0--|
E|--1-1-1-1----1-1---1-1--|         E|--1-1-1-1-----1-1--1-1--1-1--|

e|------------------------|         e|-----------------------------|
B|------------------------|         B|-----------------------------|
G|------------------------|         G|-----------------------------|
D|------------------------|         D|-----------------------------|
A|--0-0-0-0----0-0---0-0--|         A|--0-0-0-0-----0-0--0-0--0-0--|
E|--1-1-1-1----1-1---1-1--|         E|--1-1-1-1-----1-1--1-1--1-1--|

Ill never bow to one who claims to be divine..

e|------------------------------------|         e|--------------------|    e|---------------------|
B|------------------------------------|         B|--------------------|    B|---------------------|
G|------------------------------------|         G|--------------------|    G|---------------------|
D|-------------3-----5----------------|         D|--------------------|    D|---------------------|
A|---5-----0--------------------------|         A|--------------------|    A|---5-----0----1------|
E|-----0-0---0----0-------------------|         E|--0-0-0-0-0-0-0-0---|    E|-----0-0---0-----0--0|


e|------------------------------------|
B|------------------------------------|
G|------------------------------------|
D|------------------------------------|
A|------------------------------------|
E|-------4"-------3"------------------|   x4  

I never believed in you.. (CHORUS)  

e|------------------------------------------------------------------------------|          
B|------------------------------------------------------------------------------|        
G|-14-14-14-14-14-14-14-14---14-14-14-14-14-14-14-14---14-14-14-14-14-14-14-14--|          
D|-xx-xx-xx-xx-xx-xx-xx-xx---xx-xx-xx-xx-xx-xx-xx-xx---xx-xx-xx-xx-xx-xx-xx-xx--|       
A|-12-12-12-12-12-12-12-12---12-12-12-12-12-12-12-12---12-12-12-12-12-12-12-12--|     
E|------------------------------------------------------------------------------|        

e|------------------------------|         e|----------------------------|
B|------------------------------|         B|----------------------------|
G|--14-12-12-12-12-12-12-12-----|         G|--12-14-14-14-14-14-14-14---|
D|--xx-xx-xx-xx-xx-xx-xx-xx-----|         D|--xx-xx-xx-xx-xx-xx-xx-xx---|
A|--12-10-10-10-10-10-10-10-----|         A|--10-12-12-12-12-12-12-12---|
E|------------------------------|         E|----------------------------|

e|----------------------------------------------------|         
B|----------------------------------------------------|        
G|-14-14-14-14-14-14-14-14---14-10-10-10-10-10-10-10--|         
D|-xx-xx-xx-xx-xx-xx-xx-xx---x--x--x--x--x--x--x--x---|        
A|-12-12-12-12-12-12-12-12---12-8--8--8--8--8--8--8---|    
E|----------------------------------------------------|

e|------------------------------|
B|------------------------------|
G|--12-12-12-12-12-12-12-12-----|
D|--xx-xx-xx-xx-xx-xx-xx-xx-----|
A|--10-10-10-10-10-10-10-10-----|     
E|------------------------------| 

e|------------------------------------------------------------------------------|          
B|------------------------------------------------------------------------------|        
G|-14-14-14-14-14-14-14-14---14-14-14-14-14-14-14-14---14-14-14-14-14-14-14-14--|          
D|-xx-xx-xx-xx-xx-xx-xx-xx---xx-xx-xx-xx-xx-xx-xx-xx---xx-xx-xx-xx-xx-xx-xx-xx--|       
A|-12-12-12-12-12-12-12-12---12-12-12-12-12-12-12-12---12-12-12-12-12-12-12-12--|     
E|------------------------------------------------------------------------------|  

e|------------------------------|   e|----------------------------|  e|---------------------------|
B|------------------------------|   B|----------------------------|  B|---------------------------|
G|--14-12-12-12-12-12-12-12-----|   G|--12-14-14-14-14-14-14-14---|  G|--14-14-14-14-14-14-14-14--|
D|--xx-xx-xx-xx-xx-xx-xx-xx-----|   D|--xx-xx-xx-xx-xx-xx-xx-xx---|  D|--xx-xx-xx-xx-xx-xx-xx-xx--|
A|--12-10-10-10-10-10-10-10-----|   A|--10-12-12-12-12-12-12-12---|  A|--12-12-12-12-12-12-12-12--|
E|------------------------------|   E|----------------------------|  E|---------------------------|


e|------------------------------------|         e|--------------------------------------|
B|------------------------------------|         B|--------------------------------------|
G|--14--10--10--10--10--10--10--10----|         G|--12---12---12---12---12---12---14~~~-|
D|--x---x---x---x---x---x---x---x-----|         D|--x----x----x----x----x----x----x-----|
A|--12--8---8---8---8---8---8---8-----|         A|--10---10---10---10---10---10---12~~~-|
E|------------------------------------|         E|--------------------------------------|

The power of the massess.. is a gift you dont deserve

e|------------------------------------|         e|------------------------------------|
B|------------------------------------|         B|------------------------------------|
G|------------------------------------|         G|------------------------------------|
D|------------------------------------|         D|------------------------------------|
A|--0-0-0-0--0-0---------0-0-0-0------|         A|---0-0-0-0--0-0-------0-0-0----0-0--|
E|--0-0-0-0--0-0---------0-0-0-0------|         E|---0-0-0-0--0-0-------0-0-0----0-0--|

e|------------------------------------|         
B|------------------------------------|         
G|------------------------------------|         
D|------------------------------------|         
A|--0-0-0-0--0-0---0-0-0-0--0-0----0--|        
E|--0-0-0-0--0-0---0-0-0-0--0-0----0--| x3    


e|---------------------------------------|         
B|---------------------------------------|       
G|---------------------------------------|       
D|---------------------------------------|  
A|--10-10-10-10-6-6-6-6-9-9-9-9-5-5-5-5--|         
E|---------------------------------------|  


e|------------------------------------|         e|------------------------------------|
B|------------------------------------|         B|------------------------------------|
G|------------------------------------|         G|------------------------------------|
D|------------------------------------|         D|------------------------------------|
A|--0-0-0-0--0-0---------0-0-0-0------|         A|---0-0-0-0--0-0-------0-0-0----0-0--|
E|--0-0-0-0--0-0---------0-0-0-0------|         E|---0-0-0-0--0-0-------0-0-0----0-0--|    
 
e|------------------------------------|         e|------------------------------------|
B|------------------------------------|         B|------------------------------------|
G|------------------------------------|         G|------------------------------------|
D|------------------------------------|         D|------------------------------------|
A|--0-0-0-0--0-0---------0-0-0-0------|         A|---0--0-0-0--0-0-0------------------|
E|--0-0-0-0--0-0---------0-0-0-0------|         E|---0--0-0-0--0-0-0------------------|

e|------------------------------------|         e|------------------------------------|
B|------------------------------------|         B|------------------------------------|
G|------------------------------------|         G|------------------------------------|
D|------------------------------------|         D|------------------------------------|
A|--0-0-0-0--0-0~~~~~~---0-0-0-0------|         A|---0-0-0-0--0-0~~~~~--0-0-0----0-0--|
E|--0-0-0-0--0-0~~~~~~---0-0-0-0------|         E|---0-0-0-0--0-0~~~~~--0-0-0----0-0--|

e|------------------------------------|         e|---------------------------------------|         
B|------------------------------------|         B|---------------------------------------|       
G|------------------------------------|         G|---------------------------------------|       
D|------------------------------------|         D|---------------------------------------|  
A|--0-0-0-0--0-0~~~~~~---0-0-0-0------|         A|--10-10-10-10-6-6-6-6-9-9-9-9-5-5-5-5--|
E|--0-0-0-0--0-0~~~~~~---0-0-0-0------|         E|---------------------------------------| 


e|------------------------------------|         e|------------------------------------|
B|------------------------------------|         B|------------------------------------|
G|------------------------------------|         G|------------------------------------|
D|------------------------------------|         D|------------------------------------|
A|--0-0-0-0--0-0---------0-0-0-0------|         A|---0-0-0-0--0-0-------0-0-0----0-0--|
E|--0-0-0-0--0-0---------0-0-0-0------|         E|---0-0-0-0--0-0-------0-0-0----0-0--|

e|------------------------------------|         e|-----------------------|
B|------------------------------------|         B|-----------------------|
G|------------------------------------|         G|-----------------------|
D|------------------------------------|         D|-----------------------|
A|--0-0-0-0-0-0---------0-0-0-0-------|         A|---0---0-0-0--0-0-0----|
E|--0-0-0-0-0-0---------0-0-0-0-------|         E|---0---0-0-0--0-0-0----| 

Heaven will burn to the fucking ground..


e|------------------------------------|         e|------------------------------------|
B|------------------------------------|         B|------------------------------------|
G|------------------------------------|         G|------------------------------------|
D|------------------------------------|         D|------------------------------------|
A|--0-0--0------0--0-0-----0-0--0-----|         A|--0-0--0------0--0-0------0-0--0----|
E|--0-0--0------0--0-0-----0-0--0-----|         E|--0-0--0------0--0-0------0-0--0----|


e|------------------------------------|         e|------------------------------|
B|------------------------------------|         B|------------------------------|
G|------------------------------------|         G|------------------------------|
D|------------------------------------|         D|------------------------------|
A|--0-0--0~~~~~~~~~~~~~~~~~~~~~~------|         A|--0--0-0~~~~--0-0--0~~~~------|
E|--1-1--1~~~~~~~~~~~~~~~~~~~~~~------|         E|--1--1-1~~~~--1-1--1~~~~------|  

e|------------------------------------|         e|------------------------------|
B|------------------------------------|         B|------------------------------|
G|------------------------------------|         G|------------------------------|
D|------------------------------------|         D|------------------------------|
A|--0--0-----0~~~~~~~~~~~~~~~~~~~~~~--|         A|--0----0---0~~~~--0--0---0~~~-|
E|--1--1-----1~~~~~~~~~~~~~~~~~~~~~~--|         E|--1----1---1~~~~--1--1---1~~~-|  

This is your demise

e|------------------------------------------|         e|----------------------|
B|------------------------------------------|         B|----------------------|
G|------------------------------------------|         G|----------------------|
D|------------------------------------------|         D|----------------------|
A|--0-0-0-0-0-0-0-0-0-0-0-0-0-0-0-0----0--0-|         A|--0-0-0-0-0-0-0---0---|
E|--0-0-0-0-0-0-0-0-0-0-0-0-0-0-0-0----0--0-|         E|--0-0-0-0-0-0-0---0---| 


e|-----------------------------------|       
B|-----------------------------------|         
G|-----------------------------------|         
D|-----------------------------------|         
A|--0-0-0----0-0-0----0-0-0-0--0--0--|         
E|--0-0-0----0-0-0----0-0-0-0--0--0--|    x2

e|------------------------------------------------|         e|---------------------------|
B|------------------------------------------------|         B|---------------------------|
G|------------------------------------------------|         G|---------------------------|
D|------------------------------------------------|         D|---------------------------|
A|--0-0-0-0-0-0-0-0-0-0-0-0-0-0-0-0----0--0~~~~~~-|         A|--0-0-0-0-0-0-0---0~~~~~---|
E|--0-0-0-0-0-0-0-0-0-0-0-0-0-0-0-0----0--0~~~~~~-|         E|--0-0-0-0-0-0-0---0~~~~~---|

e|-----------------------------------|       
B|-----------------------------------|         
G|-----------------------------------|         
D|-----------------------------------|         
A|--0-0-0~~~-0-0-0~~~-0-0-0-0--0--0--|         
E|--0-0-0~~~-0-0-0~~~-0-0-0-0--0--0--|

e|------------------------------------------|         e|----------------------|
B|------------------------------------------|         B|----------------------|
G|------------------------------------------|         G|----------------------|
D|------------------------------------------|         D|----------------------|
A|--0-0-0-0-0-0-0-0-0-0-0-0-0-0-0-0----0--0-|         A|--0-0-0-0-0-0-0---0---|
E|--0-0-0-0-0-0-0-0-0-0-0-0-0-0-0-0----0--0-|         E|--0-0-0-0-0-0-0---0---| 


e|-----------------------------------|          
B|-----------------------------------|          
G|-----------------------------------|         
D|-----------------------------------|         
A|--0-0-0----0-0-0----0-0-0-0--0--0--|         
E|--0-0-0----0-0-0----0-0-0-0--0--0--|

e|-----------------|
B|--11-------------|
G|--14-------------|
D|-----------------|
A|------0---0---0--|
E|------0---0---0--|


I never believed in you... (REPEAT CHORUS)


What a way to end the world..

e|------------------------------------|         e|------------------------------------|
B|------------------------------------|         B|------------------------------------|
G|------------------------------------|         G|------------------------------------|
D|------------------------------------|         D|------------------------------------|
A|------------------------------------|         A|------------------------------------|
E|--8-8-8-8-8-8-8-8-5-5-5-5-5-5-5-5---|         E|--7-7-7-7-7-7-7-7-3-3-3-3-3-3-3-3---|

e|------------------------------------|         e|--------------------------------------|
B|------------------------------------|         B|--------------------------------------|
G|------------------------------------|         G|--------------------------------------|
D|------------------------------------|         D|--------------------------------------|
A|------------------------------------|         A|--------------------------------------|
E|--8-8-8-8-8-8-8-8-5-5-5-5-5-5-5-5---|         E|--7-7-7-7-7-7-7-7-10-10-10-10-5-5-5-5-|    x2
comments
print report bad tab
9 comments total. Showing first comments.
+2 reply
alexgir wrote on March 12 2011, 06:23 am

i ****ing love you!!:D

+1 reply
kriz17 wrote on March 13 2011, 08:23 am

thanks man.

-1 reply
JoseNunez wrote on April 7 2011, 11:03 pm

Asking mostly uses the 00's but they sound F***ing awesome

I want to post or [tab]
guest
You may want to rate the tab now too:
select rating
Please do not post tabs as comments. Select "correction" instead!