Oops, an error
Loading. Please wait.

Morte Et Dabo Tab

ver4
ver4

Whole song

Interactive

More versions @911Tabs.com
637 views 1 this week
no commentswrite comment
1 2 3 4 5
not so good
x 1
Autoscroll
+/-
esc
set tempo
stop
Contributor
Difficulty
Tuning
intermediate
C G C F A D
Hey! There's an official Ultimate Guitar app which is ideal
for learning songs when you're away from computer. Get the app
WARNING: You are trying to view
                                    content from Ultimate-Guitar.com
                                    in an unauthorized application,
                                    which is prohibited.

                                    Please use an official Ultimate
                                    Guitar Tabs application for iPhone,
                                    iPad or Android to access legitimate
                                    chords, guitar, bass, and drum tabs
                                    from Ultimate-Guitar.com database.

                                    Type "ultimate guitar tabs" in Apple
                                    App Store's or Android Market's
                                    search to find the application.
This tab is personally made by me,i just made it easier.

Drop C

" = Tremolo Pick
h = Hammer-on
p = Pull-off
* = Palm Mute
/ = Slide Up
\ = Slide Down
~ = Let Note Ring

Intro..
e|----------------------------|
B|----------------------------|
G|----------------------------|
D|----------------------------|
A|-----------------8---10-----|
E|--10--0--0--5--0------------|

e|-------------------|
B|-------------------|
G|-------------------|
D|-------------------|
A|-------------------|
E|----0-0-0-0-0-0----|

e|----------------------|
B|----------------------|
G|----------------------|
D|----------------------|
A|----------------------|
E|----10-0-0-5-0-0-6----|

e|------------------------------------|
B|------------------------------------|
G|------------------------------------|
D|------------------------------------|
A|------------------------------------|
E|-------4"-------3"------------------|   x4


Bow down before me...

e|------------------------|         e|-----------------------------|
B|------------------------|         B|-----------------------------|
G|------------------------|         G|-----------------------------|
D|------------------------|         D|-----------------------------|
A|--0-0-0-0----0-0---0-0--|         A|--0-0-0-0-----0-0--0-0--0-0--|
E|--1-1-1-1----1-1---1-1--|         E|--1-1-1-1-----1-1--1-1--1-1--|

e|------------------------|         e|-----------------------------|
B|------------------------|         B|-----------------------------|
G|------------------------|         G|-----------------------------|
D|------------------------|         D|-----------------------------|
A|--0-0-0-0----0-0---0-0--|         A|--0-0-0-0-----0-0--0-0--0-0--|
E|--1-1-1-1----1-1---1-1--|         E|--1-1-1-1-----1-1--1-1--1-1--|

I'll never bow to one who claims to be divine..

e|----------------------------|
B|----------------------------|
G|----------------------------|
D|----------------------------|
A|-----------------8---10-----|
E|--10--0--0--5--0------------|

e|-------------------|
B|-------------------|
G|-------------------|
D|-------------------|
A|-------------------|
E|----0-0-0-0-0-0----|

e|----------------------|
B|----------------------|
G|----------------------|
D|----------------------|
A|----------------------|
E|----10-0-0-5-0-0-6----|


e|------------------------------------|
B|------------------------------------|
G|------------------------------------|
D|------------------------------------|
A|------------------------------------|
E|-------4"-------3"------------------|   x4

I never believed in you... CHORUS

e|-----------------------------------------------------------------------------|
B|-----------------------------------------------------------------------------|
G|-14-14-14-14-14-14-14-14---14-14-14-14-14-14-14-14---14-14-14-14-14-14-14-14-|
D|-xx-xx-xx-xx-xx-xx-xx-xx---xx-xx-xx-xx-xx-xx-xx-xx---xx-xx-xx-xx-xx-xx-xx-xx-|
A|-12-12-12-12-12-12-12-12---12-12-12-12-12-12-12-12---12-12-12-12-12-12-12-12-|
E|-----------------------------------------------------------------------------|

e|------------------------------|         e|----------------------------|
B|------------------------------|         B|----------------------------|
G|--14-12-12-12-12-12-12-12-----|         G|--12-14-14-14-14-14-14-14---|
D|--xx-xx-xx-xx-xx-xx-xx-xx-----|         D|--xx-xx-xx-xx-xx-xx-xx-xx---|
A|--12-10-10-10-10-10-10-10-----|         A|--10-12-12-12-12-12-12-12---|
E|------------------------------|         E|----------------------------|

e|----------------------------------------------------|
B|----------------------------------------------------|
G|-14-14-14-14-14-14-14-14---14-10-10-10-10-10-10-10--|
D|-xx-xx-xx-xx-xx-xx-xx-xx---x--x--x--x--x--x--x--x---|
A|-12-12-12-12-12-12-12-12---12-8--8--8--8--8--8--8---|
E|----------------------------------------------------|

e|------------------------------|
B|------------------------------|
G|--12-12-12-12-12-12-12-12-----|
D|--xx-xx-xx-xx-xx-xx-xx-xx-----|
A|--10-10-10-10-10-10-10-10-----|
E|------------------------------|

e|-----------------------------------------------------------------------------|
B|-----------------------------------------------------------------------------|
G|-14-14-14-14-14-14-14-14---14-14-14-14-14-14-14-14---14-14-14-14-14-14-14-14-|
D|-xx-xx-xx-xx-xx-xx-xx-xx---xx-xx-xx-xx-xx-xx-xx-xx---xx-xx-xx-xx-xx-xx-xx-xx-|
A|-12-12-12-12-12-12-12-12---12-12-12-12-12-12-12-12---12-12-12-12-12-12-12-12-|
E|-----------------------------------------------------------------------------|

e|------------------------------|   e|----------------------------|  e|--------------------------|
B|------------------------------|   B|----------------------------|  B|--------------------------|
G|--14-12-12-12-12-12-12-12-----|   G|--12-14-14-14-14-14-14-14---|  G|--14-14-14-14-14-14-14-14-|
D|--xx-xx-xx-xx-xx-xx-xx-xx-----|   D|--xx-xx-xx-xx-xx-xx-xx-xx---|  D|--xx-xx-xx-xx-xx-xx-xx-xx-|
A|--12-10-10-10-10-10-10-10-----|   A|--10-12-12-12-12-12-12-12---|  A|--12-12-12-12-12-12-12-12-|
E|------------------------------|   E|----------------------------|  E|--------------------------|


e|------------------------------------|         e|--------------------------------------|
B|------------------------------------|         B|--------------------------------------|
G|--14--10--10--10--10--10--10--10----|         G|--12---12---12---12---12---12---14~~~-|
D|--x---x---x---x---x---x---x---x-----|         D|--x----x----x----x----x----x----x-----|
A|--12--8---8---8---8---8---8---8-----|         A|--10---10---10---10---10---10---12~~~-|
E|------------------------------------|         E|--------------------------------------|

The power of the masses... is a gift you don't deserve

e|------------------------------------|         e|------------------------------------|
B|------------------------------------|         B|------------------------------------|
G|------------------------------------|         G|------------------------------------|
D|------------------------------------|         D|------------------------------------|
A|--0-0-0-0--0-0---------0-0-0-0------|         A|---0-0-0-0--0-0-------0-0-0----0-0--|
E|--0-0-0-0--0-0---------0-0-0-0------|         E|---0-0-0-0--0-0-------0-0-0----0-0--|

e|------------------------------------|
B|------------------------------------|
G|------------------------------------|
D|------------------------------------|
A|--0-0-0-0--0-0---0-0-0-0--0-0----0--|
E|--0-0-0-0--0-0---0-0-0-0--0-0----0--| x3


e|---------------------------------------|
B|---------------------------------------|
G|---------------------------------------|
D|---------------------------------------|
A|--10-10-10-10-6-6-6-6-9-9-9-9-5-5-5-5--|
E|---------------------------------------|


e|------------------------------------|         e|------------------------------------|
B|------------------------------------|         B|------------------------------------|
G|------------------------------------|         G|------------------------------------|
D|------------------------------------|         D|------------------------------------|
A|--0-0-0-0--0-0---------0-0-0-0------|         A|---0-0-0-0--0-0-------0-0-0----0-0--|
E|--0-0-0-0--0-0---------0-0-0-0------|         E|---0-0-0-0--0-0-------0-0-0----0-0--|

e|------------------------------------|         e|------------------------------------|
B|------------------------------------|         B|------------------------------------|
G|------------------------------------|         G|------------------------------------|
D|------------------------------------|         D|------------------------------------|
A|--0-0-0-0--0-0---------0-0-0-0------|         A|---0--0-0-0--0-0-0------------------|
E|--0-0-0-0--0-0---------0-0-0-0------|         E|---0--0-0-0--0-0-0------------------|

e|------------------------------------|         e|------------------------------------|
B|------------------------------------|         B|------------------------------------|
G|------------------------------------|         G|------------------------------------|
D|------------------------------------|         D|------------------------------------|
A|--0-0-0-0--0-0~~~~~~---0-0-0-0------|         A|---0-0-0-0--0-0~~~~~--0-0-0----0-0--|
E|--0-0-0-0--0-0~~~~~~---0-0-0-0------|         E|---0-0-0-0--0-0~~~~~--0-0-0----0-0--|

e|------------------------------------|         e|---------------------------------------|
B|------------------------------------|         B|---------------------------------------|
G|------------------------------------|         G|---------------------------------------|
D|------------------------------------|         D|---------------------------------------|
A|--0-0-0-0--0-0~~~~~~---0-0-0-0------|         A|--10-10-10-10-6-6-6-6-9-9-9-9-5-5-5-5--|
E|--0-0-0-0--0-0~~~~~~---0-0-0-0------|         E|---------------------------------------|


e|------------------------------------|         e|------------------------------------|
B|------------------------------------|         B|------------------------------------|
G|------------------------------------|         G|------------------------------------|
D|------------------------------------|         D|------------------------------------|
A|--0-0-0-0--0-0---------0-0-0-0------|         A|---0-0-0-0--0-0-------0-0-0----0-0--|
E|--0-0-0-0--0-0---------0-0-0-0------|         E|---0-0-0-0--0-0-------0-0-0----0-0--|

e|------------------------------------|         e|-----------------------|
B|------------------------------------|         B|-----------------------|
G|------------------------------------|         G|-----------------------|
D|------------------------------------|         D|-----------------------|
A|--0-0-0-0-0-0---------0-0-0-0-------|         A|---0---0-0-0--0-0-0----|
E|--0-0-0-0-0-0---------0-0-0-0-------|         E|---0---0-0-0--0-0-0----|

Heaven will burn to the fucking ground...


e|------------------------------------|         e|------------------------------------|
B|------------------------------------|         B|------------------------------------|
G|------------------------------------|         G|------------------------------------|
D|------------------------------------|         D|------------------------------------|
A|--0-0--0------0--0-0-----0-0--0-----|         A|--0-0--0------0--0-0------0-0--0----|
E|--0-0--0------0--0-0-----0-0--0-----|         E|--0-0--0------0--0-0------0-0--0----|


e|------------------------------------|         e|------------------------------|
B|------------------------------------|         B|------------------------------|
G|------------------------------------|         G|------------------------------|
D|------------------------------------|         D|------------------------------|
A|--0-0--0~~~~~~~~~~~~~~~~~~~~~~------|         A|--0--0-0~~~~--0-0--0~~~~------|
E|--1-1--1~~~~~~~~~~~~~~~~~~~~~~------|         E|--1--1-1~~~~--1-1--1~~~~------|

e|------------------------------------|         e|------------------------------|
B|------------------------------------|         B|------------------------------|
G|------------------------------------|         G|------------------------------|
D|------------------------------------|         D|------------------------------|
A|--0--0-----0~~~~~~~~~~~~~~~~~~~~~~--|         A|--0----0---0~~~~--0--0---0~~~-|
E|--1--1-----1~~~~~~~~~~~~~~~~~~~~~~--|         E|--1----1---1~~~~--1--1---1~~~-|

This is your demise!

e|------------------------------------------|         e|----------------------|
B|------------------------------------------|         B|----------------------|
G|------------------------------------------|         G|----------------------|
D|------------------------------------------|         D|----------------------|
A|--0-0-0-0-0-0-0-0-0-0-0-0-0-0-0-0----0--0-|         A|--0-0-0-0-0-0-0---0---|
E|--0-0-0-0-0-0-0-0-0-0-0-0-0-0-0-0----0--0-|         E|--0-0-0-0-0-0-0---0---|


e|-----------------------------------|
B|-----------------------------------|
G|-----------------------------------|
D|-----------------------------------|
A|--0-0-0----0-0-0----0-0-0-0--0--0--|
E|--0-0-0----0-0-0----0-0-0-0--0--0--|    x2

e|------------------------------------------------|         e|---------------------------|
B|------------------------------------------------|         B|---------------------------|
G|------------------------------------------------|         G|---------------------------|
D|------------------------------------------------|         D|---------------------------|
A|--0-0-0-0-0-0-0-0-0-0-0-0-0-0-0-0----0--0~~~~~~-|         A|--0-0-0-0-0-0-0---0~~~~~---|
E|--0-0-0-0-0-0-0-0-0-0-0-0-0-0-0-0----0--0~~~~~~-|         E|--0-0-0-0-0-0-0---0~~~~~---|

e|-----------------------------------|
B|-----------------------------------|
G|-----------------------------------|
D|-----------------------------------|
A|--0-0-0~~~-0-0-0~~~-0-0-0-0--0--0--|
E|--0-0-0~~~-0-0-0~~~-0-0-0-0--0--0--|

e|------------------------------------------|         e|----------------------|
B|------------------------------------------|         B|----------------------|
G|------------------------------------------|         G|----------------------|
D|------------------------------------------|         D|----------------------|
A|--0-0-0-0-0-0-0-0-0-0-0-0-0-0-0-0----0--0-|         A|--0-0-0-0-0-0-0---0---|
E|--0-0-0-0-0-0-0-0-0-0-0-0-0-0-0-0----0--0-|         E|--0-0-0-0-0-0-0---0---|


e|-----------------------------------|
B|-----------------------------------|
G|-----------------------------------|
D|-----------------------------------|
A|--0-0-0----0-0-0----0-0-0-0--0--0--|
E|--0-0-0----0-0-0----0-0-0-0--0--0--|

e|-----------------|
B|--11-------------|
G|--14-------------|
D|-----------------|
A|------0---0---0--|
E|------0---0---0--|


I never believed in you... REPEAT CHORUS


What a way to end the world...

e|------------------------------------|         e|------------------------------------|
B|------------------------------------|         B|------------------------------------|
G|------------------------------------|         G|------------------------------------|
D|------------------------------------|         D|------------------------------------|
A|------------------------------------|         A|------------------------------------|
E|--8-8-8-8-8-8-8-8-5-5-5-5-5-5-5-5---|         E|--7-7-7-7-7-7-7-7-3-3-3-3-3-3-3-3---|

e|------------------------------------|         e|--------------------------------------|
B|------------------------------------|         B|--------------------------------------|
G|------------------------------------|         G|--------------------------------------|
D|------------------------------------|         D|--------------------------------------|
A|------------------------------------|         A|--------------------------------------|
E|--8-8-8-8-8-8-8-8-5-5-5-5-5-5-5-5---|         
E|--7-7-7-7-7-7-7-7-10-10-10-10-5-5-5-5-|    x2
comments
We did not receive enough feedback on this tab! Please rate:
print report bad tab
1 2 3 4 5
I want to post or [tab]
guest
You may want to rate the tab now too:
select rating
Please do not post tabs as comments. Select "correction" instead!