Oops, an error
Loading. Please wait.

Suicide Nation Tab

ver2
ver2

Whole song

More versions @911Tabs.com
1,246 views 6 this week
no commentswrite comment
1 2 3 4 5
please rate
Autoscroll
+/-
esc
set tempo
stop
Contributor
Tuning
B E A D F# B
WARNING: You are trying to view
                                    content from Ultimate-Guitar.com
                                    in an unauthorized application,
                                    which is prohibited.

                                    Please use an official Ultimate
                                    Guitar Tabs application for iPhone,
                                    iPad or Android to access legitimate
                                    chords, guitar, bass, and drum tabs
                                    from Ultimate-Guitar.com database.

                                    Type "ultimate guitar tabs" in Apple
                                    App Store's or Android Market's
                                    search to find the application.
#----------------------------------PLEASE NOTE---------------------------------#
#This file is the author's own work and represents their interpretation of the #
#song. You may only use this file for private study, scholarship, or research. #
#------------------------------------------------------------------------------#

SUICIDE NATION
As recorded by At The Gates
(From the 1995 Album SLAUGHTER OF THE SOUL)

Transcribed by Anders Bjorler
        

Music by At The Gates
Arranged by Powertab : Carlos Acosta (geeko)

Gtr I (B E A D F# B) - 'Rhythm '
Gtr II (B E A D F# B) - 'Rhythm'
Gtr III (B E A D F# B) - 'Lead'

 Intro
  Moderate Metal Q.=88
  E5
 6/8
  Gtr I
    PM--------------|         ~~~~~~
  E S S S S E S S S S   E S E E +S  S S S S
|---------------------|---------------------|
|---------------------|---------------------|
|---------------------|---------------------|
|---------------------|---------------------|
|-2-------------------|---------------------|
|-0-0-0-0-0-0-0-0-0-0-|-6-6-3-5-(5)-0-2h3p2-|
|
| Gtr II
| H           Q         H           Q
|---------------------|---------------------|
|---------------------|---------------------|
|---------------------|---------------------|
|---------------------|---------------------|
|---------------------|---------------------|
|---------------------|---------------------|


  E5
    PM--------------|         ~~~~~~
  E S S S S E S S S S   E S E E +S  S S S S
|---------------------|----------------------|
|---------------------|----------------------|
|---------------------|----------------------|
|---------------------|----------------------|
|-2-------------------|-------5-(5)----------|
|-0-0-0-0-0-0-0-0-0-0-|-6-6-3-------0-6-5-3--|
|
|                             ~~~~~~
| H           Q         E S E E +S  S S S S
|---------------------|----------------------|
|---------------------|----------------------|
|---------------------|----------------------|
|---------------------|----------------------|
|---------------------|-------5-(5)----------|
|---------------------|-6-6-3-------0-6-5-3--|


    E5
    Gtrs I, II
      PM--------------|         ~~~~~~
    E S S S S E S S S S   E S E E +S  S S S S
||----------------------|---------------------|
||o---------------------|---------------------|
||----------------------|---------------------|
||----------------------|---------------------|
||o-2-------------------|---------------------|
||--0-0-0-0-0-0-0-0-0-0-|-6-6-3-5-(5)-0-2h3p2-|


  E5                                            E5
    PM--------------|         ~~~~~~
  E S S S S E S S S S   E S E E +S  S S S S     H.
|---------------------|----------------------||-------|
|---------------------|---------------------o||-------|
|---------------------|----------------------||-------|
|---------------------|----------------------||-------|
|-2-------------------|-------5-(5)---------o||-2-----|
|-0-0-0-0-0-0-0-0-0-0-|-6-6-3-------0-6-5-3--||-0-----|


   Pre-Verse
    Q.=76
    PM--------------------|          PM--------------|   PM   PM
    S T T S S T T S S T T S S S  S   S T T S S T T S S S S  S S  S
||---------------------------------|-------------------------------|
||o--------------------------------|-------------------------------|
||---------------------------------|----------------------------12-|
||---------------------------------|-------------------9---10------|
||o-------------------------7h9h10-|-------------------------------|
||--0-0-0-0-0-0-0-0-0-0-0-0--------|-8-8-8-8-8-8-8-8-8---8----8----|


  PM--------------------|
  S T T S S T T S S T T S S S  S   S S S S S S S S S S S S
|--------------------------------|-----------------------------||
|--------------------------------|----------------------------o||
|--------------------------------|-----------------------------||
|--------------------------------|-----------------------------||
|-------------------------7h9h10-|-------------2-2-2-2-2-2----o||
|-0-0-0-0-0-0-0-0-0-0-0-0--------|-3-3-3-3-3-3-----------------||


 Verse
                                                            E5
  Gtr I
  PM--------------------|          PM--------------|   PM   PM
  S T T S S T T S S T T S S S  S   S T T S S T T S S S S  S S    S
|--------------------------------|---------------------------------|
|--------------------------------|---------------------------------|
|--------------------------------|------------------------------12-|
|--------------------------------|-------------------9---10--------|
|-------------------------7h9h10-|---------------------------------|
|-0-0-0-0-0-0-0-0-0-0-0-0--------|-8-8-8-8-8-8-8-8-8---8----8------|
|
| Gtr II
|                                                           PM--|
| H                     Q          H                   E    T T  S
|--------------------------------|---------------------------------|
|--------------------------------|---------------------------------|
|--------------------------------|---------------------------------|
|--------------------------------|---------------------------------|
|--------------------------------|--------------------------2-2--2-|
|--------------------------------|--------------------------0-0--0-|


        E5                         G5           B5
  PM--------------------|
  S T T S S T T S S T T S S S  S   S  S S S S S S  S S S S S
|--------------------------------|------------------------------|
|--------------------------------|------------------------------|
|--------------------------------|------------------------------|
|--------------------------------|------------------------------|
|-------------------------7h9h10-|--------------2--2-2-2-2-2----|
|-0-0-0-0-0-0-0-0-0-0-0-0--------|-3--3-3-3-3-3-----------------|
|
| E     E   Q           S S S  S   Q.           Q.
|--------------------------------|------------------------------|
|--------------------------------|------------------------------|
|--------------------------------|------------------------------|
|--------------------------------|--------------4---------------|
|-------2-----------------7h9h10-|-5------------2---------------|
|-------0------------------------|-3----------------------------|


  Gtrs I, II
  PM--------------------|          PM--------------|   PM   PM
  S T T S S T T S S T T S S S  S   S T T S S T T S S S S  S S  S
|--------------------------------|-------------------------------|
|--------------------------------|-------------------------------|
|--------------------------------|----------------------------12-|
|--------------------------------|-------------------9---10------|
|-------------------------7h9h10-|-------------------------------|
|-0-0-0-0-0-0-0-0-0-0-0-0--------|-8-8-8-8-8-8-8-8-8---8----8----|


  PM--------------------|
  S T T S S T T S S T T S S S  S   S S S S S S S S S S S S
|--------------------------------|-------------------------|
|--------------------------------|-------------------------|
|--------------------------------|-------------------------|
|--------------------------------|-------------------------|
|-------------------------7h9h10-|-------------2-2-2-2-2-2-|
|-0-0-0-0-0-0-0-0-0-0-0-0--------|-3-3-3-3-3-3-------------|


   Pre-Chorus
    Q.=87
    $
    Gtr I
       PM|   PM|    PM|   PM|      PM|    PM|    PM|    PM|
     S S S S S S  S S S S S S    S S S  S S S  S S S  S S S
||----------------------------|-----------------------------|
||o---------------------------|-----------------------------|
||----------------------------|-----------------------------|
||----------------------------|-----------------------------|
||o-10-----9-----10-----9-----|-12-----10-----12-----10-----|
||-----7-0---7-0----7-0---7-0-|----8-0----8-0----8-0----8-0-|
|
|   Gtr II
|      PM|   PM|    PM|   PM|      PM|    PM|    PM|    PM|
|    S S S S S S  S S S S S S    S S S  S S S  S S S  S S S
||----------------------------|-----------------------------|
||o---------------------------|-----------------------------|
||----------------------------|-----------------------------|
||----------------------------|-----------------------------|
||o--7-----5------7-----5-----|--9------7------9------7-----|
||-----0-0---0-0----0-0---0-0-|----8-8----8-8----8-8----8-8-|


                                                To Coda
     PM|   PM|    PM|   PM|      PM|    PM|    PM|
   S S S S S S  S S S S S S    S S S  S S S  S S S S S S
|---------------------------|-------------------------------||
|---------------------------|------------------------------o||
|---------------------------|-------------------------------||
|---------------------------|-------------------------------||
|-10-----9-----10-----9-----|-12-----10-----12-----6h7h9---o||
|----7-0---7-0----7-0---7-0-|----8-0----8-0----8-0----------||
|
|    PM|   PM|    PM|   PM|      PM|    PM|    PM|
|  S S S S S S  S S S S S S    S S S  S S S  S S S S S S
|---------------------------|-------------------------------||
|---------------------------|------------------------------o||
|---------------------------|-------------------------------||
|---------------------------|-------------------------------||
|--7-----5------7-----5-----|--9------7------9-----6h7h9---o||
|----0-0---0-0----0-0---0-0-|----8-8----8-8----8-8----------||


   Verse
    Q.=76
    Gtrs I, II
    PM--------------------|          PM--------------|   PM   PM
    S T T S S T T S S T T S S S  S   S T T S S T T S S S S  S S  S
||---------------------------------|-------------------------------|
||o--------------------------------|-------------------------------|
||---------------------------------|----------------------------12-|
||---------------------------------|-------------------9---10------|
||o-------------------------7h9h10-|-------------------------------|
||--0-0-0-0-0-0-0-0-0-0-0-0--------|-8-8-8-8-8-8-8-8-8---8----8----|


  PM--------------------|
  S T T S S T T S S T T S S S  S   S S S S S S S S S S S S
|--------------------------------|-----------------------------||
|--------------------------------|----------------------------o||
|--------------------------------|-----------------------------||
|--------------------------------|-----------------------------||
|-------------------------7h9h10-|-------------2-2-2-2-2-2----o||
|-0-0-0-0-0-0-0-0-0-0-0-0--------|-3-3-3-3-3-3-----------------||


 Chorus
  Q.=70
  E5F#G5E5                          E5F#G5E5
  Gtr I
        PM      PM          ~~~~~~        PM          PM       ~~~~~
  E S S E  Q    E    Q   E  Q   E   E S S E  Q        E   Q  E Q  E
|-----------------|---------------|---------------------|-----------|
|-----------------|---------------|---------------------|-----------|
|-----------------|---------------|---------------------|-----------|
|-----------------|-10--10-10--10-|---------------------|-5--7-8--8-|
|-2-4S5-2--2------|---------------|-2-4S5-2--2----------|-----------|
|-0-2S3-0--0----0-|--8---8--8---8-|-0-2S3-0--0--------0-|-3--5-6--6-|
|
| Gtr II
|               PM          ~~~~~~                    PM       ~~~~~
|                                              |-3--|
| Q     E  E  E E    Q   E  Q   E   Q     E  E S  S S E   Q  E Q  E
|-----------------|---------------|---------------------|-----------|
|-----------------|---------------|---------------------|-----------|
|-------9-12-11---|---------------|---------------------|-----------|
|-----------------|-10---9--7---7-|---------------------|-5--7-8--8-|
|-2-----7-10--9---|---------------|-2-----7-10-9h10p9---|-----------|
|-0-------------7-|--8---7--5---5-|-0-----------------7-|-3--5-6--6-|


                                                                D.S. al Coda
                    E5                        E5F#G5E5
  PM--------------|       PM          ~~~~~~        PM          PM       ~~~~~
  |-3-| |-3-| |-3-|
  S S S S S S S S S  Q    E    Q   E  Q   E   E S S E  Q        E   Q  E Q  E
|---------------------------|---------------|---------------------|-----------|
|---------------------------|---------------|---------------------|-----------|
|---------------------------|---------------|---------------------|-----------|
|---------------------------|-10--10-10--10-|---------------------|-5--7-8--8-|
|--------------------2------|---------------|-2-4S5-2--2----------|-----------|
|-0-0-0-0-0-0-0-0-0--0----0-|--8---8--8---8-|-0-2S3-0--0--------0-|-3--5-6--6-|
|
| PM--------------|       PM          ~~~~~~                    PM       ~~~~~
| |-3-| |-3-| |-3-|                                      |-3--|
| S S S S S S S S S  E  E E    Q   E  Q   E   Q     E  E S  S S E   Q  E Q  E
|---------------------------|---------------|---------------------|-----------|
|---------------------------|---------------|---------------------|-----------|
|-------------------12-11---|---------------|---------------------|-----------|
|---------------------------|-10---9--7---7-|---------------------|-5--7-8--8-|
|-------------------10--9---|---------------|-2-----7-10-9h10p9---|-----------|
|-0-0-0-0-0-0-0-0-0-------7-|--8---7--5---5-|-0-----------------7-|-3--5-6--6-|


   Verse
    Q.=76
    &
    Gtrs I, II
    PM--------------------|          PM-------------------------------
    S T T S S T T S S T T S S S  S   S T T S S T T S S T T S S T T S
||---------------------------------|---------------------------------|
||o--------------------------------|---------------------------------|
||---------------------------------|---------------------------------|
||---------------------------------|---------------------------------|
||o-------------------------7h9h10-|---------------------------------|
||--0-0-0-0-0-0-0-0-0-0-0-0--------|-8-8-8-8-8-8-8-8-8-8-8-8-8-8-8-8-|


 -----------------------|
  S T T S S T T S S T T S S S  S   S S S S S S S S S S S S
|--------------------------------|----------------------------||
|--------------------------------|---------------------------o||
|--------------------------------|----------------------------||
|--------------------------------|----------------------------||
|-------------------------7h9h10-|-------------2-2-2-2-2-2---o||
|-0-0-0-0-0-0-0-0-0-0-0-0--------|-3-3-3-3-3-3----------------||


 Chorus
  Q.=70
  E5F#G5E5                          E5F#G5E5
  Gtr I
        PM      PM          ~~~~~~        PM          PM       ~~~~~
  E S S E  Q    E    Q   E  Q   E   E S S E  Q        E   Q  E Q  E
|-----------------|---------------|---------------------|-----------|
|-----------------|---------------|---------------------|-----------|
|-----------------|---------------|---------------------|-----------|
|-----------------|-10--10-10--10-|---------------------|-5--7-8--8-|
|-2-4S5-2--2------|---------------|-2-4S5-2--2----------|-----------|
|-0-2S3-0--0----0-|--8---8--8---8-|-0-2S3-0--0--------0-|-3--5-6--6-|
|
| Gtr II
|               PM          ~~~~~~                    PM       ~~~~~
|                                              |-3--|
| Q     E  E  E E    Q   E  Q   E   Q     E  E S  S S E   Q  E Q  E
|-----------------|---------------|---------------------|-----------|
|-----------------|---------------|---------------------|-----------|
|-------9-12-11---|---------------|---------------------|-----------|
|-----------------|-10---9--7---7-|---------------------|-5--7-8--8-|
|-2-----7-10--9---|---------------|-2-----7-10-9h10p9---|-----------|
|-0-------------7-|--8---7--5---5-|-0-----------------7-|-3--5-6--6-|


                                           E5
  PM--------------|       PM        ~~~~~                 PM       ~~~~~
                                                   |-3--|
  T T S T T S T T S  E  E E    Q  E Q  E   Q  E  E S  S S E   Q  E Q  E
|---------------------------|------------|------------------|-----------|
|---------------------------|------------|------------------|-----------|
|-------------------12-11---|------------|------------------|-----------|
|---------------------------|-10--9-7--7-|------------------|-5--7-8--8-|
|-------------------10--9---|------------|-2--7-10-9h10p9---|-----------|
|-0-0-0-0-0-0-0-0-0-------7-|--8--7-5--5-|-0--------------7-|-3--5-6--6-|
|
| PM--------------|       PM        ~~~~~                 PM       ~~~~~
|                                                  |-3--|
| T T S T T S T T S  E  E E    Q  E Q  E   Q  E  E S  S S E   Q  E Q  E
|---------------------------|------------|------------------|-----------|
|---------------------------|------------|------------------|-----------|
|-------------------12-11---|------------|------------------|-----------|
|---------------------------|-10--9-7--7-|------------------|-5--7-8--8-|
|-------------------10--9---|------------|-2--7-10-9h10p9---|-----------|
|-0-0-0-0-0-0-0-0-0-------7-|--8--7-5--5-|-0--------------7-|-3--5-6--6-|


   Intro Riff/Bridge
    Q.=88
    E5
    Gtrs I, II
      PM--------------|         ~~~~~~
    E S S S S E S S S S   E S E E +S  S S S S
||----------------------|---------------------|
||o---------------------|---------------------|
||----------------------|---------------------|
||----------------------|---------------------|
||o-2-------------------|---------------------|
||--0-0-0-0-0-0-0-0-0-0-|-6-6-3-5-(5)-0-2h3p2-|


  E5
    PM--------------|         ~~~~~~
  E S S S S E S S S S   E S E E +S  S S S S
|---------------------|------------------------||
|---------------------|-----------------------o||
|---------------------|------------------------||
|---------------------|------------------------||
|-2-------------------|-------5-(5)-----------o||
|-0-0-0-0-0-0-0-0-0-0-|-6-6-3-------0-6-5-3----||


        PM    PM    PM~~       PM    PM    PM~~
    S S S S S S S S S E.   S S S S S S S S S E.
||-----------------------|----------------------|
||o----------------------|----------------------|
||-----------------------|----------------------|
||--------------7h9------|-------------7h9------|
||o-5h7---7h8---------8\-|-5h7---7h8---------8\-|
||------0-----0-----0----|-----0-----0-----0----|


      PM    PM    PM~~       PM    PM    PM~~
  S S S S S S S S S E.   S S S S S S S S S E.
|----------------------|-----------------------||
|----------------------|----------------------o||
|----------------------|-----------------------||
|-------------7h9------|-------------7h9-------||
|-5h7---7h8---------8\-|-5h7---7h8---------8\-o||
|-----0-----0-----0----|-----0-----0-----0-----||


  Gtr I
     PM|   PM|    PM|   PM|      PM|    PM|    PM|    PM|
   S S S S S S  S S S S S S    S S S  S S S  S S S  S S S
|---------------------------|-----------------------------|
|---------------------------|-----------------------------|
|---------------------------|-----------------------------|
|---------------------------|-----------------------------|
|-10-----9-----10-----9-----|-12-----10-----12-----10-----|
|----7-0---7-0----7-0---7-0-|----8-0----8-0----8-0----8-0-|
|
| Gtr II
|    PM|   PM|    PM|   PM|      PM|    PM|    PM|    PM|
|  S S S S S S  S S S S S S    S S S  S S S  S S S  S S S
|---------------------------|-----------------------------|
|---------------------------|-----------------------------|
|---------------------------|-----------------------------|
|---------------------------|-----------------------------|
|--7-----5------7-----5-----|--9------7------9------7-----|
|----0-0---0-0----0-0---0-0-|----8-8----8-8----8-8----8-8-|


     PM|   PM|    PM|   PM|      PM|    PM|    PM|
   S S S S S S  S S S S S S    S S S  S S S  S S S S S S
|---------------------------|-------------------------------|
|---------------------------|-------------------------------|
|---------------------------|-------------------------------|
|---------------------------|-------------------------------|
|-10-----9-----10-----9-----|-12-----10-----12-----6h7h9----|
|----7-0---7-0----7-0---7-0-|----8-0----8-0----8-0----------|
|
|    PM|   PM|    PM|   PM|      PM|    PM|    PM|
|  S S S S S S  S S S S S S    S S S  S S S  S S S S S S
|---------------------------|-------------------------------|
|---------------------------|-------------------------------|
|---------------------------|-------------------------------|
|---------------------------|-------------------------------|
|--7-----5------7-----5-----|--9------7------9-----6h7h9----|
|----0-0---0-0----0-0---0-0-|----8-8----8-8----8-8----------|


                               Guitar Solo
  Gtr I
      PM|   PM|    PM|   PM|       PM|     PM|    PM|     PM|
   S  S S S S S  S S S S S S     S S  S  S S S  S S  S  S S S
|----------------------------||-------------------------------|
|----------------------------||-------------------------------|
|----------------------------||-------------------------------|
|----------------------------||-------------------------------|
|-10------9-----10-----9-----||-12------10-----12------10-----|
|-----7-0---7-0----7-0---7-0-||----8--0----8-0----8--0----8-0-|
|
| Gtr II
|     PM|   PM|    PM|   PM|       PM|     PM|    PM|     PM|
|  S  S S S S S  S S S S S S     S S  S  S S S  S S  S  S S S
|----------------------------||-------------------------------|
|----------------------------||-------------------------------|
|----------------------------||-------------------------------|
|----------------------------||-------------------------------|
|--7------5------7-----5-----||--9-------7------9-------7-----|
|-----0-0---0-0----0-0---0-0-||----8--8----8-8----8--8----8-8-|
|
| Gtr III
|  H.                            E    E    E    E    E    E
|----------------------------||-------------------------------|
|----------------------------||-12----------------------------|
|----------------------------||------12----9------------------|
|----------------------------||-----------------9-------------|
|----------------------------||---------------------10----7---|
|----------------------------||-------------------------------|


      PM|   PM|    PM|   PM|         PM|    PM|     PM|
   S  S S S S S  S S S S S S    S    S S  S S S  S  S S S S S
|----------------------------|-----------------------------------|
|----------------------------|-----------------------------------|
|----------------------------|-----------------------------------|
|----------------------------|-----------------------------------|
|-10------9-----10-----9-----|-12--------10-----12------6h7h9----|
|-----7-0---7-0----7-0---7-0-|-------8-0----8-0-----8-0----------|
|
|     PM|   PM|    PM|   PM|         PM|    PM|     PM|
|  S  S S S S S  S S S S S S    S    S S  S S S  S  S S S S S
|----------------------------|-----------------------------------|
|----------------------------|-----------------------------------|
|----------------------------|-----------------------------------|
|----------------------------|-----------------------------------|
|--7------5------7-----5-----|--9---------7------9------6h7h9----|
|-----0-0---0-0----0-0---0-0-|-------8-8----8-8-----8-8----------|
|
|  ~~~                                           ~~~
|  H.                           Q.              +Q.
|----------------------------|-----------------------------------|
|----------------------------|-----------------------------------|
|----------------------------|-----------------------------------|
|--9-------------------------|-----------------------------------|
|----------------------------|--9b10r===========(9)--------------|
|----------------------------|-----------------------------------|


  Gtrs I, II
  PM--------------------|            PM-----------------------------------
  S T T S T T S T T S T T S S S  S   S T T S T T S T T S T T S T T S T T
|----------------------------------|-------------------------------------|
|----------------------------------|-------------------------------------|
|----------------------------------|-------------------------------------|
|----------------------------------|-------------------------------------|
|---------------------------7h9h10-|-------------------------------------|
|-0-0-0-0-0-0-0-0-0-0-0-0-0--------|-8-8-8-8-8-8-8-8-8-8-8-8-8-8-8-8-8-8-|
|
| Gtr III
| ~                                  ~                       TP
| H                       S S S  S   H                       Q
|-------------------------0-7-8-10-|-8-----------------------7-----------|
|----------------------------------|-------------------------------------|
|-9--------------------------------|-------------------------------------|
|----------------------------------|-------------------------------------|
|----------------------------------|-------------------------------------|
|----------------------------------|-------------------------------------|


 ------------------------------------|
  S T T S T T S T T S T T S  T T S T T   S   S S S S S S  S S S S S
|--------------------------------------|-------------------------------|
|--------------------------------------|-------------------------------|
|--------------------------------------|-------------------------------|
|--------------------------------------|-------------------------------|
|--------------------------------------|-5---5-5-5-5-5-6--6-6-6-6-6----|
|-3-3-3-3-3-3-3-3-3-3-3-3-3--3-3-3-3-3-|-------------------------------|
|
| TP          ~~~~~~~~~~~~~~~                          ~~
| Q           Q           Q              Q.            Q.
|-5-----------7-----------7\-----------|-------------------------------|
|--------------------------------------|-7b8r==========7---------------|
|--------------------------------------|-------------------------------|
|--------------------------------------|-------------------------------|
|--------------------------------------|-------------------------------|
|--------------------------------------|-------------------------------|


  PM-----------------------|             PM---------------------------------------
  S T T S  T T  S T T  S T T S  S S  S   S T T S  T T  S T T  S T T S  T T S T T
|--------------------------------------|-----------------------------------------|
|--------------------------------------|-----------------------------------------|
|--------------------------------------|-----------------------------------------|
|--------------------------------------|-----------------------------------------|
|-------------------------------7h9h10-|-----------------------------------------|
|-0-0-0-0--0-0--0-0-0--0-0-0-0---------|-8-8-8-8--8-8--8-8-8--8-8-8-8--8-8-8-8-8-|
|
| S S   S  S    S S    S S   S  S S  S   S S   S  S    S S    S S   S  S   S S
|--------------------------------------|-----------------------------------------|
|-8-5---0-13---10-0---12-8---0-10-7--0-|-8-5---0-13---10-0---12-8---0-10---7-0---|
|--------------------------------------|-----------------------------------------|
|--------------------------------------|-----------------------------------------|
|--------------------------------------|-----------------------------------------|
|--------------------------------------|-----------------------------------------|


 ---------------------------------------|
  S T T S  T T  S T T  S T T S  T T S T T   Q.             Q.
|-----------------------------------------|---------------------------------|
|-----------------------------------------|---------------------------------|
|-----------------------------------------|----------------4----------------|
|-----------------------------------------|-4-------------------------------|
|-----------------------------------------|----------------2----------------|
|-3-3-3-3--3-3--3-3-3--3-3-3-3--3-3-3-3-3-|-2-------------------------------|
|
| S S   S  S    S S    S S   S  S   S S     S  S S  S  S S S  S S S S  S
|-----------------------------------------|---------------------------------|
|-8-5---0-13---10-0---12-8---0-10---7-0---|-8--5-0-13-10-0-4--5-7-7-8-10----|
|-----------------------------------------|---------------------------------|
|-----------------------------------------|---------------------------------|
|-----------------------------------------|---------------------------------|
|-----------------------------------------|---------------------------------|


 Verse
  Q.=76
                                                            E5
  Gtr I
  PM--------------------|          PM--------------|   PM   PM
  S T T S S T T S S T T S S S  S   S T T S S T T S S S S  S S    S
|--------------------------------|---------------------------------|
|--------------------------------|---------------------------------|
|--------------------------------|------------------------------12-|
|--------------------------------|-------------------9---10--------|
|-------------------------7h9h10-|---------------------------------|
|-0-0-0-0-0-0-0-0-0-0-0-0--------|-8-8-8-8-8-8-8-8-8---8----8------|
|
| Gtr II
|                                                           PM--|
| H                     Q          H                   E    T T  S
|--------------------------------|---------------------------------|
|--------------------------------|---------------------------------|
|--------------------------------|---------------------------------|
|--------------------------------|---------------------------------|
|--------------------------------|--------------------------2-2--2-|
|--------------------------------|--------------------------0-0--0-|


        E5                         G5           B5
  PM--------------------|
  S T T S S T T S S T T S S S  S   S  S S S S S S  S S S S S
|--------------------------------|------------------------------|
|--------------------------------|------------------------------|
|--------------------------------|------------------------------|
|--------------------------------|------------------------------|
|-------------------------7h9h10-|--------------2--2-2-2-2-2----|
|-0-0-0-0-0-0-0-0-0-0-0-0--------|-3--3-3-3-3-3-----------------|
|
| E     E   Q           S S S  S   Q.           Q.
|--------------------------------|------------------------------|
|--------------------------------|------------------------------|
|--------------------------------|------------------------------|
|--------------------------------|--------------4---------------|
|-------2-----------------7h9h10-|-5------------2---------------|
|-------0------------------------|-3----------------------------|


  Gtrs I, II
  PM--------------------|          PM--------------|   PM   PM
  S T T S S T T S S T T S S S  S   S T T S S T T S S S S  S S  S
|--------------------------------|-------------------------------|
|--------------------------------|-------------------------------|
|--------------------------------|----------------------------12-|
|--------------------------------|-------------------9---10------|
|-------------------------7h9h10-|-------------------------------|
|-0-0-0-0-0-0-0-0-0-0-0-0--------|-8-8-8-8-8-8-8-8-8---8----8----|


  PM--------------------|
  S T T S S T T S S T T S S S  S   S S S S S S S S S S S S
|--------------------------------|-------------------------|
|--------------------------------|-------------------------|
|--------------------------------|-------------------------|
|--------------------------------|-------------------------|
|-------------------------7h9h10-|-------------2-2-2-2-2-2-|
|-0-0-0-0-0-0-0-0-0-0-0-0--------|-3-3-3-3-3-3-------------|


 Chorus
  Q.=70
  E5F#G5E5                          E5F#G5E5
  Gtr I
        PM      PM          ~~~~~~        PM          PM       ~~~~~
  E S S E  Q    E    Q   E  Q   E   E S S E  Q        E   Q  E Q  E
|-----------------|---------------|---------------------|-----------|
|-----------------|---------------|---------------------|-----------|
|-----------------|---------------|---------------------|-----------|
|-----------------|-10--10-10--10-|---------------------|-5--7-8--8-|
|-2-4S5-2--2------|---------------|-2-4S5-2--2----------|-----------|
|-0-2S3-0--0----0-|--8---8--8---8-|-0-2S3-0--0--------0-|-3--5-6--6-|
|
| Gtr II
|               PM          ~~~~~~                    PM       ~~~~~
|                                              |-3--|
| Q     E  E  E E    Q   E  Q   E   Q     E  E S  S S E   Q  E Q  E
|-----------------|---------------|---------------------|-----------|
|-----------------|---------------|---------------------|-----------|
|-------9-12-11---|---------------|---------------------|-----------|
|-----------------|-10---9--7---7-|---------------------|-5--7-8--8-|
|-2-----7-10--9---|---------------|-2-----7-10-9h10p9---|-----------|
|-0-------------7-|--8---7--5---5-|-0-----------------7-|-3--5-6--6-|


                    E5                        E5F#G5E5
  PM--------------|       PM          ~~~~~~        PM          PM       ~~~~~
  |-3-| |-3-| |-3-|
  S S S S S S S S S  Q    E    Q   E  Q   E   E S S E  Q        E   Q  E Q  E
|---------------------------|---------------|---------------------|-----------|
|---------------------------|---------------|---------------------|-----------|
|---------------------------|---------------|---------------------|-----------|
|---------------------------|-10--10-10--10-|---------------------|-5--7-8--8-|
|--------------------2------|---------------|-2-4S5-2--2----------|-----------|
|-0-0-0-0-0-0-0-0-0--0----0-|--8---8--8---8-|-0-2S3-0--0--------0-|-3--5-6--6-|
|
| PM--------------|       PM          ~~~~~~                    PM       ~~~~~
| |-3-| |-3-| |-3-|                                      |-3--|
| S S S S S S S S S  E  E E    Q   E  Q   E   Q     E  E S  S S E   Q  E Q  E
|---------------------------|---------------|---------------------|-----------|
|---------------------------|---------------|---------------------|-----------|
|-------------------12-11---|---------------|---------------------|-----------|
|---------------------------|-10---9--7---7-|---------------------|-5--7-8--8-|
|-------------------10--9---|---------------|-2-----7-10-9h10p9---|-----------|
|-0-0-0-0-0-0-0-0-0-------7-|--8---7--5---5-|-0-----------------7-|-3--5-6--6-|


 Outro
  Q.=88
  E5
  Gtrs I, II
    PM--------------|         ~~~~~~
  E S S S S E S S S S   E S E E +S  S S S S
|---------------------|---------------------|
|---------------------|---------------------|
|---------------------|---------------------|
|---------------------|---------------------|
|-2-------------------|---------------------|
|-0-0-0-0-0-0-0-0-0-0-|-6-6-3-5-(5)-0-2h3p2-|


  E5
    PM--------------|         ~~~~~~
  E S S S S E S S S S   E S E E +S  S S S S
|---------------------|---------------------|
|---------------------|---------------------|
|---------------------|---------------------|
|---------------------|---------------------|
|-2-------------------|-------5-(5)---------|
|-0-0-0-0-0-0-0-0-0-0-|-6-6-3-------0-6-5-3-|


      PM    PM    PM~~       PM    PM    PM~~
  S S S S S S S S S E.   S S S S S S S S S E.
|----------------------|----------------------|
|----------------------|----------------------|
|----------------------|----------------------|
|-------------7h9------|-------------7h9------|
|-5h7---7h8---------8\-|-5h7---7h8---------8\-|
|-----0-----0-----0----|-----0-----0-----0----|


      PM    PM    PM~~       PM    PM    PM~~
  S S S S S S S S S E.   S S S S S S S S S E.
|----------------------|-----------------------|
|----------------------|-----------------------|
|----------------------|-----------------------|
|-------------7h9------|-------------7h9-------|
|-5h7---7h8---------8\-|-5h7---7h8---------8\--|
|-----0-----0-----0----|-----0-----0-----0-----|


      PM    PM    PM~~       PM    PM    PM~~
  S S S S S S S S S E.   S S S S S S S S S E.
|----------------------|----------------------|
|----------------------|----------------------|
|----------------------|----------------------|
|-------------7h9------|-------------7h9------|
|-5h7---7h8---------8\-|-5h7---7h8---------8\-|
|-----0-----0-----0----|-----0-----0-----0----|


                                           F5   E5
      PM    PM    PM~~       PM    PM    PM|
  S S S S S S S S S E.   S S S S S S S S S E.   E H    E
|----------------------|----------------------|----------*|
|----------------------|----------------------|----------*|
|----------------------|----------------------|----------*|
|-------------7h9------|-------------7h9---3--|-2--------*|
|-5h7---7h8---------8\-|-5h7---7h8---------3--|-2--------*|
|-----0-----0-----0----|-----0-----0-----0-1--|-0--------*|



Duration Legend
---------------
W - whole; H - half; Q - quarter; E - 8th; S - 16th; T - 32nd; X - 64th; a - acciaccatura
+ - note tied to previous; . - note dotted; .. - note double dotted
Uncapitalized letters represent notes that are staccato (1/2 duration)
Irregular groupings are notated above the duration line
Duration letters will always appear directly above the note/fret number it represents the
duration for.  Duration letters with no fret number below them represent rests.  Multi-
bar rests are notated in the form Wxn, where n is the number of bars to rest for.  Low
melody durations appear below the staff

Tablature Legend
----------------
 h   - hammer-on
 p   - pull-off
 b   - bend
 pb  - pre-bend
 r   - bend release (if no number after the r, then release immediately)
 /\  - slide into or out of (from/to "nowhere")
 s   - legato slide
 S   - shift slide
 - natural harmonic
[n]  - artificial harmonic
n(n) - tapped harmonic
 ~   - vibrato
 tr  - trill
 T   - tap
 TP  - trem. picking
 PM  - palm muting
\n/  - tremolo bar dip; n = amount to dip
 \n  - tremolo bar down
 n/  - tremolo bar up
/n\  - tremolo bar inverted dip
 =   - hold bend; also acts as connecting device for hammers/pulls
 <> - volume swell (louder/softer)
 x   - on rhythm slash represents muted slash
 o   - on rhythm slash represents single note slash

Misc Legend
-----------
 |  - bar
||  - double bar
||o - repeat start
o|| - repeat end
*|  - double bar (ending)
 :  - bar (freetime)
 $  - Segno
 &  - Coda
Tempo markers -  = BPM(8/16=s8/s16), where s8 = swing 8ths, s16 = swing 16ths

comments
We did not receive enough feedback on this tab! Please rate:
1 2 3 4 5
I want to post or [tab]
guest
You may want to rate the tab now too:
select rating
Please do not post tabs as comments. Select "correction" instead!