Oops, an error
Loading. Please wait.

Sacrifice Tab

ver1
ver1

Whole song

Interactive

More versions @911Tabs.com
778 views 1 this week
no commentswrite comment
1 2 3 4 5
please rate
add to favorites launch autoscroll
font size
0
reset
Autoscroll
+/-
esc
set tempo
stop
Contributor
WARNING: You are trying to view
                                    content from Ultimate-Guitar.com
                                    in an unauthorized application,
                                    which is prohibited.

                                    Please use an official Ultimate
                                    Guitar Tabs application for iPhone,
                                    iPad or Android to access legitimate
                                    chords, guitar, bass, and drum tabs
                                    from Ultimate-Guitar.com database.

                                    Type "ultimate guitar tabs" in Apple
                                    App Store's or Android Market's
                                    search to find the application.
Title: Sacrifice
Artist: Atom Smash
Album: Love The Missile
Words: Atom Smash
Music: Atom Smash
Tabber: Sangbraten
Tempo = 175


Legend
L - tied note
x - dead note
h - hammer on/pull off
b - bend
s - slide
~ - vibrato
g - ghost note
> - accentuated note
t - trill
M - palm mute
. - staccato
P - popping (bass)
S - slapping (bass)
+ - tapping
W - wide vibrato
< - fade in
w - whammy bar
= - tremolo picking
v - brush up
^ - brush down
V - pick stroke up
n - pick stroke down

INTRO
C#|----|----------------------------|----------------------------|
G#|----|----------------------------|----------------------------|
E |----|----------------------------|----------------------------|
B |----|----------------------------|----------------------------|
F#|----|--------------------3--0----|----------------------------|
B |----|--3--0M-0M-3--0M-0M---------|--5M-3M-0M----0-----0M-0M---|


----------------------------|----------------------------|
----------------------------|----------------------------|
----------------------------|----------------------------|
----------------------------|----------------------------|
--3M-0M---------------------|----------------------------|
--------6M-5M-3M-5M-3M------|--0M-3M-5M----6M-5M-3M------|


----------------------------|----------------------------|
----------------------------|----------------------------|
----------------------------|----------------------------|
----------------------------|----------------------------|
--------------------3--0----|----------------------------|
--3--0M-0M-3--0M-0M---------|--5M-3M-0M----0-----0M-0M---|


----------------------------|----------------------------|
----------------------------|----------------------------|
----------------------------|----------------------------|
----------------------------|----------------------------|
--3M-0M---------------------|----------------------------|
--------6M-5M-3M-5M-3M------|--0M-3M-5M----6M-5M-3M------|

VERSE
----------------------------|----------------------------|
----------------------------|----------------------------|
----------------------------|----------------------------|
----------------------------|----------------------------|
----------------------------|----------------------------|
--3--0--x--3--0--x--3--0----|--3--5--x-----12s------0----|


----------------------------|----------------------------|
----------------------------|----------------------------|
----------------------------|----------------------------|
----------------------------|----------------------------|
----------------------------|----------------------------|
--3--0--x--3--0--x--3--0----|--3--5--x-----15s------0----|


----------------------------|----------------------------|----------|
----------------------------|----------------------------|----------|
----------------------------|----------------------------|--7.-7L---|
----------------------------|----------------------------|--5.-5L---|
----------------------------|----------------------------|--5.-5L---|
--3--0--x--3--0--x--3--0----|--3--5--x-----12s------0----|--5.-5L---|


----------------------------|----------------------------|
----------------------------|----------------------------|
--7-----5.-------5----------|----------------------------|
--5-----3.-------3----------|----------------------------|
--5-----3.-------3----------|----------------------------|
--5-----3.-------3----------|--3--0--x--3--0--x--3--0----|


----------------------------|----------------------------|
----------------------------|----------------------------|
----------------------------|----------------------------|
----------------------------|----------------------------|
----------------------------|----------------------------|
--3--5--x-----12s------0----|--3--0--x--3--0--x--3--0----|


----------------------------|----------------------------|
----------------------------|----------------------------|
----------------------------|----------------------------|
----------------------------|----------------------------|
----------------------------|----------------------------|
--3--5--x-----15s------0----|--3--0--x--3--0--x--3--0----|


----------------------------|----------|----------------------------|
----------------------------|----------|----------------------------|
----------------------------|--7.-7L---|--7-----5.-------5----------|
----------------------------|--5.-5L---|--5-----3.-------3----------|
----------------------------|--5.-5L---|--5-----3.-------3----------|
--3--5--x-----12s------0----|--5.-5L---|--5-----3.-------3----------|

PRE-CHORUS
----------------|----------------|----------------|----------------|
----------------|----------------|----------------|----------------|
--10-10-10-10---|--10-10-10-10---|--7--7--7--7----|--7--7--7--7----|
--8--8--8--8----|--8--8--8--8----|--5--5--5--5----|--5--5--5--5----|
--8--8--8--8----|--8--8--8--8----|--5--5--5--5----|--5--5--5--5----|
--8--8--8--8----|--8--8--8--8----|--5--5--5--5----|--5--5--5--5----|


----------------|----------------|----------------------------|
----------------|----------------|----------------------------|
--5--5--5--5----|--5--5--5--5----|--7-----7.------------------|
--3--3--3--3----|--3--3--3--3----|--5-----5.----------x--x----|
--3--3--3--3----|--3--3--3--3----|--5-----5.----------x--x----|
--3--3--3--3----|--3--3--3--3----|--5-----5.----------x--x----|

CHORUS
----------------------------||---------------|----------------|----------------|
----------------------------||---------------|----------------|----------------|
--10----10.-----------------||o2--2--2--2----|--2--2--2--2----|--10-10-10-10---|
--8-----8.----------x--x----||o0--0--0--0----|--0--0--0--0----|--8--8--8--8----|
--8-----8.----------x--x----||-0--0--0--0----|--0--0--0--0----|--8--8--8--8----|
--8-----8.----------x--x----||-0--0--0--0----|--0--0--0--0----|--8--8--8--8----|


----------------|----------------|----------------|----------------------------|
----------------|----------------|----------------|----------------------------|
--10-10-10-10---|--7--7--7--7----|--7--7--7--7----|--5-----5.------------------|
--8--8--8--8----|--5--5--5--5----|--5--5--5--5----|--3-----3.----------x--x----|
--8--8--8--8----|--5--5--5--5----|--5--5--5--5----|--3-----3.----------x--x----|
--8--8--8--8----|--5--5--5--5----|--5--5--5--5----|--3-----3.----------x--x----|

BRIDGE
---------------------------||----------------------------|
---------------------------||----------------------------|
--7-----7.----------------o||----------------------------|
--5-----5.----------x--x--o||----------------------------|
--5-----5.----------x--x---||--------------------3--0----|
--5-----5.----------x--x---||--3--0M-0M-3--0M-0M---------|


----------------------------|----------------------------|
----------------------------|----------------------------|
----------------------------|----------------------------|
----------------------------|----------------------------|
----------------------------|--3M-0M---------------------|
--5M-3M-0M----0-----0M-0M---|--------6M-5M-3M-5M-3M------|

VERSE
----------------------------|----------------------------|
----------------------------|----------------------------|
----------------------------|----------------------------|
----------------------------|----------------------------|
----------------------------|----------------------------|
--0M-3M-5M----6M-5M-3M------|--3--0--x--3--0--x--3--0----|


----------------------------|----------------------------|
----------------------------|----------------------------|
----------------------------|----------------------------|
----------------------------|----------------------------|
----------------------------|----------------------------|
--3--5--x-----12s------0----|--3--0--x--3--0--x--3--0----|


----------------------------|----------------------------|
----------------------------|----------------------------|
----------------------------|----------------------------|
----------------------------|----------------------------|
----------------------------|----------------------------|
--3--5--x-----15s------0----|--3--0--x--3--0--x--3--0----|


----------------------------|----------|----------------------------|
----------------------------|----------|----------------------------|
----------------------------|--7.-7L---|--7-----5.-------5----------|
----------------------------|--5.-5L---|--5-----3.-------3----------|
----------------------------|--5.-5L---|--5-----3.-------3----------|
--3--5--x-----12s------0----|--5.-5L---|--5-----3.-------3----------|


----------------------------|----------------------------|
----------------------------|----------------------------|
----------------------------|----------------------------|
----------------------------|----------------------------|
----------------------------|----------------------------|
--3--0--x--3--0--x--3--0----|--3--5--x-----12s------0----|


----------------------------|----------------------------|
----------------------------|----------------------------|
----------------------------|----------------------------|
----------------------------|----------------------------|
----------------------------|----------------------------|
--3--0--x--3--0--x--3--0----|--3--5--x-----15s------0----|


----------------------------|----------------------------|----------|
----------------------------|----------------------------|----------|
----------------------------|----------------------------|--7.-7L---|
----------------------------|----------------------------|--5.-5L---|
----------------------------|----------------------------|--5.-5L---|
--3--0--x--3--0--x--3--0----|--3--5--x-----12s------0----|--5.-5L---|

PRE-CHORUS
----------------------------|----------------|----------------|----------------|
----------------------------|----------------|----------------|----------------|
--7-----5.-------5----------|--10-10-10-10---|--10-10-10-10---|--7--7--7--7----|
--5-----3.-------3----------|--8--8--8--8----|--8--8--8--8----|--5--5--5--5----|
--5-----3.-------3----------|--8--8--8--8----|--8--8--8--8----|--5--5--5--5----|
--5-----3.-------3----------|--8--8--8--8----|--8--8--8--8----|--5--5--5--5----|


----------------|----------------|----------------|----------------------------|
----------------|----------------|----------------|----------------------------|
--7--7--7--7----|--5--5--5--5----|--5--5--5--5----|--7-----7.------------------|
--5--5--5--5----|--3--3--3--3----|--3--3--3--3----|--5-----5.----------x--x----|
--5--5--5--5----|--3--3--3--3----|--3--3--3--3----|--5-----5.----------x--x----|
--5--5--5--5----|--3--3--3--3----|--3--3--3--3----|--5-----5.----------x--x----|

CHORUS
----------------------------||---------------|----------------|----------------|
----------------------------||---------------|----------------|----------------|
--10----10.-----------------||o2--2--2--2----|--2--2--2--2----|--10-10-10-10---|
--8-----8.----------x--x----||o0--0--0--0----|--0--0--0--0----|--8--8--8--8----|
--8-----8.----------x--x----||-0--0--0--0----|--0--0--0--0----|--8--8--8--8----|
--8-----8.----------x--x----||-0--0--0--0----|--0--0--0--0----|--8--8--8--8----|


----------------|----------------|----------------|----------------------------|
----------------|----------------|----------------|----------------------------|
--10-10-10-10---|--7--7--7--7----|--7--7--7--7----|--5-----5.------------------|
--8--8--8--8----|--5--5--5--5----|--5--5--5--5----|--3-----3.----------x--x----|
--8--8--8--8----|--5--5--5--5----|--5--5--5--5----|--3-----3.----------x--x----|
--8--8--8--8----|--5--5--5--5----|--5--5--5--5----|--3-----3.----------x--x----|


---------------------------|||
---------------------------|||
--7-----7.----------------o|||
--5-----5.----------x--x--o|||
--5-----5.----------x--x---|||
--5-----5.----------x--x---|||
comments
We did not receive enough feedback on this tab! Please rate:
print report bad tab
1 2 3 4 5
I want to post or [tab]
guest
You may want to rate the tab now too:
select rating
Please do not post tabs as comments. Select "correction" instead!