Oops, an error
Loading. Please wait.

Time For People Tab

ver2
ver2

Whole song

More versions @911Tabs.com
446 views 1 this week
no commentswrite comment
1 2 3 4 5
excellent!
x 2
Autoscroll
+/-
esc
set tempo
stop
Contributor
Tuning
D A D G B E
Hey! There's an official Ultimate Guitar app which is ideal
for learning songs when you're away from computer. Get the app
WARNING: You are trying to view
                                    content from Ultimate-Guitar.com
                                    in an unauthorized application,
                                    which is prohibited.

                                    Please use an official Ultimate
                                    Guitar Tabs application for iPhone,
                                    iPad or Android to access legitimate
                                    chords, guitar, bass, and drum tabs
                                    from Ultimate-Guitar.com database.

                                    Type "ultimate guitar tabs" in Apple
                                    App Store's or Android Market's
                                    search to find the application.
-------------------------------------------------------------------------------
                             Time for People - Atomship
-------------------------------------------------------------------------------
Tabbed by: Atomshipped
Email: nitsua@comcast.net

Tuning: Drop D (DADGBe)

Feel free to email me with any questions or feedback.

Intro
(Clean, Acoustic)
e|-1-1---1---1-1-1---1-1-1-1--5-5--5-5-------------------------------------|
B|-3-3---3---3-3-3---3-3-3-3--7-7--7-7-------------------------------------|
G|-3-3---3---3-3-3---3-3-3-3--7-7--7-7-------------------------------------|
D|-3-3-3-3-3-3-3-3-3-3-3-3-3--7-7--7-7-------------------------------------|
A|-1-1-1-1-1-1-1-1-1-1-1-1-1--5-5--5-5-------------------------------------|
D|-------------------------------------------------------------------------|
(Distorted)
e|-------------------------------------------------------------------------|
B|--------------------3----------------------------------------------------|
G|--------------------2-------------------2--------------------------------|
D|---0-2-0----0-2-0-------0-2-0---0-2-0------------------------------------|
A|--0--------0------0----0-------0------0----------------------------------|
D|-0--0-----0--0---0----0--0----0--0---0-----------------------------------|
PM ....     ....   ..   ....     ....   ..

Verse 1
(Distorted)
Rhythm
e|-------------------------------------------------------------------------|
B|-------------------------------------------------------------------------|
G|-------------------------------------------------------------------------|
D|-88888888888888888888888888----------------------------------------------|
A|-88888888888888888888888888----------------------------------------------|
D|-88888888888888888888888888----------------------------------------------|

Lead
e|-------------------------------------------------------------------------|
B|--------------------------------10-10-10-10-11-11-11-11-11-11-11---------|
G|-10-10-10-10-10-10-9-10-10-10-9---------------------------------9-9--9-9-|
D|-------------------------------------------------------------------------|
A|-------------------------------------------------------------------------|
D|-------------------------------------------------------------------------|

e|-------------------------------------------------------------------------|
B|--------------------3----------------------------------------------------|
G|--------------------2-------------------2--------------------------------|
D|---0-2-0----0-2-0-------0-2-0---0-2-0------------------------------------|
A|--0--------0------0----0-------0------0----------------------------------|
D|-0--0-----0--0---0----0--0----0--0---0-----------------------------------|
PM ....     ....   ..   ....     ....   ..

Rhythm
e|-------------------------------------------------------------------------|
B|-------------------------------------------------------------------------|
G|-------------------------------------------------------------------------|
D|-88888888888888888888888888----------------------------------------------|
A|-88888888888888888888888888----------------------------------------------|
D|-88888888888888888888888888----------------------------------------------|

Lead
e|-------------------------------------------------------------------------|
B|--------------------------------10-10-10-10-11-11-11-11-11-11-11---------|
G|-10-10-10-10-10-10-9-10-10-10-9---------------------------------9-9--9-9-|
D|-------------------------------------------------------------------------|
A|-------------------------------------------------------------------------|
D|-------------------------------------------------------------------------|

e|-------------------------------------------------------------------------|
B|--------------------3----------------------------------------------------|
G|--------------------2-------------------2--------------------------------|
D|---0-2-0----0-2-0-------0-2-0---0-2-0------------------------------------|
A|--0--------0------0----0-------0------0----------------------------------|
D|-0--0-----0--0---0----0--0----0--0---0-----------------------------------|
PM ....     ....   ..   ....     ....   ..

Chorus
(Distorted)
e|-------------------------------------------------------------------------|
B|-------------------------------------------------------------------------|
G|--------------------------------------9----------------------------------|
D|-55555555555588888888885555555555558-------------------------------------|
A|-55555555555588888888885555555555558-------------------------------------|
D|-55555555555588888888885555555555558-------------------------------------|

Verse 2
(Distorted)
e|-------------------------------------------------------------------------|
B|-------------------------------------------------------------------------|
G|--------------------2----------------------------------------------------|
D|---0-2-0----0-2-0--------------------------------------------------------|
A|--0--------0------0------------------------------------------------------|
D|-0--0-----0--0---0-------------------------------------------------------|
PM ....     ....   ..   

Rhythm
e|-------------------------------------------------------------------------|
B|-------------------------------------------------------------------------|
G|-------------------------------------------------------------------------|
D|-88888888888888888888888888----------------------------------------------|
A|-88888888888888888888888888----------------------------------------------|
D|-88888888888888888888888888----------------------------------------------|

Lead
e|-------------------------------------------------------------------------|
B|--------------------------------10-10-10-10-11-11-11-11-11-11-11---------|
G|-10-10-10-10-10-10-9-10-10-10-9---------------------------------9-9--9-9-|
D|-------------------------------------------------------------------------|
A|-------------------------------------------------------------------------|
D|-------------------------------------------------------------------------|

e|-------------------------------------------------------------------------|
B|--------------------3----------------------------------------------------|
G|--------------------2-------------------2--------------------------------|
D|---0-2-0----0-2-0-------0-2-0---0-2-0------------------------------------|
A|--0--------0------0----0-------0------0----------------------------------|
D|-0--0-----0--0---0----0--0----0--0---0-----------------------------------|
PM ....     ....   ..   ....     ....   ..

Rhythm
e|-------------------------------------------------------------------------|
B|-------------------------------------------------------------------------|
G|-------------------------------------------------------------------------|
D|-88888888888888888888888888----------------------------------------------|
A|-88888888888888888888888888----------------------------------------------|
D|-88888888888888888888888888----------------------------------------------|

Lead
e|-------------------------------------------------------------------------|
B|--------------------------------10-10-10-10-11-11-11-11-11-11-11---------|
G|-10-10-10-10-10-10-9-10-10-10-9---------------------------------9-9--9-9-|
D|-------------------------------------------------------------------------|
A|-------------------------------------------------------------------------|
D|-------------------------------------------------------------------------|

e|-------------------------------------------------------------------------|
B|--------------------3----------------------------------------------------|
G|--------------------2-------------------2--------------------------------|
D|---0-2-0----0-2-0-------0-2-0---0-2-0------------------------------------|
A|--0--------0------0----0-------0------0----------------------------------|
D|-0--0-----0--0---0----0--0----0--0---0-----------------------------------|
PM ....     ....   ..   ....     ....   ..

Chorus
(Distorted)
e|-------------------------------------------------------------------------|
B|-------------------------------------------------------------------------|
G|-------------------------------------------------------------------------|
D|-55555555555588888888885555555555558888888888----------------------------|
A|-55555555555588888888885555555555558888888888----------------------------|
D|-55555555555588888888885555555555558888888888----------------------------|

e|-------------------------------------------------------------------------|
B|-------------------------------------------------------------------------|
G|-------------------------------------------------------------------------|
D|-55555555555588888888885555555555558-------------------------------------|
A|-55555555555588888888885555555555558-------------------------------------|
D|-55555555555588888888885555555555558-------------------------------------|

Bridge
(Clean)
e|-------------------------------------------------------------------------|
B|-------------------------------------------------------------------------|
G|-------------------------------------------------------------------------|
D|----0-----0-----0-----0-----0-----0-----0-------0------------------------|
A|-------------------------------------------------------------------------|
D|-5-----7-----8-----7-----5-----7-----8-----7-----------------------------|

e|-------------------------------------------------------------------------|
B|-------------------------------------------------------------------------|
G|-----3---2------2---3------3---2-------2---3-----------------------------|
D|---0---0------0---0------3---3-------0---0-------------------------------|
A|------------0----------1-----------0-------------------------------------|
D|-5-----------------------------------------------------------------------|
Play four times.

Outro
(Distorted)
Rhythm
e|-------------------------------------------------------------------------|
B|-------------------------------------------------------------------------|
G|-------------------------------------------------------------------------|
D|-88888888888888888888888888----------------------------------------------|
A|-88888888888888888888888888----------------------------------------------|
D|-88888888888888888888888888----------------------------------------------|

e|-------------------------------------------------------------------------|
B|--------------------3----------------------------------------------------|
G|--------------------2-------------------2--------------------------------|
D|---0-2-0----0-2-0-------0-2-0---0-2-0------------------------------------|
A|--0--------0------0----0-------0------0----------------------------------|
D|-0--0-----0--0---0----0--0----0--0---0-----------------------------------|
PM ....     ....   ..   ....     ....   ..

Lead
e|-------------------------------------------------------------------------|
B|--------------------------------10-10-10-10-11-11-11-11-11-11-11---------|
G|-10-10-10-10-10-10-9-10-10-10-9---------------------------------9-9--9-9-|
D|-------------------------------------------------------------------------|
A|-------------------------------------------------------------------------|
D|-------------------------------------------------------------------------|

e|-------------------------------------------------------------------------|
B|-------------------------------------------------------------------------|
G|-12b12b12b12b12b12b12b12b12b12b12b12b12b12b12b12b12b12b12b12b12b12b12b12b|
D|-------------------------------------------------------------------------|
A|-------------------------------------------------------------------------|
D|-------------------------------------------------------------------------|

Rhythm
e|-------------------------------------------------------------------------|
B|-------------------------------------------------------------------------|
G|-------------------------------------------------------------------------|
D|-88888888888888888888888888----------------------------------------------|
A|-88888888888888888888888888----------------------------------------------|
D|-88888888888888888888888888----------------------------------------------|

e|-------------------------------------------------------------------------|
B|--------------------3----------------------------------------------------|
G|--------------------2-------------------2--------------------------------|
D|---0-2-0----0-2-0-------0-2-0---0-2-0------------------------------------|
A|--0--------0------0----0-------0------0----------------------------------|
D|-0--0-----0--0---0----0--0----0--0---0-----------------------------------|
PM ....     ....   ..   ....     ....   ..

Lead
e|-------------------------------------------------------------------------|
B|--------------------------------10-10-10-10-11-11-11-11-11-11-11---------|
G|-10-10-10-10-10-10-9-10-10-10-9---------------------------------9-9--9-9-|
D|-------------------------------------------------------------------------|
A|-------------------------------------------------------------------------|
D|-------------------------------------------------------------------------|

e|-------------------------------------------------------------------------|
B|-------------------------------------------------------------------------|
G|-12b12b12b12b12b12b12b12b12b12b12b12b12b12b12b12b12b12b12b12b12b12b12b12b|
D|-------------------------------------------------------------------------|
A|-------------------------------------------------------------------------|
D|-------------------------------------------------------------------------|

Rhythm
e|-------------------------------------------------------------------------|
B|-------------------------------------------------------------------------|
G|-------------------------------------------------------------------------|
D|-88888888888888888888888888----------------------------------------------|
A|-88888888888888888888888888----------------------------------------------|
D|-88888888888888888888888888----------------------------------------------|

e|-------------------------------------------------------------------------|
B|--------------------3----------------------------------------------------|
G|--------------------2-------------------2--------------------------------|
D|---0-2-0----0-2-0-------0-2-0---0-2-0------------------------------------|
A|--0--------0------0----0-------0------0----------------------------------|
D|-0--0-----0--0---0----0--0----0--0---0-----------------------------------|
PM ....     ....   ..   ....     ....   ..

Lead
e|-------------------------------------------------------------------------|
B|--------------------------------10-10-10-10-11-11-11-11-11-11-11---------|
G|-10-10-10-10-10-10-9-10-10-10-9---------------------------------9-9--9-9-|
D|-------------------------------------------------------------------------|
A|-------------------------------------------------------------------------|
D|-------------------------------------------------------------------------|

e|-------------------------------------------------------------------------|
B|-------------------------------------------------------------------------|
G|-12b12b12b12b12b12b12b12b12b12b12b12b12b12b12b12b12b12b12b12b12b12b12b12b|
D|-------------------------------------------------------------------------|
A|-------------------------------------------------------------------------|
D|-------------------------------------------------------------------------|

Rhythm
e|-------------------------------------------------------------------------|
B|-------------------------------------------------------------------------|
G|-------------------------------------------------------------------------|
D|-88888888888888888888888888----------------------------------------------|
A|-88888888888888888888888888----------------------------------------------|
D|-88888888888888888888888888----------------------------------------------|

Lead
e|-------------------------------------------------------------------------|
B|-13--------------------------13------------------------------------------|
G|----12-12-12-12-10-12-12-12-----12-12-12-12-10-12-12-12 yada yada yada---|
D|-------------------------------------------------------------------------|
A|-------------------------------------------------------------------------|
D|-------------------------------------------------------------------------|

Enjoy!
comments
We did not receive enough feedback on this tab! Please rate:
print report bad tab
1 2 3 4 5
I want to post or [tab]
guest
You may want to rate the tab now too:
select rating
Please do not post tabs as comments. Select "correction" instead!