Oops, an error
Loading. Please wait.

Its A Long Way Down From Here Baby Tab

94 views 1 this week
no commentswrite comment
1 2 3 4 5
please rate
Autoscroll
+/-
esc
set tempo
stop
Difficulty
novice
NEW! There's an official Ultimate Guitar app which is ideal
for learning songs when you're away from computer. Get the app
WARNING: You are trying to view
                                    content from Ultimate-Guitar.com
                                    in an unauthorized application,
                                    which is prohibited.

                                    Please use an official Ultimate
                                    Guitar Tabs application for iPhone,
                                    iPad or Android to access legitimate
                                    chords, guitar, bass, and drum tabs
                                    from Ultimate-Guitar.com database.

                                    Type "ultimate guitar tabs" in Apple
                                    App Store's or Android Market's
                                    search to find the application.
ATRAGEDYINPROGRESS 

TRACK: ITS A LONG WAY DOWN FROM HERE BABY
ALBUM:"Only The Dead Have Seen The End Of War -Plato" Ep

TUNING: STANDARD
NOTES: some parts may not sound right,
listen to the song very carefully to get the strumming patterns.

Contact me at atragedyinprogress@hotmail.com or visit myspace.com/atragedyinprogress.


R = rest/stop
~ = Let note/schord ring
Pm = Palm Mute
 
E||----------------------|-------|
B||----------------------|-------|
G||--5-R--5-R--5-R--5-R--|--4~---|
D||--5-R--5-R--5-R--5-R--|--2~---| X2
A||--3-R--3-R--3-R--3-R--|--2~---|  
E||----------------------|-------|



----------------------|----------------------|
----------------------|----------------------|
--5-R--5-R--5-R--5-R--|--4----4----4----4----|
--5-R--5-R--5-R--5-R--|--2----2----2----2----| 
--3-R--3-R--3-R--3-R--|--2----2----2----2----|
----------------------|----------------------|


----------------------|----------------------|--------------------|
----------------------|----------------------|--------------------|
--4----4----4----4----|--4----4----4----4----|--4----4----4----4--|
--2----2----2----2----|--2----2----2----2----|--2----2----2----2--| X2
--2----2----2----2----|--2----2----2----2----|--2----2----2----2--|
----------------------|----------------------|--------------------|


----------------------|----------------------|----------------------|
----------------------|----------------------|----------------------|
--5----5----5----5----|--5----5----5----5----|--5----5----5----5----|
--5----5----5----5----|--5----5----5----5----|--5----5----5----5----|
--3----3----3----3----|--3----3----3----3----|--3----3----3----3----|
----------------------|----------------------|----------------------|
 
----------------------|----------------------|----------------------|
----------------------|----------------------|----------------------|
--5----5----5----5----|--4----4----4----4----|--4----4----4----4----|
--5----5----5----5----|--2----2----2----2----|--2----2----2----2----|
--3----3----3----3----|--2----2----2----2----|--2----2----2----2----|
----------------------|----------------------|----------------------|

  
----------------------|----------------------|
----------------------|----------------------|
--4----4----4----4----|--4----4----4----4-R--|
--2----2----2----2----|--2----2----2----2-R--|
--2----2----2----2----|--2----2----2----2-R--|
----------------------|----------------------|          



----------------------|----------------------|----------------------|
----------------------|----------------------|----------------------|
----------------------|----------------------|----------------------|
------------5---------|------------5---------|------------5---------|
-------3---------3----|-------3---------3----|-------3---------3----|
--0-------------------|--0-------------------|--0-------------------|



----------------------|
----------------------|
------------5---------|
-------3---------3----|
--0-------------------|

----------------------|----------------------|----------------------|
----------------------|----------------------|----------------------|
----------------------|----------------------|----------------------|
------------4---------|------------4---------|------------4---------|
-------2---------2----|-------2---------2----|-------2---------2----|
--0-------------------|--0-------------------|--0-------------------|
  
----------------------|
----------------------|
----------------------|
------------4---------| X3
-------2---------2----|
--0-------------------|

E||----------------------|----------------------|----------------------|
B||----------------------|----------------------|----------------------|
G||----------------------|----------------------|----------------------|
D||------------5---------|------------5---------|------------5---------|
A||-------3---------3----|-------3---------3----|-------3---------3----|
E||--0-------------------|--0-------------------|--0-------------------|

    
----------------------|----------------------|-----------------||
----------------------|----------------------|-----------------||
----------------------|----------------------|-----------------||
------------7---------|-------4--------------|-------4----2~---||
-------5--------------|--2---------2---------|--2--------------||
--0--------------0----|-----------------0----|-----------------||


-----PRE CORUS-----

E||----------------------|-----------------|----------------------|
B||----------------------|-----------------|----------------------|
G||----------------------|-----------------|----------------------|
D||--5----5----5----5----|--5----5----5----|--5----5----5----5----|
A||--3----3----3----3----|--3----3----3----|--3----3----3----3----|
E||--3----3----3----3----|--3----3----3----|--3----3----3----3----|
     PM   PM   PM   PM           PM   PM      PM   PM   PM   PM 
 
-----------------|----------------------|-----------------|
-----------------|----------------------|-----------------|
-----------------|----------------------|-----------------|
--5----5-R--7-R--|--2----2----2----2----|--2----2---------|
--3----3-R--5-R--|--2----2----2----2----|--2----2----3----|
--3----3-R--5-R--|--0----0----0----0----|--0----0----3----|
                    PM   PM   PM   PM           PM   PM
----------------------|------------||
----------------------|------------||
----------------------|------------||
--2----2----2----2----|--2----2----|| X4
--2----2----2----2----|--2----2----||
--0----0----0----0----|--0----0----||
  PM   PM   PM   PM           PM


----CORUS----


E||----------------------|----------------------|----------------------|
B||----------------------|----------------------|----------------------|
G||--5----5----5----5----|--5----5----5----5----|--5----5----5----5----|
D||--5----5----5----5----|--5----5----5----5----|--5----5----5----5----|
A||--3----3----3----3----|--3----3----3----3----|--3----3----3----3----|
E||----------------------|----------------------|----------------------|
  
----------------------|----------------------|----------------------||
----------------------|----------------------|----------------------||
--5----5----5----5----|--4-R--4-R--4-R--4~---|--4-R--4-R--4-R--4~---||
--5----5----5----5----|--2-R--2-R--2-R--2~---|--2-R--2-R--2-R--2~---||
--3----3----3----3----|--2-R--2-R--2-R--2~---|--2-R--2-R--2-R--2~---|| X4
----------------------|----------------------|----------------------||


---VERSE---

E||----------------------|----------------------|----------------------|
B||----------------------|----------------------|----------------------|
G||--5~---4~---5~---4~---|--5----5----5----5----|--5----5----5----5----|
D||--5~---2~---3~---2~---|--3----3----3----3----|--3----3----3----3----|
A||--3~---2~---3~---2~---|--3----3----3----3----|--3----3----3----3----|
E||----------------------|----------------------|----------------------|
                                                   PM   PM   PM   PM
 
----------------------|----------------------|----------------------|
----------------------|----------------------|----------------------|
--5----5----5----5----|--5----5----5----5----|--4----4----4----4----|
--3----3----3----3----|--3----3----3----3----|--2----2----2----2----|
--3----3----3----3----|--3----3----3----3----|--2----2----2----2----|
----------------------|----------------------|----------------------|
                        PM    PM   PM   PM
 
----------------------|----------------------|----------------------|
----------------------|----------------------|----------------------|
--4----4----4----4----|--4----4----4----4----|--4----4----4----4----|
--2----2----2----2----|--2----2----2----2----|--2----2----2----2----| X3
--2----2----2----2----|--2----2----2----2----|--2----2----2----2----|
----------------------|----------------------|----------------------|
  PM   PM  PM   PM                              PM   PM   PM   PM

|----------------------|----------------------|
|----------------------|----------------------|
|--5----5----5----5----|--5----5----5----5----|
|--3----3----3----3----|--3----3----3----3----|
|--3----3----3----3----|--3----3----3----3----|
|----------------------|----------------------|
                          PM   PM   PM   PM
 
----------------------|----------------------|----------------------|
----------------------|----------------------|----------------------|
--5----5----5----5----|--5----5----5----5----|--4----4----4----4----|
--3----3----3----3----|--3----3----3----3----|--2----2----2----2----|
--3----3----3----3----|--3----3----3----3----|--2----2----2----2----|
----------------------|----------------------|----------------------|
                        PM    PM   PM   PM
 
----------------------|--------------------------------|
----------------------|--------------------------------|
--4----4----4----4----|--4----4----4----4----4-R--4-R--|
--2----2----2----2----|--2----2----2----2----2-R--4-R--|
--2----2----2----2----|--2----2----2----2----2-R--2-R--|
----------------------|--------------------------------|
  PM   PM  PM   PM                              


----CORUS-----


E||----------------------|----------------------|----------------------|
B||----------------------|----------------------|----------------------|
G||--4-R--4-R--4-R--4~---|--4-R--4-R--4-R--4~---|--4-R--4-R--4-R--4~---|
D||--2-R--2-R--2-R--2~---|--2-R--2-R--2-R--2~---|--2-R--2-R--2-R--2~---|
A||--2-R--2-R--2-R--2~---|--2-R--2-R--2-R--2~---|--2-R--2-R--2-R--2~---|
E||----------------------|----------------------|----------------------|
        
----------------------|
----------------------|
--4-R--4-R--4-R--4~---|
--2-R--2-R--2-R--2~---|
--2-R--2-R--2-R--2~---|
----------------------|




----OUTRO----

|-------|       
|-------|
|-------|
|--4~---| X3 
|--2~---| >REST AFTER 3RD STRUM
|--2~---|


E||----------------------|----------------------|----------------------|
B||----------------------|----------------------|----------------------|
G||----------------------|----------------------|----------------------|
D||--2----2----2----2----|--4----4----4----4----|--7----7----7----7----|
A||--2----2----2----2----|--2----2----2----2----|--5----5----5----5----|
E||--0----0----0----0----|--2----2----2----2----|--5----5----5----5----|

 
-----------------|------------|----------------------|----------------------|
-----------------|------------|----------------------|----------------------|
-----------------|------------|----------------------|----------------------|
--5----5----5----|--5-R--5-R--|--2----2----2----2----|--4----4----4----4----|
--3----3----3----|--3-R--3-R--|--2----2----2----2----|--2----2----2----2----|
--3----3----3----|--3-R--3-R--|--0----0----0----0----|--2----2----2----2----|


----------------------|-----------------|------------||
----------------------|-----------------|------------||
----------------------|-----------------|------------||
--7----7----7----7----|--5----5----5----|--9-R--9-R--||
--5----5----5----5----|--3----3----3----|--7-R--7-R--|| X4
--5----5----5----5----|--3----3----3----|--7-R--7-R--||


E||----------------------|----------------------|----------------------|
B||----------------------|----------------------|----------------------|
G||----------------------|----------------------|----------------------|
D||--2----2----2----2----|--4----4----4----4----|--7----7----7----7----|
A||--2----2----2----2----|--2----2----2----2----|--5----5----5----5----|
E||--0----0----0----0----|--2----2----2----2----|--5----5----5----5----|

 
-----------------|--------------|----------------------|----------------------|
-----------------|--------------|----------------------|----------------------|
-----------------|--------------|----------------------|----------------------|
--5----5----5----|--5--5--5--5--|--2----2----2----2----|--4----4----4----4----|
--3----3----3----|--3--3--3--3--|--2----2----2----2----|--2----2----2----2----|
--3----3----3----|--3--3--3--3--|--0----0----0----0----|--2----2----2----2----|


----------------------|-----------------|-------------||
----------------------|-----------------|-------------||
----------------------|-----------------|-------------||
--7----7----7----7----|--5----5----5----|--9--9--9--9-||
--5----5----5----5----|--3----3----3----|--7--7--7--7-|| X2
--5----5----5----5----|--3----3----3----|--7--7--7--7-||


E||-------||
B||-------||
G||-------||
D||--9-R--||
A||--7-R--||
E||--7-R--||






comments
We did not receive enough feedback on this tab! Please rate:
print report bad tab
1 2 3 4 5
I want to post or [tab]
guest
You may want to rate the tab now too:
select rating
Please do not post tabs as comments. Select "correction" instead!