Oops, an error
Loading. Please wait.

Corseting Tab

ver3
ver3

Whole song

More versions @911Tabs.com
4,084 views 3 this week
1 commentread comment
1 2 3 4 5
accurate
x 5
Autoscroll
+/-
esc
set tempo
stop
Contributor
WARNING: You are trying to view
                                    content from Ultimate-Guitar.com
                                    in an unauthorized application,
                                    which is prohibited.

                                    Please use an official Ultimate
                                    Guitar Tabs application for iPhone,
                                    iPad or Android to access legitimate
                                    chords, guitar, bass, and drum tabs
                                    from Ultimate-Guitar.com database.

                                    Type "ultimate guitar tabs" in Apple
                                    App Store's or Android Market's
                                    search to find the application.
CORSETING
As recorded by Atreyu
(From the 2004 Album THE CURSE)
Words and Music by Atreyu
Arranged by Atreyu

Gtr I (C G C F A D) - 'Untitled'
Gtr II (C G C F A D) - 'Untitled'
Gtr III (C G C F A D) - 'Untitled'

 Intro                 Verse
  Fast Rock Q.=178
  D5 F5 G5 A5 Bb5C5     N.C.                              D5
 12/8
  Gtrs I, II
                                                          PM--------|
|-------------------||------------------------|------------------------|
|-------------------||o-----------------------|------------------------|
|-------------------||------------------------|------------------------|
|----------2--3--5--||------------------------|------------------------|
|-0--3--5--0--1--3--||o-------0h3h5-----------|-0h3h5-----0-0-0-0-0-0--|
|-0--3--5-----------||--0h3h5-------0---0h3h5-|-------0---0-0-0-0-0-0--|


  N.C.                              D5
                                    PM--------|
|-----------------------|-----------------------|
|-----------------------|-----------------------|
|-----------------------|-----------------------|
|-----------------------|-----------------------|
|-------0h3h5-----------|-0h3h5-----0-0-0-0-0-0-|
|-0h3h5-------0---0h3h5-|-------0---0-0-0-0-0-0-|


  Eb5
  Gtr I
|-----------------------------|------------------------------|
|-----------------------------|------------------------------|
|-----------------------------|------------------------------|
|--1-----1-1-1--1----1--1--1--|--1--1---1---1----1---1-1--1--|
|--1-----1-1-1--1----1--1--1--|--1--1---1---1----1---1-1--1--|
|--1-----1-1-1--1----1--1--1--|--1--1---1---1----1---1-1--1--|
|
| Gtr II
|-----------------------------|------------------------------|
|-----------------------------|------------------------------|
|-17b19------------(17)p==15--|-14----(14)\----/14--15---17--|
|-----------------------------|------------------------------|
|-----------------------------|------------------------------|
|-----------------------------|------------------------------|


  Bbsus2
|----------------------------------|-------------------------------------|
|----------------------------------|-------------------------------------|
|----------------------------------|-------------------------------------|
|-10--10-10-10----10--10--10---10--|--10--10-10-10----10--10--10---10----|
|--8---8--8--8-----8---8---8----8--|---8---8--8--8-----8---8---8----8----|
|--8---8--8--8-----8---8---8----8--|---8---8--8--8-----8---8---8----8----|
|
|----------------------------------|-------------------------------------|
|----------------------------------|-------------------------------------|
|-17--------15p14-15-----(15)\-----|-/14---------------------------------|
|----------------------------------|------------17p15-17-----(17)\-------|
|----------------------------------|-------------------------------------|
|----------------------------------|-------------------------------------|


  N.C.                              D5
  Gtrs I, II
                                    PM--------|
|-----------------------|-----------------------|
|-----------------------|-----------------------|
|-----------------------|-----------------------|
|-----------------------|-----------------------|
|-------0h3h5-----------|-0h3h5-----0-0-0-0-0-0-|
|-0h3h5-------0---0h3h5-|-------0---0-0-0-0-0-0-|


  N.C.                              D5
                                    PM----|
|-----------------------|----------------------|
|-----------------------|----------------------|
|-----------------------|----------------------|
|-----------------------|----------------------|
|-------0h3h5-----------|-0h3h5-----0--0--0----|
|-0h3h5-------0---0h3h5-|-------0---0--0--0----|


  1.
  Eb5
  Gtr I
|------------------------------|----------------------------------------------|
|------------------------------|----------------------------------------------|
|------------------------------|----------------------------------------------|
|--1-----1--1--1-----1--1-1-1--|--1--------1--1---1-----------1-------1--1-1--|
|--1-----1--1--1-----1--1-1-1--|--1--------1--1---1-----------1-------1--1-1--|
|--1-----1--1--1-----1--1-1-1--|--1--------1--1---1-----------1-------1--1-1--|
|
| Gtr II
|                    ~~                                               ~~~~
|-------15-18-15---------------|----------------------------------------------|
|----15----------15------------|-18b20===(18)---(18)r(18)p16-18b20--(18)------|
|-15----------------15---------|----------------------------------------------|
|------------------------------|----------------------------------------------|
|------------------------------|----------------------------------------------|
|------------------------------|----------------------------------------------|


  Bbsus2
|-----------------------------|----------------------------------------------||
|-----------------------------|----------------------------------------------||
|-----------------------------|----------------------------------------------||
|-10--10-10-10--10--10-10-10--|-10------10-10--10----------10-----10-10-10---||
|--8---8--8--8---8---8--8--8--|--8-------8--8---8-----------8------8--8--8---||
|--8---8--8--8---8---8--8--8--|--8-------8--8---8-----------8------8--8--8---||
|
|                                                           ~~~~~
|-----------------------------|----------------------------------------------||
|-15--16----18--16--15--------|----------------------------------------------||
|-------------------------17--|-17b19=========(17)r(17)p15-17b19-------------||
|-----------------------------|----------------------------------------------||
|-----------------------------|----------------------------------------------||
|-----------------------------|----------------------------------------------||


 Pre-Chorus
  D5    Bb5D5              Bb5D5    N.C.
  Gtrs I, II
  PM--|            PM--|
|------------------------|------------------|
|------------------------|------------------|
|------------------------|------------------|
|-------8--0-(0)---------|-8--0-(0)---------|
|-0-0-0-8--0-(0)---0-0-0-|-8--0-(0)---------|
|-0-0-0-8--0-(0)---0-0-0-|-8--0-(0)---------|


  D5    Bb5D5              Bb5D5    N.C.
  PM--|            PM--|
|------------------------|--------------|
|------------------------|--------------|
|------------------------|--------------|
|-------8--0-(0)---------|-8--0-(0)-----|
|-0-0-0-8--0-(0)---0-0-0-|-8--0-(0)-----|
|-0-0-0-8--0-(0)---0-0-0-|-8--0-(0)-----|


  G5    Bb5G5              Bb5G5    N.C.
  PM--|            PM--|
|------------------------|------------------|
|------------------------|------------------|
|------------------------|------------------|
|-------8--5-(5)---------|-8--5-(5)---------|
|-5-5-5-8--5-(5)---5-5-5-|-8--5-(5)---------|
|-5-5-5-8--5-(5)---5-5-5-|-8--5-(5)---------|


  Bb5   Bbsus2        Bb5     Bbsus2
  PM--|               PM--|
|---------------------------|-----------------|
|---------------------------|-----------------|
|---------------------------|-----------------|
|-------10--10-(10)---------|-10--10-(10)-----|
|-8-8-8--8---8--(8)---8-8-8-|--8---8--(8)-----|
|-8-8-8--8---8--(8)---8-8-8-|--8---8--(8)-----|


  D5    Bb5   D5                    Bb5 D5    N.C.
  Gtr I
  PM--|                   PM---|
|---------------------------------|---------------------------------|
|---------------------------------|---------------------------------|
|---------------------------------|---------------------------------|
|--------8----0-(0)---------------|-8---0-(0)-----------------------|
|-0-0-0--8----0-(0)-------0--0--0-|-8---0-(0)-----------------------|
|-0-0-0--8----0-(0)-------0--0--0-|-8---0-(0)-----------------------|
|
| Gtr II
|---------------------------------|---------------------------------|
|---------------------------------|---------------------------------|
|---------------------------------|---------------------------------|
|---------------------------------|---------------------------------|
|---------------------------------|---------------------------------|
|-0-0-0-15-14-0-17--15-0-14-15-17-|-0-0-0-14--15-0-17-15-0-14-15-17-|


  D5    Bb5   D5         D5         Bb5 D5    N.C.
  PM--|                   PM---|
|---------------------------------|-------------------------------------|
|---------------------------------|-------------------------------------|
|---------------------------------|-------------------------------------|
|--------8----0-(0)---------------|-8---0-(0)---------------------------|
|-0-0-0--8----0-(0)-------0--0--0-|-8---0-(0)---------------------------|
|-0-0-0--8----0-(0)-------0--0--0-|-8---0-(0)---------------------------|
|
|---------------------------------|-------------------------------------|
|---------------------------------|-------------------------------------|
|---------------------------------|-------------------------------------|
|---------------------------------|-------------------------------------|
|---------------------------------|-------------------------------------|
|-0-0-0-15-14-0-17--15-0-14-15-17-|-0-0-0-14--15-0-17-15-14-15-14-12----|


  G5    Bb5   G5                    Bb5 G5
  PM--|                   PM---|
|---------------------------------|---------------------------------|
|---------------------------------|---------------------------------|
|---------------------------------|---------------------------------|
|--------8----5-(5)---------------|-8---5-(5)-----------------------|
|-5-5-5--8----5-(5)-------5--5--5-|-8---5-(5)-----------------------|
|-5-5-5--8----5-(5)-------5--5--5-|-8---5-(5)-----------------------|
|
|---------------------------------|---------------------------------|
|---------------------------------|---------------------------------|
|---------------------------------|---------------------------------|
|---------------------------------|---------------------------------|
|---------------------------------|---------------------------------|
|-0-0-0-15-14-0-17--15-0-14-15-17-|-0-0-0-14--15-0-17-15-0-14-15-17-|


  Bb5   Bbsus2             Bb5        Bbsus2       N.C.
  PM--|                     PM---|
|-----------------------------------|----------------------------------------||
|-----------------------------------|----------------------------------------||
|-----------------------------------|----------------------------------------||
|-------10----10-(10)---------------|-10---10-(10)---------------------------||
|-8-8-8--8-----8--(8)-------8--8--8-|--8----8--(8)---------------------------||
|-8-8-8--8-----8--(8)-------8--8--8-|--8----8--(8)---------------------------||
|
|-----------------------------------|----------------------------------------||
|-----------------------------------|----------------------------------------||
|-----------------------------------|----------------------------------------||
|-----------------------------------|----------------------------------------||
|-----------------------------------|----------------------------------------||
|-0-0-0-15-14--0--17--15-0-14-15-17-|--0-0--0--14--15-0-17-15-14-15-14-12----||


 Chorus
  $
  G5                                  F5 G5
|---------------------|---------------------|
|---------------------|---------------------|
|---------------------|---------------------|
|-5--5-5-5--5--5-5-5--|-5--5-5-5-5-5--3--5--|
|-5--5-5-5--5--5-5-5--|-5--5-5-5-5-5--3--5--|
|-5--5-5-5--5--5-5-5--|-5--5-5-5-5-5--3--5--|
|
|---------------------|---------------------|
|---------------------|---------------------|
|---------------------|---------------------|
|-5--5-5-5--5--5-5-5--|-5--5-5-5-5-5--3--5--|
|-5--5-5-5--5--5-5-5--|-5--5-5-5-5-5--3--5--|
|-5--5-5-5--5--5-5-5--|-5--5-5-5-5-5--3--5--|


  Bb5
|----------------------|------------------------|
|----------------------|------------------------|
|----------------------|------------------------|
|-8--8-8-8---8--8-8-8--|--8--8-8-8-8-8--8--8----|
|-8--8-8-8---8--8-8-8--|--8--8-8-8-8-8--8--8----|
|-8--8-8-8---8--8-8-8--|--8--8-8-8-8-8--8--8----|
|
|----------------------|------------------------|
|----------------------|------------------------|
|-----------14---------|-12----------5----------|
|-8----------x---------|--x----------x----------|
|-8---------12---------|-10----------3----------|
|-8--------------------|------------------------|


  G5                                     F5     G5
|------------------------|-------------------------|
|------------------------|-------------------------|
|------------------------|-------------------------|
|-5--5-5-5--5---5---5-5--|-5--5-5-5-5-5---3-----5--|
|-5--5-5-5--5---5---5-5--|-5--5-5-5-5-5---3-----5--|
|-5--5-5-5--5---5---5-5--|-5--5-5-5-5-5---3-----5--|
|
|------------------------|-------------------------|
|------------------------|-------------------------|
|-7------------(7)-10----|-9-------------(9)-10----|
|-x-----------------x----|-x------------------x----|
|-5------------(5)--8----|-7-------------(7)--8----|
|------------------------|-------------------------|


                                         To Coda
  Bb5
|-------------------------|---------------------------||
|-------------------------|--------------------------o||
|-------------------------|---------------------------||
|--8--8--8-8-8-8--8-8-8-8-|-8--8-8-8-8-8--8-8-8-8-----||
|--8--8--8-8-8-8--8-8-8-8-|-8--8-8-8-8-8--8-8-8-8----o||
|--8--8--8-8-8-8--8-8-8-8-|-8--8-8-8-8-8--8-8-8-8-----||
|
|-------------------------|---------------------------||
|-------------------------|--------------------------o||
|-12----10-----9----------|-9----------9--------------||
|--x-----x-----x----------|-x----------x--------------||
|-10-----8-----7----------|-7----------7-------------o||
|-------------------------|---------------------------||


  2.
  Eb5
|------------------------------|------------------------------|
|------------------------------|------------------------------|
|------------------------------|------------------------------|
|--1-----1--1--1-----1--1-1-1--|--1-------1--1--1---1--1-1-1--|
|--1-----1--1--1-----1--1-1-1--|--1-------1--1--1---1--1-1-1--|
|--1-----1--1--1-----1--1-1-1--|--1-------1--1--1---1--1-1-1--|
|
|                    ~~
|-------15-18-15---------------|---------------18-------------|
|----15----------15------------|-18b20--(18)-------18---------|
|-15----------------15---------|------------------------------|
|------------------------------|------------------------------|
|------------------------------|------------------------------|
|------------------------------|------------------------------|


  Bbsus2
|------------------------------|-----------------------------------------------||
|------------------------------|-----------------------------------------------||
|------------------------------|-----------------------------------------------||
|--10--10-10-10--10--10-10-10--|-10------10-10--10----------10-----10-10-10----||
|---8---8--8--8---8---8--8--8--|--8-------8--8---8-----------8------8--8--8----||
|---8---8--8--8---8---8--8--8--|--8-------8--8---8-----------8------8--8--8----||
|
|                                                            ~~~~~
|------------------------------|-----------------------------------------------||
|-/15--16----18--16--15--------|-----------------------------------------------||
|--------------------------17--|-17b19=========(17)r(17)p15-17b19--------------||
|------------------------------|-----------------------------------------------||
|------------------------------|-----------------------------------------------||
|------------------------------|-----------------------------------------------||


 Pre-Chorus
  D5    Bb5D5              Bb5D5    N.C.
  Gtrs I, II
  PM--|            PM--|
|------------------------|------------------|
|------------------------|------------------|
|------------------------|------------------|
|-------8--0-(0)---------|-8--0-(0)---------|
|-0-0-0-8--0-(0)---0-0-0-|-8--0-(0)---------|
|-0-0-0-8--0-(0)---0-0-0-|-8--0-(0)---------|


  D5    Bb5D5              Bb5D5    N.C.
  PM--|            PM--|
|------------------------|--------------|
|------------------------|--------------|
|------------------------|--------------|
|-------8--0-(0)---------|-8--0-(0)-----|
|-0-0-0-8--0-(0)---0-0-0-|-8--0-(0)-----|
|-0-0-0-8--0-(0)---0-0-0-|-8--0-(0)-----|


  G5    Bb5G5              Bb5G5    N.C.
  PM--|            PM--|
|------------------------|------------------|
|------------------------|------------------|
|------------------------|------------------|
|-------8--5-(5)---------|-8--5-(5)---------|
|-5-5-5-8--5-(5)---5-5-5-|-8--5-(5)---------|
|-5-5-5-8--5-(5)---5-5-5-|-8--5-(5)---------|


  Bb5   Bbsus2        Bb5     Bbsus2      N.C.
  PM--|               PM--|
|---------------------------|-----------------|
|---------------------------|-----------------|
|---------------------------|-----------------|
|-------10--10-(10)---------|-10--10-(10)-----|
|-8-8-8--8---8--(8)---8-8-8-|--8---8--(8)-----|
|-8-8-8--8---8--(8)---8-8-8-|--8---8--(8)-----|


  N.C.
  Gtr I
|--------------------------------|--------------------------------|
|--------------------------------|--------------------------------|
|--------------------------------|--------------------------------|
|--------------------------------|--------------------------------|
|--------8-10---13-12---12-13-15-|--------8-10---13-12---12-13-15-|
|-0-0-0-------0-------0----------|-0-0-0-------0-------0----------|
|
| Gtr II
|--------------------------------|--------------------------------|
|--------------------------------|--------------------------------|
|--------------------------------|--------------------------------|
|--------------------------------|--------------------------------|
|--------------------------------|--------------------------------|
|-0-0-0-15-14-0-17-15-0-14-15-17-|-0-0-0-14-15-0-17-15-0-14-15-17-|


|--------------------------------|------------------------------------|
|--------------------------------|------------------------------------|
|--------------------------------|------------------------------------|
|--------------------------------|------------------------------------|
|--------8-10---13-12---12-13-15-|--------8-10---13-12-10-12-10--8----|
|-0-0-0-------0-------0----------|-0-0-0-------0----------------------|
|
|--------------------------------|------------------------------------|
|--------------------------------|------------------------------------|
|--------------------------------|------------------------------------|
|--------------------------------|------------------------------------|
|--------------------------------|------------------------------------|
|-0-0-0-15-14-0-17-15-0-14-15-17-|-0-0-0-14-15-0-17-15-14-15-14-12----|


  N.C.
|--------------------------------|--------------------------------|
|--------------------------------|--------------------------------|
|--------------------------------|--------------------------------|
|--------------------------------|--------------------------------|
|--------8-10---13-12---12-13-15-|--------8-10---13-12---12-13-15-|
|-0-0-0-------0-------0----------|-0-0-0-------0-------0----------|
|
|--------------------------------|--------------------------------|
|--------------------------------|--------------------------------|
|--------------------------------|--------------------------------|
|--------------------------------|--------------------------------|
|--------------------------------|--------------------------------|
|-0-0-0-15-14-0-17-15-0-14-15-17-|-0-0-0-14-15-0-17-15-0-14-15-17-|


                                                    D.S. al Coda
|--------------------------------|------------------------------------||
|--------------------------------|------------------------------------||
|--------------------------------|------------------------------------||
|--------------------------------|------------------------------------||
|--------8-10---13-12---12-13-15-|--------8-10---13-12-10-12-10--8----||
|-0-0-0-------0-------0----------|-0-0-0-------0----------------------||
|
|--------------------------------|------------------------------------||
|--------------------------------|------------------------------------||
|--------------------------------|------------------------------------||
|--------------------------------|------------------------------------||
|--------------------------------|------------------------------------||
|-0-0-0-15-14-0-17-15-0-14-15-17-|-0-0-0-14-15-0-17-15-14-15-14-12----||


   Breakdown
    &
    D5
    Gtrs I, II
    PM----|   PM----|     PM----|   PM----|
                                               4x
||----------------------|----------------------||
||o---------------------|---------------------o||
||----------------------|----------------------||
||----------------------|----------------------||
||o-0-0-0-0---0-0-0-0---|-0-0-0-0---0-0-0-0---o||
||--0-0-0-0---0-0-0-0---|-0-0-0-0---0-0-0-0----||


 Outro
  D5
  Gtrs I, II
   PM--------|   PM-------|        PM-------|          PM--------|
|-------------------------------|-----------------------------------------|
|-------------------------------|-----------------------------------------|
|-------------------------------|-----------------------------------------|
|-------------------------------|-----------------------------------------|
|--0-----0-0-0---0-0---0--0-----|--0-0----0---0--------0--0----0---0------|
|--0-----0-0-0---0-0---0--0-----|--0-0----0---0--------0--0----0---0------|
|
| Gtr III
|-------------------------------|-----------------------------------------|
|-18-----------------(18)----18-|-18---------18-------18----------18------|
|-17b19==============(17)-------|------17---(17)--17-(17)---17---(17)--17-|
|-------------------------------|-----------------------------------------|
|-------------------------------|-----------------------------------------|
|-------------------------------|-----------------------------------------|


  D5
    PM--------|          PM--------|
|-------------------------------------------|
|-------------------------------------------|
|-------------------------------------------|
|-------------------------------------------|
|---0--0----0---0--------0--0----0---0------|
|---0--0----0---0--------0--0----0---0------|
|
|-------------------------------------------|
|--18----------18-------18----------18------|
|-(17)---17r==(17)--17-(17)---17---(17)--17-|
|-------------------------------------------|
|-------------------------------------------|
|-------------------------------------------|


    PM--------|          PM--------|
|---------------------------------------------|
|---------------------------------------------|
|---------------------------------------------|
|---------------------------------------------|
|---0--0----0---0--------0--0----0---0--------|
|---0--0----0---0--------0--0----0---0--------|
|
|---------------------------------------------|
|--18----------18-------18----------18--------|
|-(17)---17r==(17)--17-(17)---17---(17)--17r--|
|---------------------------------------------|
|---------------------------------------------|
|---------------------------------------------|


  D5
   PM--------|   PM--------|          PM-------|   PM----|
|----------------------------------|-------------------------|
|----------------------------------|-------------------------|
|----------------------------------|-------------------------|
|----------------------------------|-------------------------|
|--0-----0-0-0---0-0---0---0-------|--0----0-0-0---0-0-0-0---|
|--0-----0-0-0---0-0---0---0-------|--0----0-0-0---0-0-0-0---|
|
|                                     ~~~~~
|----------------------------------|-------------------------|
|----------------------------------|-------------------------|
|-17b19==============(17)r---17-15-|-17b19-------------------|
|----------------------------------|-------------------------|
|----------------------------------|-------------------------|
|----------------------------------|-------------------------|


  D5             N.C.                D5      N.C.
   PM------|                         PM----|
|----------------------------------|---------------*|
|----------------------------------|---------------*|
|----------------------------------|---------------*|
|------------0---------------------|---------------*|
|--0-----0-0-0------------0h==3h=5-|-0-0-0-0-------*|
|--0-----0-0-0-----0h=3h5----------|-0-0-0-0-------*|
|
|----------------------------------|---------------*|
|-18-------------(18)-------(18)---|---------------*|
|-17b19==========(17)r======(17)---|---------------*|
|----------------------------------|---------------*|
|----------------------------------|---------------*|
|----------------------------------|---------------*|
comments
print report bad tab
1 comment total.
0 reply
th_brck_rcks wrote on July 4 2009, 11:32 pm

ive only heard the song once so far so i dot remember how the song goes but it looks good to me

I want to post or [tab]
guest
You may want to rate the tab now too:
select rating
Please do not post tabs as comments. Select "correction" instead!