Oops, an error
Loading. Please wait.

Creature Tab

ver1
ver1
More versions @911Tabs.com
9,539 views 6 this week
10 commentsread comments
1 2 3 4 5
accurate
x 15
Autoscroll
+/-
esc
set tempo
stop
Difficulty
intermediate
Hey! There's an official Ultimate Guitar app which is ideal
for learning songs when you're away from computer. Get the app
WARNING: You are trying to view
                                    content from Ultimate-Guitar.com
                                    in an unauthorized application,
                                    which is prohibited.

                                    Please use an official Ultimate
                                    Guitar Tabs application for iPhone,
                                    iPad or Android to access legitimate
                                    chords, guitar, bass, and drum tabs
                                    from Ultimate-Guitar.com database.

                                    Type "ultimate guitar tabs" in Apple
                                    App Store's or Android Market's
                                    search to find the application.
[Transcribed by Richard YaneK]

[Atreyu]
[Deathgrip On Yesterday]
[Creature]

[Tuning C G C F A D]




                                 TRYING TO HIDE
 GO      RUNAWAY     IN DISTRESS     FROM WHAT'S  CREEPING &  CRAWLING &  STABBING WITHIN
|------------------------------------------------------------------------------------------------|
|------------------------------------------------------------------------------------------------|
|-------------2-----------2-----------2-5-2------------------------------------------------------|
|-3-------3-5---------3-5---------3-5-------5-3-5-2-----------2-----------2------------2---------|
|-----0-0---------0-0---------0-0---------------------000-000-----0-0-0-0-----000-000-----0-0-0-0|
|-----0-0---------0-0---------0-0---------------------000-000-----0-0-0-0-----000-000-----0-0-0-0|
|     . .         . .         . .                     ... ...     . . . .     ... ...     . . . .|
|                                                                                                |
|------------------------------------------------------------------------------------------------|
|------------------------------------------------------------------------------------------------|
|------------------------------------------------------------------------------------------------|
|---------------------------------------5--------------------------------------------------------|
|-5---0-0-5-7-8---0-0-5-7-8---0-0-5-7-8---8-7-5-7-3---000-000-3---0-0-0-0-3---000-000-3---0-0-0-0|
|-----0-0---------0-0---------0-0---------------------000-000-----0-0-0-0-----000-000-----0-0-0-0|
      . .         . .         . .                     ... ...     . . . .     ... ...     . . . .


 TRY     TO DENY     THE TURMOIL  INSIDE             IF YOU FIGHT YOURSELF HARD ENOUGH YOU'LL NEVER
|------------------------------------------------------------------------------------------------|
|------------------------------------------------------------------------------------------------|
|-------------2-----------2-----------2-5-2------------------------------------------------------|
|-3-------3-5---------3-5---------3-5-------5-3-5-2-----------2-----------2------------2---------|
|-----0-0---------0-0---------0-0---------------------000-000-----0-0-0-0-----000-000-----0-0-0-0|
|-----0-0---------0-0---------0-0---------------------000-000-----0-0-0-0-----000-000-----0-0-0-0|
|     . .         . .         . .                     ... ...     . . . .     ... ...     . . . .|
|                                                                                                |
|------------------------------------------------------------------------------------------------|
|------------------------------------------------------------------------------------------------|
|------------------------------------------------------------------------------------------------|
|---------------------------------------5--------------------------------------------------------|
|-5---0-0-5-7-8---0-0-5-7-8---0-0-5-7-8---8-7-5-7-3---000-000-3---0-0-0-0-3---000-000-3---0-0-0-0|
|-----0-0---------0-0---------0-0---------------------000-000-----0-0-0-0-----000-000-----0-0-0-0|
      . .         . .         . .                     ... ...     . . . .     ... ...     . . . .


  WIN   IN THE OUNCE OF SERENITY        I WILL COME HOME BE PISSED I WILL COME HOME BE PISSED
|------------------------------------------------------------------------------------------------|
|------------------------------------------------------------------------------------------------|
|-------------2-----------2-----------2-5-2------------------------------------------------------|
|-3-------3-5---------3-5---------3-5-------5-3-5-2-----------2-----------2------------2---------|
|-----0-0---------0-0---------0-0---------------------000-000-----0-0-0-0-----000-000-----0-0-0-0|
|-----0-0---------0-0---------0-0---------------------000-000-----0-0-0-0-----000-000-----0-0-0-0|
|     . .         . .         . .                     ... ...     . . . .     ... ...     . . . .|
|                                                                                                |
|------------------------------------------------------------------------------------------------|
|------------------------------------------------------------------------------------------------|
|------------------------------------------------------------------------------------------------|
|---------------------------------------5--------------------------------------------------------|
|-5---0-0-5-7-8---0-0-5-7-8---0-0-5-7-8---8-7-5-7-3---000-000-3---0-0-0-0-3---000-000-3---0-0-0-0|
|-----0-0---------0-0---------0-0---------------------000-000-----0-0-0-0-----000-000-----0-0-0-0|
      . .         . .         . .                     ... ...     . . . .     ... ...     . . . .


  CAN'T LEAVE YOU WEEPING ON THE PHONE            GASPING FOR BREATH(I AM GASPING FOR BREATH)
|------------------------------------------------------------------------------------------------|
|------------------------------------------------------------------------------------------------|
|-------------2-----------2-----------2-5-2------------------------------------------------------|
|-3-------3-5---------3-5---------3-5-------5-3-5-2-----------2-----------2------------2---------|
|-----0-0---------0-0---------0-0---------------------000-000-----0-0-0-0-----000-000-----0-0-0-0|
|-----0-0---------0-0---------0-0---------------------000-000-----0-0-0-0-----000-000-----0-0-0-0|
|     . .         . .         . .                     ... ...     . . . .     ... ...     . . . .|
|                                                                                                |
|------------------------------------------------------------------------------------------------|
|------------------------------------------------------------------------------------------------|
|------------------------------------------------------------------------------------------------|
|---------------------------------------5--------------------------------------------------------|
|-5---0-0-5-7-8---0-0-5-7-8---0-0-5-7-8---8-7-5-7-3---000-000-3---0-0-0-0-3---000-000-3---0-0-0-0|
|-----0-0---------0-0---------0-0---------------------000-000-----0-0-0-0-----000-000-----0-0-0-0|
      . .         . .         . .                     ... ...     . . . .     ... ...     . . . .    


       (TO BE LEFT ON THE FLOOR   GASPING FOR)
|------------------------------------------------|
|------------------------------------------------|
|-------------------------7-7-7-7-7-7-7-7-7-7-7-7|
|-3-3-3-3-3-3-3-3-3-3-3-3-7-7-7-7-7-7-7-7-7-7-7-7|
|-3-3-3-3-3-3-3-3-3-3-3-3-5-5-5-5-5-5-5-5-5-5-5-5|
|-3-3-3-3-3-3-3-3-3-3-3-3------------------------|
|                                                |
|                                                |
|------------------------------------------------|
|------------------------------------------------|
|-------------------------7-7-7-7-7-7-7-7-7-7-7-7|
|-3-3-3-3-3-3-3-3-3-3-3-3-7-7-7-7-7-7-7-7-7-7-7-7|
|-3-3-3-3-3-3-3-3-3-3-3-3-5-5-5-5-5-5-5-5-5-5-5-5|
|-3-3-3-3-3-3-3-3-3-3-3-3------------------------|

  (BREATH!!!!)
     [NO HE'S NOT                 OR THE      YOU'RE
      THE  PERSON   YOU  A~~R~~E     PERSON      TRYING]     TRYING      TRYING      TRYING    TO
|------------------------------------------------------------------------------------------------|
|------------------------------------------------------------------------------------------------|
|-------------------------------------------------5-5-5-5-5-5-5-5-5-5-5-5-5-5-5-5-5-5-5-5-5-5-5-5|
|-7-7-7-7-7-7-7-7-7-7-7-7-7-7-7-7-7-7-7-7-7-7-7-7-5-5-5-5-5-5-5-5-5-5-5-5-5-5-5-5-5-5-5-5-5-5-5-5|
|-7-7-7-7-7-7-7-7-7-7-7-7-7-7-7-7-7-7-7-7-7-7-7-7-3-3-3-3-3-3-3-3-3-3-3-3-3-3-3-3-3-3-3-3-3-3-3-3|
|-7-7-7-7-7-7-7-7-7-7-7-7-7-7-7-7-7-7-7-7-7-7-7-7------------------------------------------------|
|                                                                                                |
|                                                                                                |
|------------------------------------------------------------------------------------------------|
|------------------------------------------------------------------------------------------------|
|-9-9-9-9-9-9121212121212141414141414121212121212141414141414121212121212-9-9-9-9-9-9121212121212|
|------------------------------------------------------------------------------------------------|
|-7-7-7-7-7-7101010101010121212121212101010101010121212121212101010101010-7-7-7-7-7-7101010101010|
|------------------------------------------------------------------------------------------------|


     [DON'T LET THE                FROM
  BE         OUTSIDE SWING TOO FAR   WHERE YOU   WA~~~~~~NT  TO~~~~~~~~~ BE~~~~~~~~~]
|------------------------------------------------------------------------------------------------|
|------------------------------------------------------------------------------------------------|
|------------------------------------------------------------------------------------------------|
|-5-5-5-5-5-5-5-5-5-5-5-5-5-5-5-5-5-5-5-5-5-5-5-5-0-0-0-0-0-0-0-0-0-0-0-0-0-0-0-0-0-0-0-0-0-0-0-0|
|-5-5-5-5-5-5-5-5-5-5-5-5-5-5-5-5-5-5-5-5-5-5-5-5-0-0-0-0-0-0-0-0-0-0-0-0-0-0-0-0-0-0-0-0-0-0-0-0|
|-5-5-5-5-5-5-5-5-5-5-5-5-5-5-5-5-5-5-5-5-5-5-5-5-0-0-0-0-0-0-0-0-0-0-0-0-0-0-0-0-0-0-0-0-0-0-0-0|
|                                                                                                |
|                                                                                                |
|------------------------------------------------------------------------------------------------|
|------------------------------------------------------------------------------------------------|
|-9-9-9-9-9-9121212121212141414141414121212121212141414141414121212121212-9-9-9-9-9-9121212121212|
|------------------------------------------------------------------------------------------------|
|-7-7-7-7-7-7101010101010121212121212101010101010121212121212101010101010-7-7-7-7-7-7101010101010|
|------------------------------------------------------------------------------------------------|



    WE  ARE  HEAD~~ING  FOR  MO~~MENTS  OF  THIS     YOU CAN ROLL WITH THE BE~~~~~~ST
|------------------------------------------------------------------------------------------------|
|------------------------------------------------------------------------------------------------|
|------------------------------------------------------------------------------------------------|
|-------------------------3-----------3-----------2-----------2----------------------------------|
|-5---0-0-0-0-5---0-0-0-0-----0-0-0-0-----0-0-0-0-----0-0-0-0-----0-0-0-0-4---0-0-0-0-4---0-0-0-0|
|-----0-0-0-0-----0-0-0-0-----0-0-0-0-----0-0-0-0-----0-0-0-0-----0-0-0-0-----0-0-0-0-----0-0-0-0|
|     . . . .     . . . .     . . . .     . . . .     . . . .     . . . .     . . . .     . . . .|
|                                                                                                |
|------------------------------------------------------------------------------------------------|
|------------------------------------------------------------------------------------------------|
|------------------------------------------------------------------------------------------------|
|------------------------------------------------------------------------------------------------|
|-5---0-0-0-0-5---0-0-0-0-8---0-0-0-0-8---0-0-0-0-7---0-0-0-0-7---0-0-0-0-4---0-0-0-0-4---0-0-0h3|
|-----0-0-0-0-----0-0-0-0-----0-0-0-0-----0-0-0-0-----0-0-0-0-----0-0-0-0-----0-0-0-0-----0-0----|
      . . . .     . . . .     . . . .     . . . .     . . . .     . . . .     . . . .     . .

                                                     A~GAINST THE CON~FINES
     WHERE'S YOUR BO~DY IS BRU~TAL~LY PRESSED                         OF YOUR  DEAD  FLESH
|------------------------------------------------------------------------------------------------|
|------------------------------------------------------------------------------------------------|
|------------------------------------------------------------------------------------------------|
|-3-----------3-----------7-----------7-----------5-----------5----------------------------------|
|-----0-0-0-0-----0-0-0-0-----0-0-0-0-----0-0-0-0-----0-0-0-0-----0-0-0-0-4---0-0-0-0-4---0-0-0-0|
|-----0-0-0-0-----0-0-0-0-----0-0-0-0-----0-0-0-0-----0-0-0-0-----0-0-0-0-----0-0-0-0-----0-0-0-0|
|     . . . .     . . . .     . . . .     . . . .     . . . .     . . . .     . . . .     . . . .|
|                                                                                                |
|------------------------------------------------------------------------------------------------|
|------------------------------------------------------------------------------------------------|
|------------------------------------------------------------------------------------------------|
|------------------------------------------------------------------------------------------------|
|h5---0-0-0-0-5---0-0-0-0-8---0-0-0-0-8---0-0-0-0-7---0-0-0-0-7---0-0-0-0-4---0-0-0-0-4---0-0-0h3|
|-----0-0-0-0-----0-0-0-0-----0-0-0-0-----0-0-0-0-----0-0-0-0-----0-0-0-0-----0-0-0-0-----0-0----|
      . . . .     . . . .     . . . .     . . . .     . . . .     . . . .     . . . .     . .  


     IF      CLOSE       EYES       ENOUGH                               [NONE OF THE BAD CAN GET]
 AND     YOU        YOUR        TIGHT       [THEN NONE OF THE BAD CAN GET IN]
|------------------------------------------------------------------------------------------------|
|-------------2-----------2-----------2-5-2------------------------------------------------------|
|-3-------3-5---------3-5---------3-5-------5-3-5-2-2-2-2-2-2/5-5-5-5-5-5/7-7-7-7-7-7\5-5-5-5-5-5|
|------------------------------------------------------------------------------------------------|
|------------------------------------------------------------------------------------------------|
|------------------------------------------------------------------------------------------------|
|                                                                                                |
|                                                                                                |
|------------------------------------------------------------------------------------------------|
|------------------------------------------------------------------------------------------------|
|------------------------------------------------------------------------------------------------|
|---------------------------------------5---------7-7-7-7-7-7-6-6-6-6-6-6-5-5-5-5-5-5-0-0-0-0-0-0|
|/5-------5-7-8-------5-7-8-------5-7-8---8-7-5-7-7-7-7-7-7-7-6-6-6-6-6-6-5-5-5-5-5-5-0-0-0-0-0-0|
|-------------------------------------------------7-7-7-7-7-7-6-6-6-6-6-6-5-5-5-5-5-5-0-0-0-0-0-0|



     IF      CLOSE       EYES       ENOUGH                              [NONE OF THE LIGHT CAN GET]
 AND     YOU        YOUR        TIGHT       [THEN NONE OF THE LIGHT CAN GET IN]              (THE)
|------------------------------------------------------------------------------------------------|
|-------------2-----------2-----------2-5-2------------------------------------------------------|
|-3-------3-5---------3-5---------3-5-------5-3-5-2-2-2-2-2-2/5-5-5-5-5-5/7-7-7-7-7-7101010101010|
|------------------------------------------------------------------------------------------------|
|------------------------------------------------------------------------------------------------|
|------------------------------------------------------------------------------------------------|
|                                                                                                |
|                                                                                                |
|------------------------------------------------------------------------------------------------|
|------------------------------------------------------------------------------------------------|
|------------------------------------------------------------------------------------------------|
|---------------------------------------5---------7-7-7-7-7-7-6-6-6-6-6-6-5-5-5-5-5-5-0-0-0-0-0-0|
|-5-------5-7-8-------5-7-8-------5-7-8---8-7-5-7-7-7-7-7-7-7-6-6-6-6-6-6-5-5-5-5-5-5-0-0-0-0-0-0|
|-------------------------------------------------7-7-7-7-7-7-6-6-6-6-6-6-5-5-5-5-5-5-0-0-0-0-0-0|


 [IN]
 LIGHT CAN'T GET IN   THE LIGHT CAN'T GET IN)
|------------------------------------------------|
|------------------------------------------------|
|-7-7-7-7-7-7-7-7-7-7-7-7-3-3-3-3-3h5-2-2-2-2-2-2|
|------------------------------------------------|
|------------------------------------------------|
|------------------------------------------------|
|                                                |
|                                                |
|------------------------------------------------|
|------------------------------------------------|
|-------------------------7-7-7-7-7-7-7-7-7-7-7-7|
|-3-3-3-3-3-3-3-3-3-3-3-3-7-7-7-7-7-7-7-7-7-7-7-7|
|-3-3-3-3-3-3-3-3-3-3-3-3-5-5-5-5-5-5-5-5-5-5-5-5|
|-3-3-3-3-3-3-3-3-3-3-3-3------------------------|




|------------------------|
|------------------------|
|------------------------|
|---------------------7\\|
|-------------000-----7\\|  ** NOTE ** Slide down... not up... stupid blog...
|-------------000-----7\\|
|             ...        |
|                        |
|------------------------|
|------------------------|
|------------------------|
|---------------------7\\|
|-000-000---------0-0-7\\|
|-000-000---------0-0-7\\|
  ... ...         . .    


             YOU SCREAM    AS THE LIGHT HITS YOU & RA~~DI~~ATES THROUGHOUT YOUR WHOLE  SOUL
|------------------------------------------------------------------------------------------------|
|------------------------------------------------------------------------------------------------|
|------------------------------------------------------------------------------------------------|
|-------------------------------------------------7-7-7-7-7-7-6-6-6-6-6-6-5-5-5-5-5-5-0-0-0-0-0-0|
|-000-000-----000-00000-0-000-000-----000-00000-0-7-7-7-7-7-7-6-6-6-6-6-6-5-5-5-5-5-5-0-0-0-0-0-0|
|-000-000-----000-00000-0-000-000-----000-00000-0-7-7-7-7-7-7-6-6-6-6-6-6-5-5-5-5-5-5-0-0-0-0-0-0|
| ... ...     ... ..... . ... ...     ... ..... .                                                |
|                                                                                                |
|------------------------------------------------------------------------------------------------|
|------------------------------------------------------------------------------------------------|
|------------------------------------------------------------------------------------------------|
|-------------------------------------------------7-7-7-7-7-7-6-6-6-6-6-6-5-5-5-5-5-5-0-0-0-0-0-0|
|-000-000-----000-00000-0-000-000-----000-00000-0-7-7-7-7-7-7-6-6-6-6-6-6-5-5-5-5-5-5-0-0-0-0-0-0|
|-000-000-----000-00000-0-000-000-----000-00000-0-7-7-7-7-7-7-6-6-6-6-6-6-5-5-5-5-5-5-0-0-0-0-0-0|
  ... ...     ... ..... . ... ...     ... ..... . 


             THE  PAIN  IS  BURNING  AND CLEANSES ANYTHING  IT  STILL ---- HURTS & YOU'RE STILL ----
|------------------------------------------------------------------------------------------------|
|------------------------------------------------------------------------------------------------|
|------------------------------------------------------------------------------------------------|
|-------------------------------------------------7-7-7-7-7-7-6-6-6-6-6-6-5-5-5-5-5-5-0-0-0-0-0-0|
|-000-000-----000-00000-0-000-000-----000-00000-0-7-7-7-7-7-7-6-6-6-6-6-6-5-5-5-5-5-5-0-0-0-0-0-0|
|-000-000-----000-00000-0-000-000-----000-00000-0-7-7-7-7-7-7-6-6-6-6-6-6-5-5-5-5-5-5-0-0-0-0-0-0|
| ... ...     ... ..... . ... ...     ... ..... .                                                |
|                                                                                                |
|------------------------------------------------------------------------------------------------|
|------------------------------------------------------------------------------------------------|
|------------------------------------------------------------------------------------------------|
|-------------------------------------------------7-7-7-7-7-7-6-6-6-6-6-6-5-5-5-5-5-5-0-0-0-0-0-0|
|-000-000-----000-00000-0-000-000-----000-00000-0-7-7-7-7-7-7-6-6-6-6-6-6-5-5-5-5-5-5-0-0-0-0-0-0|
|-000-000-----000-00000-0-000-000-----000-00000-0-7-7-7-7-7-7-6-6-6-6-6-6-5-5-5-5-5-5-0-0-0-0-0-0|
  ... ...     ... ..... . ... ...     ... ..... .

                                                  STILL  IN                    
  DOWN       [THAT YOU ARE STILL ALONE]THAT YOU ARE       CON~~TROL DON'T KNOW WHERE TO GO~~~~~
|------------------------------------------------------------------------------------------------|
|------------------------------------------------------------------------------------------------|
|------------------------------------------------------------------------------------------------|
|-------------------------------------------------7-7-7-7-7-7-6-6-6-6-6-6-5-5-5-5-5-5-0-0-0-0-0-0|
|-000-000-----000-00000-0-000-000-----000-00000-0-7-7-7-7-7-7-6-6-6-6-6-6-5-5-5-5-5-5-0-0-0-0-0-0|
|-000-000-----000-00000-0-000-000-----000-00000-0-7-7-7-7-7-7-6-6-6-6-6-6-5-5-5-5-5-5-0-0-0-0-0-0|
| ... ...     ... ..... . ... ...     ... ..... .                                                |
|                                                                                                |
|------------------------------------------------------------------------------------------------|
|------------------------------------------------------------------------------------------------|
|------------------------------------------------------------------------------------------------|
|-------------------------------------------------7-7-7-7-7-7-6-6-6-6-6-6-5-5-5-5-5-5-0-0-0-0-0-0|
|-000-000-----000-00000-0-000-000-----000-00000-0-7-7-7-7-7-7-6-6-6-6-6-6-5-5-5-5-5-5-0-0-0-0-0-0|
|-000-000-----000-00000-0-000-000-----000-00000-0-7-7-7-7-7-7-6-6-6-6-6-6-5-5-5-5-5-5-0-0-0-0-0-0|
  ... ...     ... ..... . ... ...     ... ..... .


            THE DAY WE'RE ALL DEAD  UN~DER~GROUND BACK TOOK A CHANCE  TO LIVE OUT YOUR PAST
|------------------------------------------------------------------------------------------------|
|------------------------------------------------------------------------------------------------|
|------------------------------------------------------------------------------------------------|
|-------------------------------------------------7-7-7-7-7-7-6-6-6-6-6-6-5-5-5-5-5-5-0-0-0-0-0-0|
|-000-000-----000-00000-0-000-000-----000-00000-0-7-7-7-7-7-7-6-6-6-6-6-6-5-5-5-5-5-5-0-0-0-0-0-0|
|-000-000-----000-00000-0-000-000-----000-00000-0-7-7-7-7-7-7-6-6-6-6-6-6-5-5-5-5-5-5-0-0-0-0-0-0|
| ... ...     ... ..... . ... ...     ... ..... .                                                |
|                                                                                                |
|------------------------------------------------------------------------------------------------|
|------------------------------------------------------------------------------------------------|
|------------------------------------------------------------------------------------------------|
|-------------------------------------------------7-7-7-7-7-7-6-6-6-6-6-6-5-5-5-5-5-5-0-0-0-0-0-0|
|-000-000-----000-00000-0-000-000-----000-00000-0-7-7-7-7-7-7-6-6-6-6-6-6-5-5-5-5-5-5-0-0-0-0-0-0|
|-000-000-----000-00000-0-000-000-----000-00000-0-7-7-7-7-7-7-6-6-6-6-6-6-5-5-5-5-5-5-0-0-0-0-0-0|
  ... ...     ... ..... . ... ...     ... ..... .


(WHERE YOU WILL BE FREE   WHERE YOU WILL BE FREE)
|------------------------------------------------|
|------------------------------------------------|
|-------------------------7-7-7-7-7-7-7-7-7-7-7-7|
|-3-3-3-3-3-3-3-3-3-3-3-3-7-7-7-7-7-7-7-7-7-7-7-7|
|-3-3-3-3-3-3-3-3-3-3-3-3-5-5-5-5-5-5-5-5-5-5-5-5|
|-3-3-3-3-3-3-3-3-3-3-3-3------------------------|
|                                                |
|                                                |
|------------------------------------------------|
|------------------------------------------------|
|-------------------------7-7-7-7-7-7-7-7-7-7-7-7|
|-3-3-3-3-3-3-3-3-3-3-3-3-7-7-7-7-7-7-7-7-7-7-7-7|
|-3-3-3-3-3-3-3-3-3-3-3-3-5-5-5-5-5-5-5-5-5-5-5-5|
|-3-3-3-3-3-3-3-3-3-3-3-3------------------------|


     [NO HE'S NOT                 OR THE      YOU'RE
      THE  PERSON   YOU  A~~R~~E     PERSON      TRYING]     TRYING      TRYING      TRYING    TO
|------------------------------------------------------------------------------------------------|
|------------------------------------------------------------------------------------------------|
|-------------------------------------------------5-5-5-5-5-5-5-5-5-5-5-5-5-5-5-5-5-5-5-5-5-5-5-5|
|-7-7-7-7-7-7-7-7-7-7-7-7-7-7-7-7-7-7-7-7-7-7-7-7-5-5-5-5-5-5-5-5-5-5-5-5-5-5-5-5-5-5-5-5-5-5-5-5|
|-7-7-7-7-7-7-7-7-7-7-7-7-7-7-7-7-7-7-7-7-7-7-7-7-3-3-3-3-3-3-3-3-3-3-3-3-3-3-3-3-3-3-3-3-3-3-3-3|
|-7-7-7-7-7-7-7-7-7-7-7-7-7-7-7-7-7-7-7-7-7-7-7-7------------------------------------------------|
|                                                                                                |
|                                                                                                |
|------------------------------------------------------------------------------------------------|
|------------------------------------------------------------------------------------------------|
|-9-9-9-9-9-9121212121212141414141414121212121212141414141414121212121212-9-9-9-9-9-9121212121212|
|------------------------------------------------------------------------------------------------|
|-7-7-7-7-7-7101010101010121212121212101010101010121212121212101010101010-7-7-7-7-7-7101010101010|
|------------------------------------------------------------------------------------------------|


     [DON'T LET THE                FROM
  BE         OUTSIDE SWING TOO FAR   WHERE YOU   WA~~~~~~NT  TO~~~~~~~~~ BE~~~~~~~~~]
|------------------------------------------------------------------------------------------------|
|------------------------------------------------------------------------------------------------|
|------------------------------------------------------------------------------------------------|
|-5-5-5-5-5-5-5-5-5-5-5-5-5-5-5-5-5-5-5-5-5-5-5-5-0-0-0-0-0-0-0-0-0-0-0-0-0-0-0-0-0-0-0-0-0-0-0-0|
|-5-5-5-5-5-5-5-5-5-5-5-5-5-5-5-5-5-5-5-5-5-5-5-5-0-0-0-0-0-0-0-0-0-0-0-0-0-0-0-0-0-0-0-0-0-0-0-0|
|-5-5-5-5-5-5-5-5-5-5-5-5-5-5-5-5-5-5-5-5-5-5-5-5-0-0-0-0-0-0-0-0-0-0-0-0-0-0-0-0-0-0-0-0-0-0-0-0|
|                                                                                                |
|                                                                                                |
|------------------------------------------------------------------------------------------------|
|------------------------------------------------------------------------------------------------|
|-9-9-9-9-9-9121212121212141414141414121212121212141414141414121212121212-9-9-9-9-9-9121212121212|
|------------------------------------------------------------------------------------------------|
|-7-7-7-7-7-7101010101010121212121212101010101010121212121212101010101010-7-7-7-7-7-7101010101010|
|------------------------------------------------------------------------------------------------|


     [NO HE'S NOT                 OR THE      YOU'RE
      THE  PERSON   YOU  A~~R~~E     PERSON      TRYING]     TRYING      TRYING      TRYING    TO
|------------------------------------------------------------------------------------------------|
|------------------------------------------------------------------------------------------------|
|-------------------------------------------------5-5-5-5-5-5-5-5-5-5-5-5-5-5-5-5-5-5-5-5-5-5-5-5|
|-7-7-7-7-7-7-7-7-7-7-7-7-7-7-7-7-7-7-7-7-7-7-7-7-5-5-5-5-5-5-5-5-5-5-5-5-5-5-5-5-5-5-5-5-5-5-5-5|
|-7-7-7-7-7-7-7-7-7-7-7-7-7-7-7-7-7-7-7-7-7-7-7-7-3-3-3-3-3-3-3-3-3-3-3-3-3-3-3-3-3-3-3-3-3-3-3-3|
|-7-7-7-7-7-7-7-7-7-7-7-7-7-7-7-7-7-7-7-7-7-7-7-7------------------------------------------------|
|                                                                                                |
|                                                                                                |
|------------------------------------------------------------------------------------------------|
|------------------------------------------------------------------------------------------------|
|-9-9-9-9-9-9121212121212141414141414121212121212141414141414121212121212-9-9-9-9-9-9121212121212|
|------------------------------------------------------------------------------------------------|
|-7-7-7-7-7-7101010101010121212121212101010101010121212121212101010101010-7-7-7-7-7-7101010101010|
|------------------------------------------------------------------------------------------------|


     [DON'T LET THE                FROM
  BE         OUTSIDE SWING TOO FAR   WHERE YOU   WA~~~~~~NT  TO~~~~~~~~~ BE~~~~~~~~~]
|------------------------------------------------------------------------------------------------|
|------------------------------------------------------------------------------------------------|
|------------------------------------------------------------------------------------------------|
|-5-5-5-5-5-5-5-5-5-5-5-5-5-5-5-5-5-5-5-5-5-5-5-5-0-0-0-0-0-0-0-0-0-0-0-0-0-0-0-0-0-0-0-0-0-0-0-0|
|-5-5-5-5-5-5-5-5-5-5-5-5-5-5-5-5-5-5-5-5-5-5-5-5-0-0-0-0-0-0-0-0-0-0-0-0-0-0-0-0-0-0-0-0-0-0-0-0|
|-5-5-5-5-5-5-5-5-5-5-5-5-5-5-5-5-5-5-5-5-5-5-5-5-0-0-0-0-0-0-0-0-0-0-0-0-0-0-0-0-0-0-0-0-0-0-0-0|
|                                                                                                |
|                                                                                                |
|------------------------------------------------------------------------------------------------|
|------------------------------------------------------------------------------------------------|
|-9-9-9-9-9-9121212121212141414141414121212121212141414141414121212121212-9-9-9-9-9-9121212121212|
|------------------------------------------------------------------------------------------------|
|-7-7-7-7-7-7101010101010121212121212101010101010121212121212101010101010-7-7-7-7-7-7101010101010|
|------------------------------------------------------------------------------------------------|




|-------------------------|
|-------------------------|
|-------------2-----------|
|-3-------3-5---------3-5-|
|-----0-0---------0-0-----|
|-----0-0---------0-0-----|
|     . .         . .     |
|                         |
|-------------------------|
|-------------------------|
|-------------------------|
|-------------------------|
|-8---0-0-8-7-8---0-0-8-7-|
|-----0-0---------0-0-----|
      . .         . .     
comments
print report bad tab
10 comments total. Showing first comments.
-1 reply
athleticguitar wrote on April 1 2006, 04:25 pm

wrong

0 reply
leavethatmonkey wrote on April 2 2006, 07:27 pm

some parts are right. the general main riff sounds kind of wrong, theres an obvious palm muted progression at the end of it and like yeah.. it kinda sucked

+1 reply
Corpse_Sledding wrote on April 3 2006, 06:00 pm

I checked this up with the song and it sounds good. That palm muted progression almost seems like it could be bass, but I might be wrong. If I figure anything out, I'll let you know. Great job though.

I want to post or [tab]
guest
You may want to rate the tab now too:
select rating
Please do not post tabs as comments. Select "correction" instead!