Oops, an error
Loading. Please wait.

Creature Tab

ver4
ver4
More versions @911Tabs.com
1,200 views 3 this week
4 commentsread comments
1 2 3 4 5
excellent!
x 3
add to favorites launch autoscroll
font size
0
reset
Autoscroll
+/-
esc
set tempo
stop
Contributor
Difficulty
Tuning
novice
E A D G B E
WARNING: You are trying to view
                                    content from Ultimate-Guitar.com
                                    in an unauthorized application,
                                    which is prohibited.

                                    Please use an official Ultimate
                                    Guitar Tabs application for iPhone,
                                    iPad or Android to access legitimate
                                    chords, guitar, bass, and drum tabs
                                    from Ultimate-Guitar.com database.

                                    Type "ultimate guitar tabs" in Apple
                                    App Store's or Android Market's
                                    search to find the application.
Gtr I (C G C F A D) - 'Dan Jacobs'
Gtr II (C G C F A D) - 'Travis Miguel'


   Intro/Verse
    Q=170
   3/4
    Gtr I
      PM--|           PM--|           PM--|
    E E E E E  E    E E E E E  E    E E E E E  E    E  E  E  E E  E
||---------------|---------------|---------------|------------------|
||o--------------|---------------|---------------|------------------|
||---------------|---------------|---------------|------------------|
||---------------|---------------|---------------|----10------------|
||o-8-------8-10-|-12-------8-10-|-12-------8-10-|-12----12-10-8-10-|
||----0-0-0------|----0-0-0------|----0-0-0------|------------------|
|
|   Gtr II
|     PM--|           PM--|           PM--|
|   E E E E E  E    E E E E E  E    E E E E E  E    E  E  E  E E  E
||---------------|---------------|---------------|------------------|
||o--------------|---------------|---------------|------------------|
||---------------|---------------|---------------|------------------|
||---------------|---------------|---------------|-----7------------|
||o-5-------5--7-|--8-------5--7-|--8-------5--7-|--8-----8--7-5--7-|
||----0-0-0------|----0-0-0------|----0-0-0------|------------------|


    PM----------|     PM------|     PM----------|     PM------|
  E E S S E S S E   E E E E E E   E E S S E S S E   E E E E E E   4x
|-----------------|-------------|-----------------|---------------||
|-----------------|-------------|-----------------|--------------o||
|-----------------|-------------|-----------------|---------------||
|-----------------|-------------|-----------------|---------------||
|-3---------------|-3-----------|-3---------------|-3------------o||
|---7-7-7-7-7-7-7-|---6-6-6-6-6-|---5-5-5-5-5-5-5-|---4-4-4-4-4---||
|
|   PM----------|     PM------|     PM----------|     PM------|
| E E S S E S S E   E E E E E E   E E S S E S S E   E E E E E E   4x
|-----------------|-------------|-----------------|---------------||
|-----------------|-------------|-----------------|--------------o||
|-----------------|-------------|-----------------|---------------||
|-----------------|-------------|-----------------|---------------||
|-7---------------|-6-----------|-5---------------|-4------------o||
|-7-7-7-7-7-7-7-7-|-6-6-6-6-6-6-|-5-5-5-5-5-5-5-5-|-4-4-4-4-4-4---||


 Pre-Chorus
  Gtrs I, II
  E E E E E E   E E E E E E   E E E E E E   E E E E E E
|-------------|-------------|-------------|--------------||
|-------------|-------------|-------------|--------------||
|-------------|-------------|-7-7-7-7-7-7-|-7-7-7-7-7-7--||
|-3-3-3-3-3-3-|-3-3-3-3-3-3-|-7-7-7-7-7-7-|-7-7-7-7-7-7--||
|-3-3-3-3-3-3-|-3-3-3-3-3-3-|-5-5-5-5-5-5-|-5-5-5-5-5-5--||
|-3-3-3-3-3-3-|-3-3-3-3-3-3-|-------------|--------------||


 Chorus
  Gtr I
  E E E E E E    E  E  E  E  E  E    E  E  E  E  E  E    E  E  E  E  E  E
|-------------|-------------------|-------------------|---------------------|
|-------------|-------------------|-------------------|---------------------|
|-------------|-------------------|-------------------|---------------------|
|-7-7-7-7-7-7-|--7--7--7--7--7--7-|--7--7--7--7--7--7-|--7--7--7--7--7--7---|
|-7-7-7-7-7-7-|--7--7--7--7--7--7-|--7--7--7--7--7--7-|--7--7--7--7--7--7---|
|-7-7-7-7-7-7-|--7--7--7--7--7--7-|--7--7--7--7--7--7-|--7--7--7--7--7--7---|
|
| Gtr II
| E E E E E E    E  E  E  E  E  E    E  E  E  E  E  E    E  E  E  E  E  E
|-------------|-------------------|-------------------|---------------------|
|-------------|-------------------|-------------------|---------------------|
|-9-9-9-9-9-9S|=12-12-12-12-12-12S|=14-14-14-14-14-14S|=12-12-12-12-12-12S==|
|-x-x-x-x-x-x-|--x--x--x--x--x--x-|--x--x--x--x--x--x-|--x--x--x--x--x--x---|
|-7-7-7-7-7-7S|=10-10-10-10-10-10S|=12-12-12-12-12-12S|=10-10-10-10-10-10S==|
|-------------|-------------------|-------------------|---------------------|


   E  E  E  E  E  E    E  E  E  E  E  E
|-------------------|-------------------|
|-------------------|-------------------|
|-------------------|-------------------|
|-10-10-10-10-10-10-|-10-10-10-10-10-10-|
|-10-10-10-10-10-10-|-10-10-10-10-10-10-|
|-10-10-10-10-10-10-|-10-10-10-10-10-10-|
|
|  E  E  E  E  E  E    E  E  E  E  E  E
|-------------------|-------------------|
|-------------------|-------------------|
|-14-14-14-14-14-14S|=12-12-12-12-12-12S|
|--x--x--x--x--x--x-|--x--x--x--x--x--x-|
|-12-12-12-12-12-12S|=10-10-10-10-10-10S|
|-------------------|-------------------|


   E  E  E  E  E  E    E  E  E  E  E  E
|-------------------|---------------------|
|-------------------|---------------------|
|-------------------|---------------------|
|-10-10-10-10-10-10-|-10-10-10-10-10-10---|
|-10-10-10-10-10-10-|-10-10-10-10-10-10---|
|-10-10-10-10-10-10-|-10-10-10-10-10-10---|
|
|  E  E  E  E  E  E    E  E  E  E  E  E
|-------------------|---------------------|
|-------------------|---------------------|
|--9--9--9--9--9--9S|=12-12-12-12-12-12S==|
|--x--x--x--x--x--x-|--x--x--x--x--x--x---|
|--7--7--7--7--7--7S|=10-10-10-10-10-10S==|
|-------------------|---------------------|


  E E E E E E    E  E  E  E  E  E    E  E  E  E  E  E    E  E  E  E  E  E
|-------------|-------------------|-------------------|---------------------|
|-------------|-------------------|-------------------|---------------------|
|-------------|-------------------|-------------------|---------------------|
|-5-5-5-5-5-5-|--5--5--5--5--5--5-|--5--5--5--5--5--5-|--5--5--5--5--5--5---|
|-5-5-5-5-5-5-|--5--5--5--5--5--5-|--5--5--5--5--5--5-|--5--5--5--5--5--5---|
|-5-5-5-5-5-5-|--5--5--5--5--5--5-|--5--5--5--5--5--5-|--5--5--5--5--5--5---|
|
| E E E E E E    E  E  E  E  E  E    E  E  E  E  E  E    E  E  E  E  E  E
|-------------|-------------------|-------------------|---------------------|
|-------------|-------------------|-------------------|---------------------|
|-9-9-9-9-9-9S|=12-12-12-12-12-12S|=14-14-14-14-14-14S|=12-12-12-12-12-12S==|
|-x-x-x-x-x-x-|--x--x--x--x--x--x-|--x--x--x--x--x--x-|--x--x--x--x--x--x---|
|-7-7-7-7-7-7S|=10-10-10-10-10-10S|=12-12-12-12-12-12S|=10-10-10-10-10-10S==|
|-------------|-------------------|-------------------|---------------------|


   E  E  E  E  E  E    E  E  E  E  E  E   E E E E E E    E  E  E  E  E  E
|-------------------|-------------------|-------------|--------------------||
|-------------------|-------------------|-------------|--------------------||
|-------------------|-------------------|-------------|--------------------||
|--0--0--0--0--0--0-|--0--0--0--0--0--0-|-0-0-0-0-0-0-|--0--0--0--0--0--0--||
|--0--0--0--0--0--0-|--0--0--0--0--0--0-|-0-0-0-0-0-0-|--0--0--0--0--0--0--||
|--0--0--0--0--0--0-|--0--0--0--0--0--0-|-0-0-0-0-0-0-|--0--0--0--0--0--0--||
|
|  E  E  E  E  E  E    E  E  E  E  E  E   E E E E E E    E  E  E  E  E  E
|-------------------|-------------------|-------------|--------------------||
|-------------------|-------------------|-------------|--------------------||
|-14-14-14-14-14-14S|=12-12-12-12-12-12S|=9-9-9-9-9-9S|=12-12-12-12-12-12--||
|--x--x--x--x--x--x-|--x--x--x--x--x--x-|-x-x-x-x-x-x-|--x--x--x--x--x--x--||
|-12-12-12-12-12-12S|=10-10-10-10-10-10S|=7-7-7-7-7-7S|=10-10-10-10-10-10--||
|-------------------|-------------------|-------------|--------------------||


 Verse
    PM------|     PM------|      PM------|      PM------|
  E E E E E E   E E E E E E    E E E E E E    E E E E E E
|-------------|-------------|--------------|---------------|
|-------------|-------------|--------------|---------------|
|-------------|-------------|--------------|---------------|
|-------------|-------------|--------------|---------------|
|-8-----------|-8-----------|-12-----------|-12------------|
|---0-0-0-0-0-|---0-0-0-0-0-|----0-0-0-0-0-|----0-0-0-0-0--|
|
|   PM------|     PM------|      PM------|      PM------|
| E E E E E E   E E E E E E    E E E E E E    E E E E E E
|-------------|-------------|--------------|---------------|
|-------------|-------------|--------------|---------------|
|-------------|-------------|--------------|---------------|
|-------------|-------------|--------------|---------------|
|-5-----------|-5-----------|--8-----------|--8------------|
|---0-0-0-0-0-|---0-0-0-0-0-|----0-0-0-0-0-|----0-0-0-0-0--|


     PM------|      PM------|     PM------|     PM------|
   E E E E E E    E E E E E E   E E E E E E   E E E E E E
|--------------|--------------|-------------|--------------|
|--------------|--------------|-------------|--------------|
|--------------|--------------|-------------|--------------|
|--------------|--------------|-------------|--------------|
|-10-----------|-10-----------|-7-----------|-7-------5-7--|
|----7-7-7-7-7-|----7-7-7-7-7-|---7-7-7-7-7-|---7-7-7------|
|
|    PM------|      PM------|     PM------|     PM--|
|  E E E E E E    E E E E E E   E E E E E E   E E E E E E
|--------------|--------------|-------------|--------------|
|--------------|--------------|-------------|--------------|
|--------------|--------------|-------------|--------------|
|--------------|--------------|-------------|--------------|
|--7-----------|--7-----------|-4-----------|-4-------0-3--|
|----7-7-7-7-7-|----7-7-7-7-7-|---7-7-7-7-7-|---7-7-7------|


    PM------|     PM------|      PM------|      PM------|
  E E E E E E   E E E E E E    E E E E E E    E E E E E E
|-------------|-------------|--------------|---------------|
|-------------|-------------|--------------|---------------|
|-------------|-------------|--------------|---------------|
|-------------|-------------|--------------|---------------|
|-8-----------|-8-----------|-12-----------|-12------------|
|---0-0-0-0-0-|---0-0-0-0-0-|----0-0-0-0-0-|----0-0-0-0-0--|
|
|   PM------|     PM------|      PM------|      PM------|
| E E E E E E   E E E E E E    E E E E E E    E E E E E E
|-------------|-------------|--------------|---------------|
|-------------|-------------|--------------|---------------|
|-------------|-------------|--------------|---------------|
|-------------|-------------|--------------|---------------|
|-5-----------|-5-----------|--8-----------|--8------------|
|---0-0-0-0-0-|---0-0-0-0-0-|----0-0-0-0-0-|----0-0-0-0-0--|


     PM------|      PM------|     PM------|     PM------|
   E E E E E E    E E E E E E   E E E E E E   E E E E E E
|--------------|--------------|-------------|--------------||
|--------------|--------------|-------------|--------------||
|--------------|--------------|-------------|--------------||
|--------------|--------------|-------------|--------------||
|-10-----------|-10-----------|-7-----------|-7------------||
|----7-7-7-7-7-|----7-7-7-7-7-|---7-7-7-7-7-|---7-7-7-7-7--||
|
|    PM------|      PM------|     PM------|     PM--|
|  E E E E E E    E E E E E E   E E E E E E   E E E E E E
|--------------|--------------|-------------|--------------||
|--------------|--------------|-------------|--------------||
|--------------|--------------|-------------|--------------||
|--------------|--------------|-------------|--------------||
|--7-----------|--7-----------|-4-----------|-4-------0-3--||
|----7-7-7-7-7-|----7-7-7-7-7-|---7-7-7-7-7-|---7-7-7------||


 Bridge
    ~~~          ~~           ~~
    H    E  E    H    E  E    H    E  E    E  E  E  E E  E
|-------------|------------|------------|-------------------|
|-------------|------------|------------|-------------------|
|-------------|------------|------------|-------------------|
|-------------|------------|------------|----10-------------|
|-/12----8-10-|-12----8-10-|-12----8-10-|-12----12-10-8-10--|
|-------------|------------|------------|-------------------|
|
|   ~~~          ~~           ~~
|   H    E  E    H    E  E    H    E  E    E  E  E  E E  E
|-------------|------------|------------|-------------------|
|-------------|------------|------------|-------------------|
|-------------|------------|------------|-------------------|
|-------------|------------|------------|-----7-------------|
|--/8----5--7-|--8----5--7-|--8----5--7-|--8-----8--7-5--7--|
|-------------|------------|------------|-------------------|


  Q   E E E E    Q     E  E  E  E    Q     E  E  E  E    Q     E  E  E  E
|-------------|-------------------|-------------------|--------------------|
|-------------|-------------------|-------------------|--------------------|
|-------------|-------------------|-------------------|--------------------|
|-7---7-7-7-7-|--6-----6--6--6--6-|--5-----5--5--5--5-|--0-----0--0--0--0--|
|-7---7-7-7-7-|--6-----6--6--6--6-|--5-----5--5--5--5-|--0-----0--0--0--0--|
|-7---7-7-7-7-|--6-----6--6--6--6-|--5-----5--5--5--5-|--0-----0--0--0--0--|
|
| E E E E E E    E  E  E  E  E  E    E  E  E  E  E  E    E  E  E  E  E  E
|-------------|-------------------|-------------------|--------------------|
|-------------|-------------------|-------------------|--------------------|
|-9-9-9-9-9-9S|=12-12-12-12-12-12S|=14-14-14-14-14-14S|=12-12-12-12-12-12--|
|-x-x-x-x-x-x-|--x--x--x--x--x--x-|--x--x--x--x--x--x-|--x--x--x--x--x--x--|
|-7-7-7-7-7-7S|=10-10-10-10-10-10S|=12-12-12-12-12-12S|=10-10-10-10-10-10--|
|-------------|-------------------|-------------------|--------------------|


    ~~~          ~~           ~~
    H    E  E    H    E  E    H    E  E    E  E  E  E E  E
|-------------|------------|------------|-------------------|
|-------------|------------|------------|-------------------|
|-------------|------------|------------|-------------------|
|-------------|------------|------------|----10-------------|
|-/12----8-10-|-12----8-10-|-12----8-10-|-12----12-10-8-10--|
|-------------|------------|------------|-------------------|
|
|   ~~~          ~~           ~~
|   H    E  E    H    E  E    H    E  E    E  E  E  E E  E
|-------------|------------|------------|-------------------|
|-------------|------------|------------|-------------------|
|-------------|------------|------------|-------------------|
|-------------|------------|------------|-----7-------------|
|--/8----5--7-|--8----5--7-|--8----5--7-|--8-----8--7-5--7--|
|-------------|------------|------------|-------------------|


  Q   E E E E    Q     E  E  E  E    Q     E  E  E  E    Q     E  E  E  E
|-------------|-------------------|-------------------|---------------------||
|-------------|-------------------|-------------------|---------------------||
|-------------|-------------------|-------------------|---------------------||
|-7---7-7-7-7-|--6-----6--6--6--6-|--5-----5--5--5--5-|--0-----0--0--0--0---||
|-7---7-7-7-7-|--6-----6--6--6--6-|--5-----5--5--5--5-|--0-----0--0--0--0---||
|-7---7-7-7-7-|--6-----6--6--6--6-|--5-----5--5--5--5-|--0-----0--0--0--0---||
|
| E E E E E E    E  E  E  E  E  E    E  E  E  E  E  E    E  E  E  E  E  E
|-------------|-------------------|-------------------|---------------------||
|-------------|-------------------|-------------------|---------------------||
|-9-9-9-9-9-9S|=12-12-12-12-12-12S|=14-14-14-14-14-14S|=17-17-17-17-17-17S==||
|-x-x-x-x-x-x-|--x--x--x--x--x--x-|--x--x--x--x--x--x-|--x--x--x--x--x--x---||
|-7-7-7-7-7-7S|=10-10-10-10-10-10S|=12-12-12-12-12-12S|=15-15-15-15-15-15S==||
|-------------|-------------------|-------------------|---------------------||


 Pre-Verse
   E  E  E  E  E  E    E  E  E  E  E  E   E E E E E  E   E E E E E E
|-------------------|-------------------|--------------|--------------||
|-------------------|-------------------|--------------|--------------||
|-------------------|-------------------|-7-7-7-7-7--7-|-7-7-7-7-7-7--||
|--3--3--3--3--3--3-|--3--3--3--3--3--3-|-7-7-7-7-7--7-|-7-7-7-7-7-7--||
|--3--3--3--3--3--3-|--3--3--3--3--3--3-|-5-5-5-5-5--5-|-5-5-5-5-5-5--||
|--3--3--3--3--3--3-|--3--3--3--3--3--3-|--------------|--------------||
|
|  E  E  E  E  E  E    E  E  E  E  E  E   E E E E E  E   E E E E E E
|-------------------|-------------------|--------------|--------------||
|-------------------|-------------------|--------------|--------------||
|-10-10-10-10-10-10-|-10-10-10-10-10-10S|=9-9-9-9-9S10S|=7-7-7-7-7-7--||
|--x--x--x--x--x--x-|--x--x--x--x--x--x-|-x-x-x-x-x--x-|-x-x-x-x-x-x--||
|--8--8--8--8--8--8-|--8--8--8--8--8--8S|=7-7-7-7-7S=8S|=5-5-5-5-5-5--||
|-------------------|-------------------|--------------|--------------||


 Verse
                       PM--|
  W                    S S S S Q   Q
|--------------------|-----------------|
|--------------------|-----------------|
|--------------------|-----------------|
|--------------------|-----------------|
|--------------------|-0-0-0-------7\--|
|--------------------|-0-0-0-------7\--|
|
| PM--|   PM--|                PM|
| S S S S S S S S Q    Q       E E Q
|--------------------|-----------------|
|--------------------|-----------------|
|--------------------|-----------------|
|--------------------|-----------------|
|-0-0-0---0-0-0------|---------0-0-7\--|
|-0-0-0---0-0-0------|---------0-0-7\--|


    Gtrs I, II
    PM--|   PM----|      PM--|   PM-----------
    S S S S S S S S Q    S S S S S S S S E E
||---------------------|---------------------|
||o--------------------|---------------------|
||---------------------|---------------------|
||---------------------|---------------------|
||o-0-0-0---0-0-0------|-0-0-0---0-0-0---0-0-|
||--0-0-0---0-0-0------|-0-0-0---0-0-0---0-0-|


 -----|   PM----|      PM--|   PM--------|
  S S S S S S S S Q    S S S S S S S S E E
|--------------------|---------------------|
|--------------------|---------------------|
|--------------------|---------------------|
|--------------------|---------------------|
|-0-0-0---0-0-0------|-0-0-0---0-0-0---0-0-|
|-0-0-0---0-0-0------|-0-0-0---0-0-0---0-0-|


  E E E E E E   E E E E E E   E E E E E E   E E E E E E   4x
|-------------|-------------|-------------|---------------||
|-------------|-------------|-------------|--------------o||
|-------------|-------------|-------------|---------------||
|-7-7-7-7-7-7-|-6-6-6-6-6-6-|-5-5-5-5-5-5-|-0-0-0-0-0-0---||
|-7-7-7-7-7-7-|-6-6-6-6-6-6-|-5-5-5-5-5-5-|-0-0-0-0-0-0--o||
|-7-7-7-7-7-7-|-6-6-6-6-6-6-|-5-5-5-5-5-5-|-0-0-0-0-0-0---||


 Pre-Chorus
  E E E E E E   E E E E E E   E E E E E E   E E E E E E
|-------------|-------------|-------------|--------------||
|-------------|-------------|-------------|--------------||
|-------------|-------------|-7-7-7-7-7-7-|-7-7-7-7-7-7--||
|-3-3-3-3-3-3-|-3-3-3-3-3-3-|-7-7-7-7-7-7-|-7-7-7-7-7-7--||
|-3-3-3-3-3-3-|-3-3-3-3-3-3-|-5-5-5-5-5-5-|-5-5-5-5-5-5--||
|-3-3-3-3-3-3-|-3-3-3-3-3-3-|-------------|--------------||


   Out-Chorus
    E E E E E E    E  E  E  E  E  E    E  E  E  E  E  E    E  E  E  E  E  E
||--------------|-------------------|-------------------|--------------------|
||o-------------|-------------------|-------------------|--------------------|
||--------------|-------------------|-------------------|--------------------|
||--7-7-7-7-7-7-|--7--7--7--7--7--7-|--7--7--7--7--7--7-|--7--7--7--7--7--7--|
||o-7-7-7-7-7-7-|--7--7--7--7--7--7-|--7--7--7--7--7--7-|--7--7--7--7--7--7--|
||--7-7-7-7-7-7-|--7--7--7--7--7--7-|--7--7--7--7--7--7-|--7--7--7--7--7--7--|
|
|   Gtr II
|   E E E E E E    E  E  E  E  E  E    E  E  E  E  E  E    E  E  E  E  E  E
||--------------|-------------------|-------------------|--------------------|
||o-------------|-------------------|-------------------|--------------------|
||--9-9-9-9-9-9S|=12-12-12-12-12-12S|=14-14-14-14-14-14S|=12-12-12-12-12-12S=|
||--x-x-x-x-x-x-|--x--x--x--x--x--x-|--x--x--x--x--x--x-|--x--x--x--x--x--x--|
||o-7-7-7-7-7-7S|=10-10-10-10-10-10S|=12-12-12-12-12-12S|=10-10-10-10-10-10S=|
||--------------|-------------------|-------------------|--------------------|


   E  E  E  E  E  E    E  E  E  E  E  E
|-------------------|-------------------|
|-------------------|-------------------|
|-------------------|-------------------|
|-10-10-10-10-10-10-|-10-10-10-10-10-10-|
|-10-10-10-10-10-10-|-10-10-10-10-10-10-|
|-10-10-10-10-10-10-|-10-10-10-10-10-10-|
|
|  E  E  E  E  E  E    E  E  E  E  E  E
|-------------------|-------------------|
|-------------------|-------------------|
|-14-14-14-14-14-14S|=12-12-12-12-12-12S|
|--x--x--x--x--x--x-|--x--x--x--x--x--x-|
|-12-12-12-12-12-12S|=10-10-10-10-10-10S|
|-------------------|-------------------|


   E  E  E  E  E  E    E  E  E  E  E  E
|-------------------|---------------------|
|-------------------|---------------------|
|-------------------|---------------------|
|-10-10-10-10-10-10-|-10-10-10-10-10-10---|
|-10-10-10-10-10-10-|-10-10-10-10-10-10---|
|-10-10-10-10-10-10-|-10-10-10-10-10-10---|
|
|  E  E  E  E  E  E    E  E  E  E  E  E
|-------------------|---------------------|
|-------------------|---------------------|
|--9--9--9--9--9--9S|=12-12-12-12-12-12S==|
|--x--x--x--x--x--x-|--x--x--x--x--x--x---|
|--7--7--7--7--7--7S|=10-10-10-10-10-10S==|
|-------------------|---------------------|


  E E E E E E    E  E  E  E  E  E    E  E  E  E  E  E    E  E  E  E  E  E
|-------------|-------------------|-------------------|---------------------|
|-------------|-------------------|-------------------|---------------------|
|-------------|-------------------|-------------------|---------------------|
|-5-5-5-5-5-5-|--5--5--5--5--5--5-|--5--5--5--5--5--5-|--5--5--5--5--5--5---|
|-5-5-5-5-5-5-|--5--5--5--5--5--5-|--5--5--5--5--5--5-|--5--5--5--5--5--5---|
|-5-5-5-5-5-5-|--5--5--5--5--5--5-|--5--5--5--5--5--5-|--5--5--5--5--5--5---|
|
| E E E E E E    E  E  E  E  E  E    E  E  E  E  E  E    E  E  E  E  E  E
|-------------|-------------------|-------------------|---------------------|
|-------------|-------------------|-------------------|---------------------|
|-9-9-9-9-9-9S|=12-12-12-12-12-12S|=14-14-14-14-14-14S|=12-12-12-12-12-12S==|
|-x-x-x-x-x-x-|--x--x--x--x--x--x-|--x--x--x--x--x--x-|--x--x--x--x--x--x---|
|-7-7-7-7-7-7S|=10-10-10-10-10-10S|=12-12-12-12-12-12S|=10-10-10-10-10-10S==|
|-------------|-------------------|-------------------|---------------------|


   E  E  E  E  E  E    E  E  E  E  E  E   E E E E E E    E  E  E  E  E  E
|-------------------|-------------------|-------------|---------------------||
|-------------------|-------------------|-------------|--------------------o||
|-------------------|-------------------|-------------|---------------------||
|--0--0--0--0--0--0-|--0--0--0--0--0--0-|-0-0-0-0-0-0-|--0--0--0--0--0--0---||
|--0--0--0--0--0--0-|--0--0--0--0--0--0-|-0-0-0-0-0-0-|--0--0--0--0--0--0--o||
|--0--0--0--0--0--0-|--0--0--0--0--0--0-|-0-0-0-0-0-0-|--0--0--0--0--0--0---||
|
|  E  E  E  E  E  E    E  E  E  E  E  E   E E E E E E    E  E  E  E  E  E
|-------------------|-------------------|-------------|---------------------||
|-------------------|-------------------|-------------|--------------------o||
|-14-14-14-14-14-14S|=12-12-12-12-12-12S|=9-9-9-9-9-9S|=12-12-12-12-12-12---||
|--x--x--x--x--x--x-|--x--x--x--x--x--x-|-x-x-x-x-x-x-|--x--x--x--x--x--x---||
|-12-12-12-12-12-12S|=10-10-10-10-10-10S|=7-7-7-7-7-7S|=10-10-10-10-10-10--o||
|-------------------|-------------------|-------------|---------------------||


 Outro
                                 >
    PM--|           PM--|        PM
  E E E E E  E    E E E E E  E   H.
|--------------|---------------|-------*|
|--------------|---------------|-------*|
|--------------|---------------|-------*|
|--------------|---------------|-0-----*|
|-8-------8-10-|-12-------8-10-|-0-----*|
|---0-0-0------|----0-0-0------|-0-----*|
|
| Gtr II
|                                >
|   PM--|           PM--|        PM
| E E E E E  E    E E E E E  E   H.
|--------------|---------------|-------*|
|--------------|---------------|-------*|
|--------------|---------------|-------*|
|--------------|---------------|-0-----*|
|-5-------5--7-|--8-------5--7-|-0-----*|
|---0-0-0------|----0-0-0------|-0-----*|




--------------------------------------------------------------------------------


Duration Legend
---------------
W - whole; H - half; Q - quarter; E - 8th; S - 16th; T - 32nd; X - 64th; a - acciaccatura
+ - note tied to previous; . - note dotted; .. - note double dotted
Uncapitalized letters represent notes that are staccato (1/2 duration)
Irregular groupings are notated above the duration line
Duration letters will always appear directly above the note/fret number it represents the
duration for.  Duration letters with no fret number below them represent rests.  Multi-
bar rests are notated in the form Wxn, where n is the number of bars to rest for.  Low
melody durations appear below the staff

Tablature Legend
----------------
 h   - hammer-on
 p   - pull-off
 b   - bend
 pb  - pre-bend
 r   - bend release (if no number after the r, then release immediately)
 /\  - slide into or out of (from/to "nowhere")
 s   - legato slide
 S   - shift slide
<n> - natural harmonic
[n]  - artificial harmonic
n(n) - tapped harmonic
 ~   - vibrato
 tr  - trill
 T   - tap
 TP  - trem. picking
 PM  - palm muting
\n/  - tremolo bar dip; n = amount to dip
 \n  - tremolo bar down
 n/  - tremolo bar up
/n\  - tremolo bar inverted dip
 =   - hold bend; also acts as connecting device for hammers/pulls
 <> - volume swell (louder/softer)
 x   - on rhythm slash represents muted slash
 o   - on rhythm slash represents single note slash

Misc Legend
-----------
 |  - bar
||  - double bar
||o - repeat start
o|| - repeat end
*|  - double bar (ending)
 :  - bar (freetime)
 $  - Segno
 &  - Coda
Tempo markers - <E/E./Q/Q./H/H.> = BPM(8/16=s8/s16), where s8 = swing 8ths, s16 = swing 16ths

comments
We did not receive enough feedback on this tab! Please rate:
print report bad tab
1 2 3 4 5
4 comments total. Showing first comments.
-1 reply
bushdawg23 wrote on September 28 2006, 11:27 am

PM----------| PM------| PM----------| PM------|
E E S S E S S E E E E E E E E E S S E S S E E E E E E E 4x
|-----------------|-------------|-----------------|---------------||
|-----------------|-------------|-----------------|--------------o||
|-----------------|-------------|-----------------|---------------||
|-7---------------|-6-----------|-5---------------|-4-------------||
|-7---------------|-6-----------|-5---------------|-4------------o||
|-7-7-7-7-7-7-7-7-|-6-6-6-6-6-6-|-5-5-5-5-5-5-5-5-|-4-4-4-4-4-4---||
|
| PM----------| PM------| PM----------| PM------|
| E E S S E S S E E E E E E E E E S S E S S E E E E E E E 4x
|-----------------|-------------|-----------------|---------------||
|-----------------|-------------|-----------------|--------------o||
|-----------------|-------------|-----------------|---------------||
|-----------------|-------------|-----------------|---------------||
|-4---------------|-3-----------|-2---------------|-1------------o||
|---7-7-7-7-7-7-7-|---6-6-6-6-6-|---5-5-5-5-5-5-5-|---4-4-4-4-4---||


instead of that try this:

guitar 1 (5th and 6th strings)
|-3--------3--------3--------3------------|
|--77777777-66666666-55555555-44444444----|

guitar 2 (4th-6th strings)
|-2--------2--------2--------3------------|
|-----------------------------------------|
|--77777777-66666666-55555555-44444444----|

other than that it looks good

+1 reply
xX_vengeance_Xx wrote on April 25 2007, 10:30 pm

great tab 5 stars

0 reply
N008 wrote on April 16 2008, 02:43 am

it sound like ur missing parts after the second verse mind explaining

I want to post or [tab]
guest
You may want to rate the tab now too:
select rating
Please do not post tabs as comments. Select "correction" instead!