Oops, an error
Loading. Please wait.

Creature Tab

ver5
ver5
More versions @911Tabs.com
872 views 1 this week
no commentswrite comment
1 2 3 4 5
worth learning
x 1
Autoscroll
+/-
esc
set tempo
stop
Contributor
Tuning
C G C F A D
WARNING: You are trying to view
                                    content from Ultimate-Guitar.com
                                    in an unauthorized application,
                                    which is prohibited.

                                    Please use an official Ultimate
                                    Guitar Tabs application for iPhone,
                                    iPad or Android to access legitimate
                                    chords, guitar, bass, and drum tabs
                                    from Ultimate-Guitar.com database.

                                    Type "ultimate guitar tabs" in Apple
                                    App Store's or Android Market's
                                    search to find the application.
Tuning:(low to high)C-G-C-F-A-D


verse

Guitar 1
         P.M----|          P.M----|          P.M-----------------------------|
D----------------------------------------------------------------------------|
A----------------------------------------------------------------------------|
F----------------------------------------------------------------------------|
C--------------------------------------------------------------10------------|
G------8-----------8-10/12-----------8-10/12-----------8-10/12----12\10-8-10-|
C---------0--0--0-----------0--0--0-----------0--0--0------------------------|

Guitar 2
        P.M-----|         P.M-----|         P.M-------------------------------|
D-----------------------------------------------------------------------------|
A-----------------------------------------------------------------------------|
F-----------------------------------------------------------------------------|
C--------------------------------------------------------------7--------------|
G------5-----------5--7--8-----------5--7--8-----------5--7--8----8--7--5--7--|
C---------0--0--0-----------0--0--0-----------0--0--0-------------------------|

Guitar 1
      P.M-----------|    P.M------------|    P.M-----------|    P.M-----------|
D-----------------------------------------------------------------------------|
A-----------------------------------------------------------------------------|
F-----------------------------------------------------------------------------|
C-----------------------------------------------------------------------------|
G---7------------------7-------------------7------------------7-------------0-|
C-----7--7-7-7--7-7-7----6--6--6--6--6--6----5--5-5-5--5-5-5----4--4--4--4--0-|


Guitar 2
      P.M-----------|    P.M------------|    P.M-----------|    P.M-----------|
D-----------------------------------------------------------------------------|
A-----------------------------------------------------------------------------|
F-----------------------------------------------------------------------------|
C-----------------------------------------------------------------------------|
G---3------------------3-3--3--3--3--3--3--3------------------3-3--3--3--3--0-|
C-----7--7-7-7--7-7-7----6--6--6--6--6--6----5--5-5-5--5-5-5----4--4--4--4--0-|

Pre Chorus

Guitar 1&2

D----------------------------------------------------------------------------|
A----------------------------------------------------------------------------|
F--2---2--2--2--2---------------------7-----7---7---7---7---7-----7---7---7--|
C--3---3--3--3--3---3---3--3--3--0----7-----7---7---7---7---7-----7---7---7--|
G--3---3--3--3--3---3---3--3--3--0----5-----5---5---5---5---5-----5---5---5--|
C--3---3--3--3--3---3---3--3--3--0-------------------------------------------|

D-------|
A-------|
F-------|
C--5----|
G--5----|
C-------|


Guitar 1&2
Chorus

D----------------------------------------------------------------------------|
A----------------------------------------------------------------------------|
F----9--9--9--9--9--9--9/12--12--12--12--12---12/14--14--14--14--14--14\12---|
C----x--x--x--x--x--x--x-----x---x---x---x----x------x---x---x---x---x-------|
G----7--7--7--7--7--7--7/10--10--10--10--10---10/12--12--12--12--12--12\10---|
C----------------------------------------------------------------------------|


D----------------------------------------------------------------------------|
A----------------------------------------------------------------------------|
F---12--12--12--12/14--14--14--14--14--14\12--12--12--12--12--12\9--9--9--9--|
C---x---x---x---x--x---x---x---x---x---x--x---x---x---x---x---x--x--x--x--x--|
G---10--10--10--10/12--12--12--12--12--12\10--10--10--10--10--10\7--7--7--7--|
C----------------------------------------------------------------------------|


D----------------------------------------------------------------------------|
A----------------------------------------------------------------------------|
F--9--9/12--12--12--12--12--12\9--9--9--9--9--9----9/12--12--12--12--12--12/-|
C--x--x-x---x---x---x---x---x--x--x--x--x--x--x----x-x---x---x---x---x---x-/-|
G--7--7/10--10--10--10--10--10\7--7--7--7--7--7----7/10--10--10--10--10--10/-|
C----------------------------------------------------------------------------|


D----------------------------------------------------------------------------|
A----------------------------------------------------------------------------|
F--/14--14--14--14--14--14--14--14--14--14/17\14--14--14--14--14--14\12--12--|
C---x---x---x---x---x---x---x---x---x---x-----x---x---x---x---x---x--x---x---|
G--/12--12--12--12--12--12--12--12--12--12/15\12--12--12--12--12--12\10--10--|
C----------------------------------------------------------------------------|


D-------------------------------------------------------------|
A-------------------------------------------------------------|
F--12--12--12--12\9--9--9--9--9--9/12--12--12--12--12--12-----|
C--x---x---x---x--x--x--x--x--x--x-x---x---x---x---x---x------|
G--10--10--10--10\7--7--7--7--7--7/10--10--10--10--10--10-----|
C-------------------------------------------------------------|


Verse
Guitar 1&2
        P.M-----------|       P.M-----------|       P.M-----------------------|
D-----------------------------------------------------------------------------|
A-----------------------------------------------------------------------------|
F-----------------------------------------------------------------------------|
C-----------------------------------------------------------------------------|
G---5----0--0--0--0--0----5----0--0--0--0--0----8----0--0--0--0--0-----8------|
C--------0--0--0--0--0---------0--0--0--0--0---------0--0--0--0--0------------|


   P.M-----------|       P.M-----------|       P.M----------------------------|
D-----------------------------------------------------------------------------|
A-----------------------------------------------------------------------------|
F-----------------------------------------------------------------------------|
C-----------------------------------------------------------------------------|
G---0--0--0--0--0----7----7--7--7--7--7----7----7--7--7--7--7----4----4--4----|
C---0--0--0--0--0---------7--7--7--7--7---------7--7--7--7--7---------7--7----|


   P.M-----------|    P.M-------|            P.M-------|            P.M------|
D----------------------------------------------------------------------------|
A----------------------------------------------------------------------------|
F----------------------------------------------------------------------------|
C----------------------------------------------------------------------------|
G---4--4--4--4----8----0--0--0--0---10----8---0--0--0--0---10---12---0--0--0-|
C---7--7--7--7---------0--0--0--0-------------0--0--0--0-------------0--0--0-|


   -----|      P.M-----------|      P.M-----------|      P.M------------------|
D-----------------------------------------------------------------------------|
A-----------------------------------------------------------------------------|
F-----------------------------------------------------------------------------|
C-----------------------------------------------------------------------------|
G---0--0---12---0--0--0--0--0---10---7--7--7--7--7---10---7--7--7--7--7---4---|
C---0--0--------0--0--0--0--0--------7--7--7--7--7--------7--7--7--7--7-------|

  P.M-----------|      P.M----------|     P.M-----------|      P.M------------|
D-----------------------------------------------------------------------------|
A-----------------------------------------------------------------------------|
F-----------------------------------------------------------------------------|
C-----------------------------------------------------------------------------|
G--4--4--4--4--4---7---7--7--7--7--7---7---7--7--7--7--7---4---4--4--4--4--4--|
C--7--7--7--7--7-------7--7--7--7--7-------7--7--7--7--7-------7--7--7--7--7--|

      P.M-------------------------|
D---------------------------------|
A---------------------------------|
F---------------------------------|
C---------------------------------|
G--4---4--4--4--4--4----1---3-----|
C------7--7--7--7--7--------------|

Guitar 1

D----------------------------------------------------------------------------|
A----------------------------------------------------------------------------|
F----------------------------------------------------------------------------|
C-----------------------------------------------10---------------------------|
G----8-----8--10/12-----8--10/12-----8--10/12--------12\10--8--10\-----------|
C----------------------------------------------------------------------------|

Guitar 2
D----------------------------------------------------------------------------|
A----------------------------------------------------------------------------|
F----------------------------------------------------------------------------|
C-----------------------------------------------7----------------------------|
G---/5-----5--7/8-------5---7/8------5---7/8----------8---7---5---7----------|
C----------------------------------------------------------------------------|


D----------------------------------------------------------------------------|
A----------------------------------------------------------------------------|
F---9---9--9--9--9---9/12--12--12--12--12--12/14--14--14--14--14--14\12--12--|
C---x---x--x--x--x---x-x---x---x---x---x---x--x---x---x---x---x---x--x---x---|
G---7---7--7--7--7---7/10--10--10--10--10--10/12--12--12--12--12--12\10--10--|
C----------------------------------------------------------------------------|


D-----------------|
A-----------------|
F--12--12--12\----|
C--x---x---x------|
G--10--10--10\----|
C-----------------|


         P.M----|          P.M----|          P.M-----------------------------|
D----------------------------------------------------------------------------|
A----------------------------------------------------------------------------|
F----------------------------------------------------------------------------|
C--------------------------------------------------------------10------------|
G------8-----------8-10/12-----------8-10/12-----------8-10/12----12\10-8-10-|
C---------0--0--0-----------0--0--0-----------0--0--0------------------------|


D----------------------------------------------------------------------------|
A----------------------------------------------------------------------------|
F---9---9--9--9--9---9/12--12--12--12--12--12/14--14--14--14--14--14\17--17--|
C---x---x--x--x--x---x-x---x---x---x---x---x--x---x---x---x---x---x--x---x---|
G---7---7--7--7--7---7/10--10--10--10--10--10/12--12--12--12--12--12\15--15--|
C----------------------------------------------------------------------------|


D----------------------------------------------------------------------------|
A----------------------------------------------------------------------------|
F--17--17--17\14--14--14--14--14--14--14--14--14--14\10--10--10--10/12\9--9--|
C--x---x---x--x---x---x---x---x---x---x---x---x---x--x---x---x---x--x--x--x--|
G--15--15--15\12--12--12--12--12--12--12--12--12--12\8---8---8---8-/10\7--7--|
C----------------------------------------------------------------------------|


D---------------|
A---------------|
F---9--9--9-----|
C---x--x--x-----|
G---7--7--7-----|
C---------------|


Guitar 1
   P.M-------------------------|
D------------------------------|
A------------------------------|
F------------------------------|
C------------------------------|
G---0--0--0---0--0--0----------|
C---0--0--0---0--0--0----------|

Guitar 2
   P.M-------------------------|
D------------------------------|
A------------------------------|
F------------------------------|
C------------------------------|
G---0--0--0---0--0--7\---------|
C---0--0--0---0--0--7\---------|


Guitar 1&2

   P.M--------------------------------------------------------------|
D-------------------------------------------------------------------|
A-------------------------------------------------------------------|
F-------------------------------------------------------------------|
C-------------------------------------------------------------------|
G---0--0--0---0--0--0---0--0--0--0--0---0---0--0--0---0--0--0-------|
C---0--0--0---0--0--0---0--0--0--0--0---0---0--0--0---0--0--0-------|


Guitar 1&2

  P.M-------------------------------------------------------------------------|
D-----------------------------------------------------------------------------|
A-----------------------------------------------------------------------------|
F-----------------------------------------------------------------------------|
C---------------------------------7--7--7--7--7--7---6--6--6--6--6--6---5--5--|
G---0--0--0---0--0--0--0--0--0----7--7--7--7--7--7---6--6--6--6--6--6---5--5--|
C---0--0--0---0--0--0--0--0--0----7--7--7--7--7--7---6--6--6--6--6--6---5--5--|


D-----------------------------------------|
A-----------------------------------------|
F-----------------------------------------|
C---5--5--5--5---0--0--0--0--0--0---------|
G---5--5--5--5---0--0--0--0--0--0---------|
C---5--5--5--5---0--0--0--0--0--0---------|


outro
        P.M-------|              P.M-------------------------|             P.M
D------------------------------------------------------------|
A------------------------------------------------------------|
F------------------------------------------------------------|
C---------------------------------------------------------0--|
G---8----------------8----10/12---------------8----10-----0--|
C--------0---0---0----------------0---0---0---------------0--|

        P.M-------|              P.M-------------------------|             P.M
D------------------------------------------------------------|
A------------------------------------------------------------|
F------------------------------------------------------------|
C---------------------------------------------------------0--|
G---5---------------5------7/8----------------5-----7-----0--|
C--------0---0---0----------------0---0---0---------------0--|


END!
There i hope you injoy cuz that tuck forever.
comments
We did not receive enough feedback on this tab! Please rate:
print report bad tab
1 2 3 4 5
I want to post or [tab]
guest
You may want to rate the tab now too:
select rating
Please do not post tabs as comments. Select "correction" instead!