Oops, an error
Loading. Please wait.

Deanne The Arsonist Tab

ver4
ver4
More versions @911Tabs.com
433 views 1 this week
1 commentread comment
1 2 3 4 5
worth learning
x 1
Autoscroll
+/-
esc
set tempo
stop
Contributor
WARNING: You are trying to view
                                    content from Ultimate-Guitar.com
                                    in an unauthorized application,
                                    which is prohibited.

                                    Please use an official Ultimate
                                    Guitar Tabs application for iPhone,
                                    iPad or Android to access legitimate
                                    chords, guitar, bass, and drum tabs
                                    from Ultimate-Guitar.com database.

                                    Type "ultimate guitar tabs" in Apple
                                    App Store's or Android Market's
                                    search to find the application.
-------------------------------------------------------------------------------
                             Deanne The Arsonist - Atreyu
-------------------------------------------------------------------------------
Tabbed by:Jon Smith
Email&MSN: KillRevoltuionGuitarist@hotmail.com
AIM:TheKRGuitarist

Tuning:    drop c          EADGBe=CGcFAD
***listen to the song while playing**it helps a lot&it's fun!HAHAHA!!!this tab is
99.9% correct
                                                         please rate
drum intro then\/\/\/

  Guitar 1
D|---------------------------------------------------------------------------|
A|---------------------------------------------------------------------------|
F|-0-0-0-0-12-0-0-0-12-0-0-0-12-0-0-0-0-0-0-0-12-0-0-0-12-0-0-0-12-0-0-0-----|
c|---------------------------------------------------------------------------|x6
G|---------------------------------------------------------------------------|
C|---------------------------------------------------------------------------|
  Guitar 2 (comes in after 5 of these^^^)[let ring]
D|---------------------------------------------------------------------------|
A|---------------------------------------------------------------------------|
F|---------------------------------------------------------------------------|
c|-5------------1------------8------------3----------------------------------|x2
G|-5------------1------------8------------3----------------------------------|
C|-5------------1------------8------------3----------------------------------|


Guitar 1
D|----------------------------------------------------------------------------------------------------|
A|------------------------------------------------------------------------------11-10-----------------|
F|-12-12-12-10-8--5-7-8-10-8--------------------------12-12-12-10-8-8/10-12-10~-------12-10-12~-------|
c|---------------------------5--5-7-8-10-8-7-3-5------------------------------------------------------|
G|----------------------------------------------------------------------------------------------------|

  \ /
                                                                                         
                x2

  / \
A------------------------------------------------------------------------------11-10-----------------|
F-12-12-12-10-8--5-7-8-10-8--------------------------12-12-12-10-8-8/10-12-10~-------12-10-12\-------|
c---------------------------5--5-7-8-10-8-7-3-5------------------------------------------------------|
G----------------------------------------------------------------------------------------------------|
C----------------------------------------------------------------------------------------------------|
Guitar 2
D|---------------------------------------------------------------------------|
A|---------------------------------------------------------------------------|
F|---------------------------------------------------------------------------|
c|-5------------1------------8------------3----------------------------------|x4
G|-5------------1------------8------------3----------------------------------|
C|-5------------1------------8------------3----------------------------------|

Guitars 1&2
D|---------------------------------------------------------------------------|
A|---------------------------------------------------------------------------|
F|--------------------------------------------------7777777788888888---------|
c|-55-055-055-055-011-011-011-011-033-033-033-033-0-xxxxxxxxxxxxxxxx---------|
G|-55-055-055-055-011-011-011-011-033-033-033-033-0-5555555566666666---------|x2
C|-55-055-055-055-011-011-011-011-033-033-033-033-0-0000000000000000---------|


Guitar 1
D|----------------------------------------------------------------------------------------------------|
A|------------------------------------------------------------------------------11-10-----------------|
F|-12-12-12-10-8--5-7-8-10-8--------------------------12-12-12-10-8-8/10-12-10~-------12-10-12~-------|
c|---------------------------5--5-7-8-10-8-7-3-5------------------------------------------------------|
G|----------------------------------------------------------------------------------------------------|
C|----------------------------------------------------------------------------------------------------|

D----------------------------------------------------------------------------------------------------|
A------------------------------------------------------------------------------11-10-----------------|
F-12-12-12-10-8--5-7-8-10-8--------------------------12-12-12-10-8-8/10-12-10~-------12-10-12\-------|
c---------------------------5--5-7-8-10-8-7-3-5------------------------------------------------------|
G----------------------------------------------------------------------------------------------------|
C----------------------------------------------------------------------------------------------------|
Guitar 2
D|---------------------------------------------------------------------------|
A|---------------------------------------------------------------------------|
F|---------------------------------------------------------------------------|
c|-5------------1------------8------------3----------------------------------|x2
G|-5------------1------------8------------3----------------------------------|
C|-5------------1------------8------------3----------------------------------|

Guitars 1&2
D|---------------------------------------------------------------------------|
A|---------------------------------------------------------------------------|
F|--------------------------------------------------7777777788888888---------|
c|-55-055-055-055-011-011-011-011-033-033-033-033-0-xxxxxxxxxxxxxxxx---------|
G|-55-055-055-055-011-011-011-011-033-033-033-033-0-5555555566666666---------|
C|-55-055-055-055-011-011-011-011-033-033-033-033-0-0000000000000000---------|

D-----------------------------------------------------------------------------|
A-----------------------------------------------------------------------------|
F-----------------------------------------------------------------------------|
c-55-055-055-055-011-011-011-011-033-033-033-033-0-3333333344444444-----------|
G-55-055-055-055-011-011-011-011-033-033-033-033-0-3333333344444444-----------|
C-55-055-055-055-011-011-011-011-033-033-033-033-0-3333333344444444-----------|
                                               p.m. --- --- --- --------------|
  Guitar 1
D|-------------------------------------------------------------------|
A|-------------------------------------------------------------------|
F|----5-8------------------------------------------------------------|
c|--7-7-7-7----7---10-8-7---7---8-7------7---10-8-7---7---8-7--------|
G|--8-----8--5---5--------5---5-----8--5---5--------5---5-----8------|
C|-------------------------------------------------------------------|

D-------------------------------------------------------------------|
A-------------------------------------------------------------------|
F-------------------------------------------------------------------|
c-----7---10-8-7---7---8-7------7---10-8-7---7---8-7----------------|
G---5---5--------5---5-----8--5---5--------5---5-----8--------------|
C-------------------------------------------------------------------|

Guitar 2
D|----------------------------------------------------------------------|
A|----------------------------------------------------------------------|
F|------5-8--------------------------------------------------------10~--|
c|00--7-7-7-7\----00--00000---00--0-00---00-00000--00--0-00--00000------|
G|00--8-----8\----00--00000---00--0-00---00-00000--00--0-00--00000------|
C|00--------------00--00000---00--0-00---00-00000--00--0-00--00000------|
pm--              --  -----   --  - --   -- -----  --  - --  -----
D----------------------------------------------------|
A----------------------------------------------------|
F----------------------------------------------------|
c00--0-00---00--00000---00-0-00--00---00--00000------|
G00--0-00---00--00000---00-0-00--00---00--00000------|
C00--0-00---00--00000---00-0-00--00---00--00000------|
 --  - --   --  -----   -- - --  --   --  -----
  Guitars 1&2
D|-------------------------------------------------------------------|
A|-------------------------------------------------------------------|
F|-------------------------------------------------------------------|
c|-555555555555555511111111111111113333333333333333-00-000-000-000-0-|
G|-555555555555555511111111111111113333333333333333-00-000-000-000-0-|
C|-555555555555555511111111111111113333333333333333-00-000-000-000-0-|
p.m------------------------------------------------ -- --- --- --- -

D----------------------------------------------------------------------|
A----------------------------------------------------------------------|
F----------------------------------------------------------------------|
c-555555555555555511111111111111113333333333333333-0{------------------|
G-555555555555555511111111111111113333333333333333-0{Let Ring]---------|
C-555555555555555511111111111111113333333333333333-0{------------------|
  ---------------------------------------------------------------------|
  Guitar 1 (tapping solo)
D|---------------------------------------------------------------------------|
A|---------------------------------------------------------------------------|
F|--3h5t7-3h5t7-3h5t7-3h5t7-3h5t8-3h5t8-3h5t8-3h5t8-3h5t10-3h5t10-3h5t10-----|
c|---------------------------------------------------------------------------|
G|---------------------------------------------------------------------------|
C|---------------------------------------------------------------------------|    \ /
                                                                                   x4
D------------------------------------------|                                      / \
A------------------------------------------|
F-3h5t10-3h5t10-3h5t10-3h5t10-3h5t10-------|
c------------------------------------------|
G------------------------------------------|
C------------------------------------------|

  Guitar 2(comes in after one set of guitar 1 solo^^^)
D|---------------------------------------------------------------------------|
A|---------------------------------------------------------------------------|
F|---------------------------------------------------------------------------|
c|-3---------5---------8---------3----------5----------8---------------------|
G|-3---------5---------8---------3----------5----------8---------------------|
C|-3---------5---------8---------3----------5----------8---------------------|
{each note rings & comes in after note change in the solo}
D---------------------------------------------------------------------------|
A-2h4t6-2h4t6-2h4t6-2h4t6-2h4t7-2h4t7-2h4t7-2h4t7-2h4t9-2h4t9-2h4t9---------|
F---------------------------------------------------------------------------|
c---------------------------------------------------------------------------|
G---------------------------------------------------------------------------|
C---------------------------------------------------------------------------|
{Then this starts after G1's solo repeats twice}

D------------------------------------------|
A-2h4t9-2h4t9-2h4t9-2h4t9-2h4t9------------|
F------------------------------------------|
c------------------------------------------|
G------------------------------------------|
C------------------------------------------|


  Guitar 1
D|---------------------------------------------------------------------|
A|---------------------------------------------------------------------|
F|------5-8------------------------------------------------------------|
c|00--7-7-7-7----7---10-8-7---7---8-7------7---10-8-7---7---8-7--------|
G|00--8-----8--5---5--------5---5-----8--5---5--------5---5-----8------|
C|00-------------------------------------------------------------------|
pm--
D---------------------------------------------------------------------|
A---------------------------------------------------------------------|
F---------------------------------------------------------------------|
c-----7---10-8-7---7---8-7------7---10-8-700-00000--------------------|
G---5---5--------5---5-----8--5---5-------00-00000--------------------|
C-----------------------------------------00-00000--------------------|
                                      pm  -- -------------------------|
Guitar 2
D|----------------------------------------------------------------------|
A|----------------------------------------------------------------------|
F|------5-8--------------------------------------------------------10~--|
c|00--7-7-7-7\----00--00000---00--0-00---00-00000--00--0-00--00000------|
G|00--8-----8\----00--00000---00--0-00---00-00000--00--0-00--00000------|
C|00--------------00--00000---00--0-00---00-00000--00--0-00--00000------|
pm--              --  -----   --  - --   -- -----  --  - --  -----
D----------------------------------------------------|
A----------------------------------------------------|
F----------------------------------------------------|
c00--0-00---00--00000---00-0-00--00---00--00000------|
G00--0-00---00--00000---00-0-00--00---00--00000------|
C00--0-00---00--00000---00-0-00--00---00--00000------|
 --  - --   --  -----   -- - --  --   --  -----
comments
We did not receive enough feedback on this tab! Please rate:
print report bad tab
1 2 3 4 5
1 comment total.
0 reply
Decentts wrote on June 18 2007, 05:43 pm

instead of both guitars playing
|-----------|
|-----------|
|---5-7-----|
|-7-7-8-7~--|
|-8-----8~--|
|-----------|

use this
Guitar 1
|--------|
|--------|
|--------|
|--7-8---|
|-8---8~-|
|--------|

Guitar 2
|----------|
|----------|
|---5-5----|
|-7-----7~-|
|----------|
|----------|

its sounds better that way to me

I want to post or [tab]
guest
You may want to rate the tab now too:
select rating
Please do not post tabs as comments. Select "correction" instead!