Oops, an error
Loading. Please wait.

Dilated Tab

ver2
ver2

Whole song

Interactive

More versions @911Tabs.com
2,643 views 1 this week
no commentswrite comment
1 2 3 4 5
accurate
x 6
Autoscroll
+/-
esc
set tempo
stop
Contributor
Hey! There's an official Ultimate Guitar app which is ideal
for learning songs when you're away from computer. Get the app
WARNING: You are trying to view
                                    content from Ultimate-Guitar.com
                                    in an unauthorized application,
                                    which is prohibited.

                                    Please use an official Ultimate
                                    Guitar Tabs application for iPhone,
                                    iPad or Android to access legitimate
                                    chords, guitar, bass, and drum tabs
                                    from Ultimate-Guitar.com database.

                                    Type "ultimate guitar tabs" in Apple
                                    App Store's or Android Market's
                                    search to find the application.
Song: Dilated
Artist: Atreyu
Album: Suicide Notes and Butterfly Kisses
Tabbed by: Zach Stout (zastout@bsu.edu)

Drop C (one step below drop D)
It helps to listen to the song to hear the strumming pattern

/ - Slide up
\ - Slide down
* - pinch harmonics
^ - palm mute
bu - Bend up
bd - bend down

==========
 Guitar 1
==========

(0:00-0:19)
E|-------------------------------------------------------------------------------------|
B|-------------------------------------------------------------------------------------|
G|---------10\9---------10\9---------10\9----------------------10\9---------10\9-------|
D|-0-0-000--*\*-7-7-777--*\*-8-8-888--*\*-5-5-555-5\3--0-0-000--*\*-7-7-777--*\7-------|
A|-0-0-000--8\7-7-7-777--8\7-8-8-888--8\7-5-5-555-5\3--0-0-000--8\7-7-7-777--8\7-------|
E|-0-0-000------7-7-777------8-8-888------5-5-555-5\3--0-0-000------7-7-777------------|
     ^ ^^^        ^ ^^^        ^ ^^^        ^ ^^^        ^ ^^^        ^ ^^^
E|-------------------------------------------------------------------------------------|
B|-------------------------------------------------------------------------------------|
G|---------10\9------------------------------------------------------------------------|
D|-0-0-000--*\*-5-5-555-5\3-000000-777777-888888-5555-3-000000-777777-888888-5555-3----|
A|-8-8-888--8\7-5-5-555-5\3-000000-777777-888888-5555-3-000000-777777-888888-5555-3----|
E|-0-0-000------5-5-555-5\3-000000-777777-888888-5555-3-000000-777777-888888-5555-3----|
     ^ ^^^        ^ ^^^
(0:19-0:29)
E|-------------------------------------------------------------------------------------|
B|-------------------------------------------------------------------------------------|
G|-------------------------------------------------------------------------------------|
D|----7-5-3-5-7-5-3-3-7-5-3----------7-5-3-5-7-5-3-3-7-5-3-----------------------------|
A|--5-----------------------3-7h8--5-----------------------3-7h8-----------------------|
E|-------------------------------------------------------------------------------------|

(0:29-0:57)
E|-------------------------------------------------------------------------------------|
B|-------------------------------------------------------------------------------------|
G|-------------------------------------------------------------------------------------|
D|-0---------------------------------0----------------8---7---5h7p5\3------------------|
A|-0----5---3---5---8---7---7h8p7\5--0----5---3---5------------------------------------|
E|-0--0---0---0---0---0---0----------0--0---0---0---0---0---0--------------------------|

E|-------------------------------------------------------------|
B|-------------------------------------------------------------|
G|-------------------------------------------------------------|
D|-0---------------------------------0---------------33333333--|
A|-0----5---3---5---8---7---7h8p7\5--0----5---3---5--33333333--|
E|-0--0---0---0---0---0---0----------0--0---0---0----33333333--|

E|-------------------------------------------------------------------------------------|
B|-------------------------------------------------------------------------------------|
G|-------------------------------------------------------------------------------------|
D|-0---------------------------------0----------------8---7-5p3------------------------|
A|-0----5---3---5---8---7---7h8p7\5--0----5---3---5------------------------------------|
E|-0--0---0---0---0---0---0----------0--0---0---0---0---0------------------------------|

E|---------------------------------------------------------------------------------------|
B|---------------------------------------------------------------------------------------|
G|---------------------------------------------------------------------------------------|
D|-0--------------------------------55-55-55-88-88-88---0--------------------------------|
A|-0----5---3---5---8---7---7h8p7\5-55-55-55-88-88-88---0----5---3---5---8---7---7h8p7\5-|
E|-0--0---0---0---0---0---0---------55-55-55-88-88-88---0--0---0---0---0---0---0---------|
                                       ^^       ^^
E|-------------------------------------------------------------------------------------|
B|-------------------------------------------------------------------------------------|
G|-------------------------------------------------------------------------------------|
D|-0----------------8---7---5h7p5\3--0-----------------------------55-55-55-88-88-88---|
A|-0----5---3---5--------------------0----5---3---5---8---7---7h8--55-55-55-88-88-88---|
E|-0--0---0---0---0---0---0----------0--0---0---0---0---0---0------55-55-55-88-88-88---|
                                                                      ^^       ^^
(0:58-1:17)
E|-------------------------------------------------------------------------------------|
B|--------------------6------------6-----------6-----------6---------------------------|
G|----------------------5-7-9-5-7----5-7-9-5-7---5-7-9-5-7---5-7-9-5-7-----------------|
D|-55-5------88-8----------------------------------------------------------------------|
A|-55-5-X 10-88-8-X 10-----------------------------------------------------------------|
E|-55-5------88-8----------------------------------------------------------------------|
   ^^        ^^
E|-------------------------------------------------------------------------------------|
B|-------------------------------------------------------------------------------------|
G|-------------------------------------------------------------------------------------|
D|-55-5------88-8------00-00-----222222-33333333---------------------------------------|
A|-55-5-X 10-88-8-X 10-00-00-X 8-222222-33333333---------------------------------------|
E|-55-5------88-8------00-00-----222222-33333333---------------------------------------|
   ^^        ^^           ^^
(1:17-1:42)

E|-------------------------------------------------------------------------------------|
B|-------------------------------------------------------------------------------------|
G|-------------------------------------------------------------------------------------|
D|-0---------------------------------0----------------8---7-5h7p5\3--------------------|
A|-0----5---3---5---8---7---7h8p7\5--0----5---3---5------------------------------------|
E|-0--0---0---0---0---0---0----------0--0---0---0---0---0------------------------------|

E|--------------------------------------------------------------------------------------|
B|--------------------------------------------------------------------------------------|
G|--------------------------------------------------------------------------------------|
D|-0-------------------------------55-55-55-88-88-88---0--------------------------------|
A|-0----5---3---5---8---7---7h8p7--55-55-55-88-88-88---0----5---3---5---8---7---7h8p7\5-|
E|-0--0---0---0---0---0---0--------55-55-55-88-88-88---0--0---0---0---0---0---0---------|
                                      ^^       ^^
E|-------------------------------------------------------------------------------------|
B|-------------------------------------------------------------------------------------|
G|-------------------------------------------------------------------------------------|
D|-0----------------8---7---5h7p5\3--0------------------------------55-55-55-88-88-88--|
A|-0----5---3---5--------------------0----5---3---5---8---7---7h8p7-55-55-55-88-88-88--|
E|-0--0---0---0---0---0---0----------0--0---0---0---0---0---0-------55-55-55-88-88-88--|
                                                                       ^^       ^^
E|-------------------------------------------------------------------------------------|
B|-------------------------------------------------------------------------------------|
G|-------------------------------------------------------------------------------------|
D|-0----0------------------------------------------------------------------------------|
A|-0----0------------------------------------------------------------------------------|
E|-0----0------------------------------------------------------------------------------|

(1:42-2:42)
E|-----------------------------------------------------------------|
B|-----------------------------------------------------------------|
G|----------------------4h5p4--------------------------------------|
D|-------------3---2----------5\3---------5-----5---------3-----3--|
A|----3---5---------------------------5-----5---------3-----3------|
E|-00---0---00---0---00-----------5-5---5-----5---3-3---3-----3----|

E|---------------------------------------------------------------------------------------|
B|---------------------------------------------------------------------------------------|
G|---------------------------------------------------------------------------------------|
D|-------------3--2----2h3p2-------------5-----5---------3-----3-------------------------|
A|----3---5------------------3\1-----5-----5---------3-----3-----------------------------|
E|-00---0---00---0--00-----------5-5---5-----5---3-3---3-----3---------------------------|

E|---------------------------------------------------------------------------------------|
B|---------------------------------------------------------------------------------------|
G|---------------------4h5p4-------------------------------------------------------------|
D|-------------3--2----------5\3---------5-----5---------3-----3-------------------------|
A|----3---5--------------------------5-----5---------3-----3-----------------------------|
E|-00---0---00---0--00-----------5-5---5-----5---3-3---3-----3---------------------------|

E|---------------------------------------------------------------------------------------|
B|---------------------------------------------------------------------------------------|
G|---------------------------------------------------------------------------------------|
D|-------------3--2----2h3p2-------------5-----5---------3-----3-------------------------|
A|----3---5------------------3\1-----5-----5---------3-----3-----------------------------|
E|-00---0---00---0--00-----------5-5---5-----5---3-3---3-----3---------------------------|

E|---------------------------------------------------------------------------------------|
B|---------------------------------------------------------------------------------------|
G|---------------------4h5p4-------------------------------------------------------------|
D|-------------3--2----------5\3---------5-----5---------3-----3-------------------------|
A|----3---5--------------------------5-----5---------3-----3-----------------------------|
E|-00---0---00---0--00-----------5-5---5-----5---3-3---3-----3---------------------------|

E|---------------------------------------------------------------------------------------|
B|---------------------------------------------------------------------------------------|
G|---------------------------------------------------------------------------------------|
D|-------------3--2----2h3p2-----55555555-88888888---------------------------------------|
A|----3---5------------------3\1-55555555-88888888---------------------------------------|
E|-00---0---00---0--00-----------55555555-88888888---------------------------------------|
                                 ^^^^^^^^
E|---------------------------------------------------------------------------------------|
B|---------------------------------------------------------------------------------------|
G|---------------------4h5p4-------------------------------------------------------------|
D|-------------3--2----------5\3---------5-----5---------3-----3-------------------------|
A|----3---5--------------------------5-----5---------3-----3-----------------------------|
E|-00---0---00---0--00-----------5-5---5-----5---3-3---3-----3---------------------------|

E|---------------------------------------------------------------------------------------|
B|---------------------------------------------------------------------------------------|
G|---------------------------------------------------------------------------------------|
D|-------------3--2----2h3p2-------------5-----5---------3-----3-------------------------|
A|----3---5------------------3\1-----5-----5---------3-----3-----------------------------|
E|-00---0---00---0--00-----------5-5---5-----5---3-3---3-----3---------------------------|

E|---------------------------------------------------------------------------------------|
B|---------------------------------------------------------------------------------------|
G|---------------------4h5p4-------------------------------------------------------------|
D|-------------3--2----------5\3--------5-----5--------3-----3---------------------------|
A|----3---5-------------------------5-----5--------3-----3-------------------------------|
E|-00---0---00---0--00-----------55---5-----5---33---3-----3-----------------------------|
   ^^   ^   ^^   ^  ^^           ^^   ^         ^^   ^
E|---------------------------------------------------------------------------------------|
B|---------------------------------------------------------------------------------------|
G|---------------------------------------------------------------------------------------|
D|------------3--2----2h3p2------5---8---------------------------------------------------|
A|----3---5-----------------3\1--5---8---------------------------------------------------|
E|-00---0---00--0--00------------5---8---------------------------------------------------|
   ^^   ^   ^^  ^  ^^
(2:42-2:50)
E|-------------------------------------------------------------------------------------|
B|-------------------------------------------------------------------------------------|
G|------10\9-----10\9-----10\9--------------10\9---------10\9-----10\9-----------------|
D|--000--*\*-777--*\*-888--*\*-555-5\3--000--*\*-7-7-777--*\*-888--*\*-555-5\3---------|
A|--000--8\7-777--8\7-888--8\7-555-5\3--000--8\7-7-7-777--8\7-888--8\7-555-5\3---------|
E|--000------777------888------555-5\3--000------7-7-777------888------555-5\3---------|

(2:50-3:10) (Note: This part's done with a harmonizer effect, I think one octave above)
E|-------------------------------------------------------------------------------------|
B|-------------------------------------------------------------------------------------|
G|-------------------------------------------------------------------------------------|
D|----7-5-3-5-7-5-3-3-7-5-3----------7-5-3-5-7-5-3-8-7-5-3-10-8-7h8p7\5----------------|
A|--5-----------------------3-7h8--5---------------------------------------------------|
E|-------------------------------------------------------------------------------------|

E|-------------------------------------------------------------------------------------|
B|-------------------------------------------------------------------------------------|
G|-------------------------------------------------------------------------------------|
D|---3-2---3-2---3-2---2-3---3-2---3-2-3-3-2-5-3-2h3p2---------------------------------|
A|-5-----3-----1-----3-----5-----3-----------------------------------------------------|
E|-------------------------------------------------------------------------------------|


(3:10-3:34)
E|-------------------------------------------------------------------------------------|
B|-------------------------------------------------------------------------------------|
G|-------------------------------------------------------------------------------------|
D|-00000-77777-88888-1010101010-00000-77777-88888-1010101010-00000-77777-88888---------|
A|-00000-77777-88888-1010101010-00000-77777-88888-1010101010-00000-77777-88888---------|
E|-00000-77777-88888-1010101010-00000-77777-88888-1010101010-00000-77777-88888---------|

E|-------------------------------------------------------------------------------------|
B|-------------------------------------------------------------------------------------|
G|-------------------------------------------------------------------------------------|
D|-1010101010-00000-77777-88888-1010101010-0-------------------------------------------|
A|-1010101010-00000-77777-88888-1010101010-0-------------------------------------------|
E|-1010101010-00000-77777-88888-1010101010-0-------------------------------------------|


==========
 Guitar 2
==========

(0:00-0:19)
E|-------------------------------------------------------------------------------------|
B|-------------------------------------------------------------------------------------|
G|---------10\9---------10\9---------10\9----------------------10\9---------10\9-------|
D|-0-0-000--*\*-7-7-777--*\*-8-8-888--*\*-5-5-555-5\3--0-0-000--*\*-7-7-777--*\7-------|
A|-0-0-000--8\7-7-7-777--8\7-8-8-888--8\7-5-5-555-5\3--0-0-000--8\7-7-7-777--8\7-------|
E|-0-0-000------7-7-777------8-8-888------5-5-555-5\3--0-0-000------7-7-777------------|
     ^ ^^^        ^ ^^^        ^ ^^^        ^ ^^^        ^ ^^^        ^ ^^^
E|-------------------------------------------------------------------------------------|
B|-------------------------------------------------------------------------------------|
G|---------10\9------------------------------------------------------------------------|
D|-0-0-000--*\*-5-5-555-5\3-000000-777777-888888-5555-3-000000-777777-888888-5555-3----|
A|-8-8-888--8\7-5-5-555-5\3-000000-777777-888888-5555-3-000000-777777-888888-5555-3----|
E|-0-0-000------5-5-555-5\3-000000-777777-888888-5555-3-000000-777777-888888-5555-3----|
     ^ ^^^        ^ ^^^

(0:19-0:29)
E|-------------------------------------------------------------------------------------|
B|---6-5-3-5-6-5-3---6-5-3----------6-5-3-5-6-5-3---6-5-3------------------------------|
G|-7---------------3-------2-2h3--7---------------3-------2-2h3------------------------|
D|-------------------------------------------------------------------------------------|
A|-------------------------------------------------------------------------------------|
E|-------------------------------------------------------------------------------------|

(0:29-0:57)
E|-------------------------------------------------------------------------------------|
B|-------------------------------------------------------------------------------------|
G|-------------------------------------------------------------------------------------|
D|--0------0------33333333-------------------------------------------------------------|
A|--0------0------33333333-------------------------------------------------------------|
E|--0------0------33333333-------------------------------------------------------------|

E|----------------------------------------------------6---5-3h5p3\1--------------------|
B|------6---5---6---8---6---5h6p5\3-------6---5---6------------------------------------|
G|-------------------------------------------------------------------------------------|
D|-0---------------------------------0-------------------------------------------------|
A|-0---------------------------------0-------------------------------------------------|
E|-0---------------------------------0-------------------------------------------------|

E|--------------------------------------------------------------------------------------|
B|------6---5---6---8---6---5h6p5---------------------------6---5---6---8---6---5h6p5\3-|
G|--------------------------------------------------------------------------------------|
D|-0-------------------------------55-55-55-88-88-88---0--------------------------------|
A|-0-------------------------------55-55-55-88-88-88---0--------------------------------|
E|-0-------------------------------55-55-55-88-88-88---0--------------------------------|
                                      ^^       ^^
E|------------------6---5---3h5p3\1----------------------------------------------------|
B|------6---5---6-------------------------6---5---6---8---6---5h6p5--------------------|
G|-------------------------------------------------------------------------------------|
D|-0---------------------------------0------------------------------55-55-55-88-88-88--|
A|-0---------------------------------0------------------------------55-55-55-88-88-88--|
E|-0---------------------------------0------------------------------55-55-55-88-88-88--|
                                                                       ^^       ^^
(0:58-1:17)
E|-------------------------------------------------------------------------------------|
B|-------------------------------------------------------------------------------------|
G|-------------------------------------------------------------------------------------|
D|-55-5------88-8------00-00-----222222-333333-----------------------------------------|
A|-55-5-X 10-88-8-X 10-00-00-X 8-222222-333333-----------------------------------------|
E|-55-5------88-8------00-00-----222222-333333-----------------------------------------|
   ^^        ^^           ^^
E|-------------------------------------------------------------------------------------|
B|-------------------------------------------------------------------------------------|
G|-------------------------------------------------------------------------------------|
D|-55-5------88-8------00-00-----222222-33333333---------------------------------------|
A|-55-5-X 10-88-8-X 10-00-00-X 8-222222-33333333---------------------------------------|
E|-55-5------88-8------00-00-----222222-33333333---------------------------------------|
                          ^^

(1:17-1:42)
E|----------------------------------------------------6---5-3h5p3\1--------------------|
B|------6---5---6---8---6---5h6p5\3-------6---5---6------------------------------------|
G|-------------------------------------------------------------------------------------|
D|-0---------------------------------0-------------------------------------------------|
A|-0---------------------------------0-------------------------------------------------|
E|-0---------------------------------0-------------------------------------------------|

E|--------------------------------------------------------------------------------------|
B|------6---5---6---8---6---5h6p5---------------------------6---5---6---8---6---5h6p5\3-|
G|--------------------------------------------------------------------------------------|
D|-0-------------------------------55-55-55-88-88-88---0--------------------------------|
A|-0-------------------------------55-55-55-88-88-88---0--------------------------------|
E|-0-------------------------------55-55-55-88-88-88---0--------------------------------|
                                      ^^       ^^
E|------------------6---5---3h5p3\1----------------------------------------------------|
B|------6---5---6-------------------------6---5---6---8---6---5h6p5--------------------|
G|-------------------------------------------------------------------------------------|
D|-0---------------------------------0------------------------------55-55-55-88-88-88--|
A|-0---------------------------------0------------------------------55-55-55-88-88-88--|
E|-0---------------------------------0------------------------------55-55-55-88-88-88--|
                                                                       ^^       ^^
E|-------------------------------------------------------------------------------------|
B|-------------------------------------------------------------------------------------|
G|-------------------------------------------------------------------------------------|
D|-0----0------------------------------------------------------------------------------|
A|-0----0------------------------------------------------------------------------------|
E|-0----0------------------------------------------------------------------------------|

(1:54-2:40)
E|-------3---------3---------------------------------3-------3-----------------------------|
B|---------5---------5---------5bu-3-------5bu---------5-------5--------5bu-3--------5bu-5-|
G|---2---------2-----------5------------2--------2---------2---------5------------2--------|
D|-0---0-----0---0-----3-3---3-------22---2----0---0-----0---0----33---3-------22---2------|
A|-----------------------------------------------------------------------------------------|
E|-----------------------------------------------------------------------------------------|

E|-------3---------3---------------------------------3-------3-------------------------|
B|---------5---------5---------5bu-3-------5bu---------5-------5-----------------------|
G|---2---------2-----------5------------2--------2---------2---------------------------|
D|-0---0-----0---0-----3-3---3-------22---2----0---0-----0---0---55555555-88888888-----|
A|---------------------------------------------------------------55555555-88888888-----|
E|---------------------------------------------------------------55555555-88888888-----|
                                                                 ^^^^^^^^
E|-------------------------------------------------------------------------------------|
B|-------------------------------------------------------------------------------------|
G|-------------------------------------------------------------------------------------|
D|-0------5-----3------0------5-----8------0------5-----3-----0------5---8-------------|
A|-0-X 16-5-X 8-3-X 8--0-X 16-5-X 8-8-X 8--0-X 16-5-X 8-3-X 8-0-X 16-5---8-------------|
E|-0------5-----3------0------5-----8------0------5-----3-----0------5---8-------------|
                                           ^      ^     ^     ^
(2:42-2:50)
E|-------------------------------------------------------------------------------------|
B|-------------------------------------------------------------------------------------|
G|-------------------------------------------------------------------------------------|
D|-0-------------0----7---8---5--------------------------------------------------------|
A|-0-------------0----7---8---5--------------------------------------------------------|
E|-0-------------0----7---8---5--------------------------------------------------------|

(2:50-3:10)
E|-------------------------------------------------------------------------------------|
B|-------------------------------------------------------------------------------------|
G|-------------------------------------------------------------------------------------|
D|-00000-77777-88888-1010101010-00000-77777-88888-1010101010-00000-77777-88888---------|
A|-00000-77777-88888-1010101010-00000-77777-88888-1010101010-00000-77777-88888---------|
E|-00000-77777-88888-1010101010-00000-77777-88888-1010101010-00000-77777-88888---------|

E|-------------------------------------------------------------------------------------|
B|-------------------------------------------------------------------------------------|
G|-------------------------------------------------------------------------------------|
D|-1010101010-00000-77777-88888-1010101010---------------------------------------------|
A|-1010101010-00000-77777-88888-1010101010---------------------------------------------|
E|-1010101010-00000-77777-88888-1010101010---------------------------------------------|

(3:10-3:34) (Need Help w/this)
E|-------------------------------------------------------------------------------------|
B|-------------------------------------------9bu-7-------------------------------------|
G|-7-9-10-12-0---0-2-3-5-3-------------------------------------------------------------|
D|-------------3-----------------------------------------------------------------------|
A|-------------------------------------------------------------------------------------|
E|-------------------------------------------------------------------------------------|
comments
print report bad tab
I want to post or [tab]
guest
You may want to rate the tab now too:
select rating
Please do not post tabs as comments. Select "correction" instead!