Oops, an error
Loading. Please wait.

Dilated Tab

ver3
ver3

Whole song

Interactive

More versions @911Tabs.com
174 views 1 this week
no commentswrite comment
1 2 3 4 5
please rate
Autoscroll
+/-
esc
set tempo
stop
Contributor
Difficulty
Tuning
novice
C G C F A D
Hey! There's an official Ultimate Guitar app which is ideal
for learning songs when you're away from computer. Get the app
WARNING: You are trying to view
                                    content from Ultimate-Guitar.com
                                    in an unauthorized application,
                                    which is prohibited.

                                    Please use an official Ultimate
                                    Guitar Tabs application for iPhone,
                                    iPad or Android to access legitimate
                                    chords, guitar, bass, and drum tabs
                                    from Ultimate-Guitar.com database.

                                    Type "ultimate guitar tabs" in Apple
                                    App Store's or Android Market's
                                    search to find the application.
                                     DILATED
                              As recorded by Atreyu
            (From the 2001 Album SUICIDE NOTES AND BUTTERFLY KISSES)

Words and Music by Atreyu
Arranged by Atreyu
Transcribed by Aaustin Barron

Gtr I (C G C F A D)
Gtr II (C G C F A D)
Gtr III (C G C F A D)
Gtr IV (C G C F A D)
Gtr V (C G C F A D)
 Intro
  Fast Rock Q=194
  D5                N.C.   A5              N.C.   Bb5
 1/8   4/4
  Gtrs I, II
            PM----|                PM----|
  E     +E  E S S e  E E E E   +E  E S S e  E E E E
|---||-----------------------|----------------------|
|---||o----------------------|----------------------|
|---||--------------10-9-----|-------------10-9-----|
|-0-||--(0)----------------7-|-(7)----------------8-|
|-0-||o-(0)-0-0-0-0--8-7---7-|-(7)-7-7-7-7--8-7---8-|
|-0-||--(0)-0-0-0-0--------7-|-(7)-7-7-7-7--------8-|


              N.C.   G5                F5  D5
      PM----|                PM----|
  +E  E S S e  E E E E   +E  E S S e E E E E
|----------------------|----------------------||
|----------------------|---------------------o||
|-------------10-9-----|----------------------||
|-(8)----------------5-|-(5)---------5-3---0--||
|-(8)-8-8-8-8--8-7---5-|-(5)-5-5-5-5-5-3---0-o||
|-(8)-8-8-8-8--------5-|-(5)-5-5-5-5-5-3---0--||


 Verse
                  A5                  Bb5
  +E  E E E E E E E   +E  E E E E E E E
|-------------------|-------------------|
|-------------------|-------------------|
|-------------------|-------------------|
|-(0)-0-0-0-0-0-0-7-|-(7)-7-7-7-7-7-7-8-|
|-(0)-0-0-0-0-0-0-7-|-(7)-7-7-7-7-7-7-8-|
|-(0)-0-0-0-0-0-0-7-|-(7)-7-7-7-7-7-7-8-|


                  G5              F5    D5
  +E  E E E E E E E   +E  E E E E E +E  E
|-------------------|---------------------|
|-------------------|---------------------|
|-------------------|---------------------|
|-(8)-8-8-8-8-8-8-5-|-(5)-5-5-5-5-3-(3)-0-|
|-(8)-8-8-8-8-8-8-5-|-(5)-5-5-5-5-3-(3)-0-|
|-(8)-8-8-8-8-8-8-5-|-(5)-5-5-5-5-3-(3)-0-|


                  A5                  Bb5
  Gtr I
  +E  E E E E E E E   +E  E E E E E E E
|-------------------|-------------------|
|-------------------|-------------------|
|-------------------|-------------------|
|-(0)-0-0-0-0-0-0-7-|-(7)-7-7-7-7-7-7-8-|
|-(0)-0-0-0-0-0-0-7-|-(7)-7-7-7-7-7-7-8-|
|-(0)-0-0-0-0-0-0-7-|-(7)-7-7-7-7-7-7-8-|
|
| Gtr II
| +E  E E E E E E E   +E  E E E E E E E
|-------------------|-------------------|
|-------------------|-------------------|
|-------------------|-------------------|
|-(0)-0-0-0-0-0-0-7-|-(7)-7-7-7-7-7-7-8-|
|-(0)-0-0-0-0-0-0-7-|-(7)-7-7-7-7-7-7-8-|
|-(0)-0-0-0-0-0-0-7-|-(7)-7-7-7-7-7-7-8-|


                  G5              F5    N.C.
  +E  E E E E E E E   +E  E E E E E +E  E
|-------------------|---------------------||
|-------------------|---------------------||
|-------------------|---------------------||
|-(8)-8-8-8-8-8-8-5-|-(5)-5-5-5-5-3-(3)-0-||
|-(8)-8-8-8-8-8-8-5-|-(5)-5-5-5-5-3-(3)---||
|-(8)-8-8-8-8-8-8-5-|-(5)-5-5-5-5-3-(3)---||
|
| +E  E E E E E E E   +E  E E E E E +E  E
|-------------------|---------------------||
|-------------------|---------------------||
|-------------------|-------------------7-||
|-(8)-8-8-8-8-8-8-5-|-(5)-5-5-5-5-3-(3)---||
|-(8)-8-8-8-8-8-8-5-|-(5)-5-5-5-5-3-(3)---||
|-(8)-8-8-8-8-8-8-5-|-(5)-5-5-5-5-3-(3)---||


 Bridge
  N.C.
  +H      E E E E   +H      E E E E   +H      E E E E   +H     E  E E E
|-----------------|-----------------|-----------------|-----------------|
|-----------------|-----------------|-----------------|-----------------|
|-----------------|-----------------|-----------------|-----------------|
|-(0)-----7-5-3-5-|-(5)-----7-5-3-3-|-(3)-----7-5-3---|--------2h=3---0-|
|-----------------|-----------------|---------------3-|-(3)-------------|
|-----------------|-----------------|-----------------|-----------------|
|
| +H      E E E E   +H      E E E E   +H      E E E E   +H     E  E E E
|-----------------|-----------------|-----------------|-----------------|
|-----------------|-----------------|-----------------|-----------------|
|-(7)----10-9-7-9-|-(9)----10-9-7---|--------10-9-7---|---------------7-|
|-----------------|---------------8-|-(8)-----------7-|-(7)----7h10-----|
|-----------------|-----------------|-----------------|-----------------|
|-----------------|-----------------|-----------------|-----------------|


  N.C.                                                                D5
  +H      E E E E   +H      E E E E   +H      E E E E   +H     E  E E E
|-----------------|-----------------|-----------------|-----------------||
|-----------------|-----------------|-----------------|-----------------||
|-----------------|-----------------|-----------------|-----------------||
|-(0)-----7-5-3-5-|-(5)-----7-5-3-3-|-(3)-----7-5-3---|--------2h=3-----||
|-----------------|-----------------|---------------3-|-(3)-------------||
|-----------------|-----------------|-----------------|---------------0-||
|
| +H      E E E E   +H      E E E E   +H      E E E E   +H     E  E E E
|-----------------|-----------------|-----------------|-----------------||
|-----------------|-----------------|-----------------|-----------------||
|-(7)----10-9-7-9-|-(9)----10-9-7---|--------10-9-7---|-----------------||
|-----------------|---------------8-|-(8)-----------7-|-(7)----7h10---0-||
|-----------------|-----------------|-----------------|---------------0-||
|-----------------|-----------------|-----------------|---------------0-||


 Bridge
      PM------------------------------|
  +E  E E E E E E E    E  E E E S S E E E
|-------------------|---------------------|
|-------------------|---------------------|
|-------------------|---------------------|
|-------------------|---------------------|
|-------5---3---5---|--8----7---7h8p7-----|
|-(0)-0---0---0---0-|-----0---0-------8-0-|
|
| +W                  +W
|-------------------|---------------------|
|-------------------|---------------------|
|-------------------|---------------------|
|-(0)---------------|-(0)-----------------|
|-(0)---------------|-(0)-----------------|
|-(0)---------------|-(0)-----------------|


                                            D5
      PM---------------------------------|
  +E  E E E E E E E    E   E  E E S  S E  E E
|-------------------|---------------------------|
|-------------------|---------------------------|
|-------------------|---------------------------|
|-------------------|---------------------------|
|-------5---3---5---|-13-----12---8h10p8--------|
|-(0)-0---0---0---0-|------0----0--------10-0---|
|
| +W                  +H..                  E
|-------------------|---------------------------|
|-------------------|---------------------------|
|-------------------|---------------------------|
|-(0)---------------|-(0)-------------------0---|
|-(0)---------------|-(0)-------------------0---|
|-(0)---------------|-(0)-------------------0---|


        N.C.                                                  F5            N.C.
      PM----------------------------|         PM----------|
  +E  E E E E E E E   E E E E S S E E E   +E  E E E E E E E   E E E E E E E E
|-------------------|-------------------|-------------------|-----------------||
|-------------------|-------------------|-------------------|-----------------||
|-------------------|-------------------|-------------------|-----------------||
|-------------------|-------------------|-------------------|-3-3-3-3-3-3-3---||
|-------5---3---5---|-8---7---7h8p7-----|-------5---3---5---|-3-3-3-3-3-3-3---||
|-(0)-0---0---0---0-|---0---0-------8-0-|-(0)-0---0---0---0-|-3-3-3-3-3-3-3-0-||
|
| +Q    Q   H         W                    W                  E E E E E E E E
|-------------------|-------------------|-------------------|-----------------||
|-------------------|-------------------|-------------------|-----------------||
|-------------------|-------------------|-------------------|-----------------||
|-(0)---------------|-------------------|-------------------|-3-3-3-3-3-3-3-0-||
|-(0)---------------|-------------------|-------------------|-3-3-3-3-3-3-3---||
|-(0)---------------|-------------------|-------------------|-3-3-3-3-3-3-3---||


 Interlude
  $
  N.C.
      PM---------------------------------|
  +E  E  E E E E  E E    E E  E E S  S E  E E
|---------------------|-----------------------|
|---------------------|-----------------------|
|---------------------|-----------------------|
|---------------------|-----------------------|
|--------5---3----5---|--8----7---7h=8p7------|
|-(0)-0----0---0----0-|----0----0---------8-0-|
|
|     PM---------------------------------|
| +E  E  E E E E  E E    E E  E E S  S E  E E
|---------------------|-----------------------|
|---------------------|-----------------------|
|-------10---9---10---|-12---10---9h10p9------|
|-(0)-0----0---0----0-|----0----0--------10-0-|
|---------------------|-----------------------|
|---------------------|-----------------------|


      PM-----------------------------------|
  +E  E  E E E E  E E    E E  E E  S  S  E  E E
|---------------------|---------------------------|
|---------------------|---------------------------|
|---------------------|---------------------------|
|---------------------|---------------------------|
|--------5---3----5---|-13---12----8h10p=8--------|
|-(0)-0----0---0----0-|----0----0----------10-0---|
|
|     PM-----------------------------------|
| +E  E  E E E E  E E    E E  E E  S  S  E  E E
|---------------------|---------------------------|
|---------------------|---------------------------|
|-------10---9---10---|-15---14---12h14p12-10-----|
|-(0)-0----0---0----0-|----0----0-------------0---|
|---------------------|---------------------------|
|---------------------|---------------------------|


  N.C.                                      G5
      PM---------------------------------|
  +E  E  E E E E  E E    E E  E E S  S E  E E
|---------------------|-----------------------|
|---------------------|-----------------------|
|---------------------|-----------------------|
|---------------------|---------------------5-|
|--------5---3----5---|--8----7---7h=8p7----5-|
|-(0)-0----0---0----0-|----0----0---------8-5-|
|
|     PM---------------------------------|
| +E  E  E E E E  E E    E E  E E S  S E  E E
|---------------------|-----------------------|
|---------------------|-----------------------|
|-------10---9---10---|-12---10---9h10p9------|
|-(0)-0----0---0----0-|----0----0--------10-5-|
|---------------------|---------------------5-|
|---------------------|---------------------5-|


                    Bb5                   N.C.
        PM|       PM          PM|       PM
  +E  E E E E +E  E E   +E  E E E E +E  E E
|---------------------|---------------------|
|---------------------|---------------------|
|---------------------|---------------------|
|-(5)-5-----5-(5)---8-|-(8)-8-----8-(8)-----|
|-(5)-5-5-5-5-(5)-5-8-|-(8)-8-8-8-8-(8)-8---|
|-(5)-5-5-5-5-(5)-5-8-|-(8)-8-8-8-8-(8)-8-0-|
|
|       PM|       PM          PM|       PM
| +E  E E E E +E  E E   +E  E E E E +E  E E
|---------------------|---------------------|
|---------------------|---------------------|
|---------------------|---------------------|
|-(5)-5-----5-(5)---8-|-(8)-8-----8-(8)---0-|
|-(5)-5-5-5-5-(5)-5-8-|-(8)-8-8-8-8-(8)-8---|
|-(5)-5-5-5-5-(5)-5-8-|-(8)-8-8-8-8-(8)-8---|


  N.C.
      PM---------------------------------|
  +E  E  E E E E  E E    E E  E E S  S E  E E
|---------------------|-----------------------|
|---------------------|-----------------------|
|---------------------|-----------------------|
|---------------------|-----------------------|
|--------5---3----5---|--8----7---7h=8p7------|
|-(0)-0----0---0----0-|----0----0---------8-0-|
|
|     PM---------------------------------|
| +E  E  E E E E  E E    E E  E E S  S E  E E
|---------------------|-----------------------|
|---------------------|-----------------------|
|-------10---9---10---|-12---10---9h10p9------|
|-(0)-0----0---0----0-|----0----0--------10-0-|
|---------------------|-----------------------|
|---------------------|-----------------------|


      PM-----------------------------------|
  +E  E  E E E E  E E    E E  E E  S  S  E  E E
|---------------------|---------------------------|
|---------------------|---------------------------|
|---------------------|---------------------------|
|---------------------|---------------------------|
|--------5---3----5---|-13---12----8h10p=8--------|
|-(0)-0----0---0----0-|----0----0----------10-0---|
|
|     PM-----------------------------------|
| +E  E  E E E E  E E    E E  E E  S  S  E  E E
|---------------------|---------------------------|
|---------------------|---------------------------|
|-------10---9---10---|-15---14---12h14p12-10-----|
|-(0)-0----0---0----0-|----0----0-------------0---|
|---------------------|---------------------------|
|---------------------|---------------------------|


  N.C.                                      G5
      PM---------------------------------|
  +E  E  E E E E  E E    E E  E E S  S E  E E
|---------------------|-----------------------|
|---------------------|-----------------------|
|---------------------|-----------------------|
|---------------------|---------------------5-|
|--------5---3----5---|--8----7---7h=8p7----5-|
|-(0)-0----0---0----0-|----0----0---------8-5-|
|
|     PM---------------------------------|
| +E  E  E E E E  E E    E E  E E S  S E  E E
|---------------------|-----------------------|
|---------------------|-----------------------|
|-------10---9---10---|-12---10---9h10p9------|
|-(0)-0----0---0----0-|----0----0--------10-5-|
|---------------------|---------------------5-|
|---------------------|---------------------5-|


                                   To Coda
                    Bb5
        PM|       PM          PM|
  +E  E E E E +E  E E   +E  E E E E +E  E E
|---------------------|---------------------||
|---------------------|---------------------||
|---------------------|---------------------||
|-(5)-5-----5-(5)---8-|-(8)-8-----8-(8)-8-8-||
|-(5)-5-5-5-5-(5)-5-8-|-(8)-8-8-8-8-(8)-8-8-||
|-(5)-5-5-5-5-(5)-5-8-|-(8)-8-8-8-8-(8)-8-8-||
|
|       PM|       PM          PM|
| +E  E E E E +E  E E   +E  E E E E +E  E E
|---------------------|---------------------||
|---------------------|---------------------||
|---------------------|---------------------||
|-(5)-5-----5-(5)---8-|-(8)-8-----8-(8)-8-8-||
|-(5)-5-5-5-5-(5)-5-8-|-(8)-8-8-8-8-(8)-8-8-||
|-(5)-5-5-5-5-(5)-5-8-|-(8)-8-8-8-8-(8)-8-8-||


 Chorus
  G5  Gsus2
  Gtrs I, II
  PM|
  E E Q.   E E E   E E E E E E E E
|----------------|-----------------|
|----------------|-----------------|
|----------------|-----------------|
|-----7----7-7-7-|-7-7-7-7-7-7-7-7-|
|-5-5-5----5-5-5-|-5-5-5-5-5-5-5-5-|
|-5-5-5----5-5-5-|-5-5-5-5-5-5-5-5-|


  Bb5 Bbsus2                                D5
  PM|
  E E  Q.    E  E  E    E  E  E  E  E  E  E E
|--------------------|------------------------|
|--------------------|------------------------|
|--------------------|------------------------|
|-----10----10-10-10-|-10-10-10-10-10-10-10-0-|
|-8-8--8-----8--8--8-|--8--8--8--8--8--8--8-0-|
|-8-8--8-----8--8--8-|--8--8--8--8--8--8--8-0-|


                                                E5
  Gtr I
  +E  E E +E  E E +E  E   +E  E +E  E +E  E +E  E
|-----------------------|-------------------------|
|-------5-(5)---6-(6)-5-|-(5)-------5-(5)---------|
|-----5-------5---------|-----5-(5)-------5-(5)---|
|-(0)-------------------|-----------------------2-|
|-(0)-------------------|-------------------------|
|-(0)-------------------|-------------------------|
|
| Gtr II
|       PM----------------------------------|
| +E  E E  E  E E  E  E    E  E  E  E  E  E  E  E
|-----------------------|-------------------------|
|-----------------------|-------------------------|
|-----------------------|-------------------------|
|-(0)-0-----------------|-----------------------2-|
|-(0)-0-0--0--0-0--0--0-|--0--0--0--0--0--0--0--2-|
|-(0)-0-0--0--0-0--0--0-|--0--0--0--0--0--0--0--2-|


                        F5
  +E  E +E  E +E  E +E  E   +E  E +E  E +E  E +E  E
|-------------------------|-------------------------|
|-----------5-(5)---------|-----------5-(5)---------|
|-----5-(5)-------5-(5)---|-----5-(5)-------5-(5)-5-|
|-(2)-------------------3-|-(3)---------------------|
|-------------------------|-------------------------|
|-------------------------|-------------------------|
|
|        PM---------|              PM---|
| +E  E  E  E  E  E  E  E   +E  E  E  E  E  E  E  E
|-------------------------|-------------------------|
|-------------------------|-------------------------|
|-------------------------|-------------------------|
|-(2)-2-----------------3-|-(3)-3-----------3--3--3-|
|-(2)-2--2--2--2--2--2--3-|-(3)-3--3--3--3--3--3--3-|
|-(2)-2--2--2--2--2--2--3-|-(3)-3--3--3--3--3--3--3-|


  G5  Gsus2
  Gtrs I, II
  PM|
  E E Q.   E E E   E E E E E E E E
|----------------|-----------------|
|----------------|-----------------|
|----------------|-----------------|
|-----7----7-7-7-|-7-7-7-7-7-7-7-7-|
|-5-5-5----5-5-5-|-5-5-5-5-5-5-5-5-|
|-5-5-5----5-5-5-|-5-5-5-5-5-5-5-5-|


  Bb5 Bbsus2                                D5
  PM|
  E E  Q.    E  E  E    E  E  E  E  E  E  E E
|--------------------|------------------------|
|--------------------|------------------------|
|--------------------|------------------------|
|-----10----10-10-10-|-10-10-10-10-10-10-10-0-|
|-8-8--8-----8--8--8-|--8--8--8--8--8--8--8-0-|
|-8-8--8-----8--8--8-|--8--8--8--8--8--8--8-0-|


                                                                D.S. al Coda
                                    E5                  F5                  D5
        PM------------------------|           PM------|           PM--|
  +E  E E E E E E E   E E E E E E E E   +E  E E E E E E E   +E  E E E E E E E
|-------------------|-----------------|-------------------|-------------------||
|-------------------|-----------------|-------------------|-------------------||
|-------------------|-----------------|-------------------|-------------------||
|-(0)-0-------------|---------------2-|-(2)-2-----------3-|-(3)-3-------3-3-0-||
|-(0)-0-0-0-0-0-0-0-|-0-0-0-0-0-0-0-2-|-(2)-2-2-2-2-2-2-3-|-(3)-3-3-3-3-3-3-0-||
|-(0)-0-0-0-0-0-0-0-|-0-0-0-0-0-0-0-2-|-(2)-2-2-2-2-2-2-3-|-(3)-3-3-3-3-3-3-0-||


 Breakdown
  Q=82
  &
  D5
  Gtrs I, II
  W          +W
|----------|--------|
|----------|--------|
|----------|--------|
|-0--------|-(0)----|
|-0--------|-(0)----|
|-0--------|-(0)----|


  D5  N.C.
  Gtr III
  S S S S S S S S S S S S T T S S S   S S S S S S S S S S S S S S S S
|-----------------------------------|----------------------------------|
|-----------------------------------|----------------------------------|
|-------------------------4h5p4-----|----------------------------------|
|---------------5---3-----------5---|---------5-----5---------5--------|
|-----3---5-------------------------|-----3-----3---------3-----3---3--|
|-0-0---0---0-0---0---0-0---------0-|-5-5---5-----5---3-3---3-----3----|
|
| Gtr II
| E   E   Q       H                   W
|-----------------------------------|----------------------------------|
|-----------------------------------|----------------------------------|
|-----------------------------------|----------------------------------|
|-0---------------------------------|----------------------------------|
|-0---------------------------------|----------------------------------|
|-0---------------------------------|----------------------------------|


  N.C.
  S S S S S S S S S S S S T T S S S   S S S S S S S S S S S S S S S S
|-----------------------------------|----------------------------------||
|-----------------------------------|----------------------------------||
|-----------------------------------|----------------------------------||
|---------------3---2-----2h3p2-----|---------5-----5---------5--------||
|-----3---5---------------------3p0-|-----3-----3---------3-----3---3--||
|-0-0---0---0-0---0---0-0-----------|-5-5---5-----5---3-3---3-----3----||
|
| W                                   W
|-----------------------------------|----------------------------------||
|-----------------------------------|----------------------------------||
|-----------------------------------|----------------------------------||
|-----------------------------------|----------------------------------||
|-----------------------------------|----------------------------------||
|-----------------------------------|----------------------------------||


   Guitar Break
    N.C.
    Gtr III
    S S S S S S S S  S  S S S T T S S S
||--------------------------------------|
||o-------------------------------------|
||----------------------------4h5p4-----|
||----------------5-----3-----------5---|
||o-----3---5---------------------------|
||--0-0---0---0-0----0----0-0---------0-|
|
|   Gtr IV
|   S S S S S S S S +S  S S S S   S S S
||--------------------------------------|
||o---------8-----------------8---------|
||------9-----9---9-(9)---9-------9---9-|
||--0-0---0-----0-------0---0-------0---|
||o-------------------------------------|
||--------------------------------------|


  S S S S S  S     S  S  S  S S S S  S     S  S
|-----------------------------------------------|
|-----------------------------------------------|
|-----------------------------------------------|
|---------5-----------5-----------5-------------|
|-----3------3----------------3------3--------3-|
|-5-5---5----------5-----3--3---3----------3----|
|
| E   E   S +S    +S  S +E    E   S +S    +S  S
|-----------------------------------------------|
|---------5-(5)b6r(5)-------------5-(5)b6r(5)---|
|-----5---------------5-(5)-------------------5-|
|-3---------------------------3-----------------|
|-----------------------------------------------|
|-----------------------------------------------|


  1.,2.,3.
  N.C.
  S S S S S S S S  S  S S S T T S S S
|-------------------------------------|
|-------------------------------------|
|-------------------------------------|
|---------------3-----2-----2h3p2-----|
|-----3---5-----------------------3p0-|
|-0-0---0---0-0----0----0-0-----------|
|
| S S S S S S S S +S  S S S S   S S S
|-------------------------------------|
|---------8-----------------8---------|
|-----9-----9---9-(9)---9-------9---9-|
|-0-0---0-----0-------0---0-------0---|
|-------------------------------------|
|-------------------------------------|


  S S S S S  S     S  S  S  S S S S  S     S  S   4x
|-------------------------------------------------||
|------------------------------------------------o||
|-------------------------------------------------||
|---------5-----------5-----------5---------------||
|-----3------3----------------3------3--------3--o||
|-5-5---5----------5-----3--3---3----------3------||
|
| E   E   S +S    +S  S +E    E   S +S    +S  S   4x
|-------------------------------------------------||
|---------5-(5)b6r(5)-------------5-(5)b6r(5)----o||
|-----5---------------5-(5)-------------------5---||
|-3---------------------------3-------------------||
|------------------------------------------------o||
|-------------------------------------------------||


  4.
  N.C.                                  G5              Bb5
                                        Gtr I
                                          PM--|
  S S S S S S S S  S  S S S T T S S S   S S S S S S S S S S S S S S S S
|-------------------------------------|----------------------------------||
|-------------------------------------|----------------------------------||
|-------------------------------------|----------------------------------||
|---------------3-----2-----2h3p2-----|-5-------5-5-5-5S8-8-8-8-8-8-8-8--||
|-----3---5-----------------------3p0-|-5-5-5-5-5-5-5-5S8-8-8-8-8-8-8-8--||
|-0-0---0---0-0----0----0-0-----------|-5-5-5-5-5-5-5-5S8-8-8-8-8-8-8-8--||
|
|                                       Gtr II
|                                         PM--|
| S S S S S S S S +S  S S S S   S S S   S S S S S S S S S S S S S S S S
|-------------------------------------|----------------------------------||
|---------8-----------------8---------|----------------------------------||
|-----9-----9---9-(9)---9-------9---9-|----------------------------------||
|-0-0---0-----0-------0---0-------0---|-5-------5-5-5-5S8-8-8-8-8-8-8-8--||
|-------------------------------------|-5-5-5-5-5-5-5-5S8-8-8-8-8-8-8-8--||
|-------------------------------------|-5-5-5-5-5-5-5-5S8-8-8-8-8-8-8-8--||


 Interlude
  D5                                  G5              F5
  PM----------------------------------------------------------------|
  S S S S S S S S S S S S T T S S S   S S S S S S S S S S S S S S S S
|-----------------------------------|----------------------------------|
|-----------------------------------|----------------------------------|
|-------------------------4h5p4-----|----------------------------------|
|---------------5---3-----------5---|---------5-----5---------5--------|
|-----3---5-------------------------|-----3-----3---------3-----3---3--|
|-0-0---0---0-0---0---0-0---------0-|-5-5---5-----5---3-3---3-----3----|
|
| S S S S S S S S S S S S S   S S S   S S S S S S S S S S S S S S S S
|-----------------------------------|----------------------------------|
|-----------------------------------|----------------------------------|
|-----------------------------------|----------------------------------|
|-0-0-0-0-0-0-0-0-0-0-0-0-0---0-0-0-|-5-5-5-5-5-5-5-5-3-3-3-3-3-3-3-3--|
|-0-0-0-0-0-0-0-0-0-0-0-0-0---0-0-0-|-5-5-5-5-5-5-5-5-3-3-3-3-3-3-3-3--|
|-0-0-0-0-0-0-0-0-0-0-0-0-0---0-0-0-|-5-5-5-5-5-5-5-5-3-3-3-3-3-3-3-3--|


  D5                                  G5              Bb5
  PM----------------------------------------------------------------|
  S S S S S S S S S S S S T T S S S   S S S S S S S S S S S S S S S S
|-----------------------------------|----------------------------------|
|-----------------------------------|----------------------------------|
|-----------------------------------|----------------------------------|
|---------------3---2-----2h3p2-----|---------5-----5---------5--------|
|-----3---5---------------------3p0-|-----3-----3---------3-----3---3--|
|-0-0---0---0-0---0---0-0-----------|-5-5---5-----5---3-3---3-----3----|
|
| S S S S S S S S S S S S S   S S S   S S S S S S S S S S S S S S S S
|-----------------------------------|----------------------------------|
|-----------------------------------|----------------------------------|
|-----------------------------------|----------------------------------|
|-0-0-0-0-0-0-0-0-0-0-0-0-0---0-0-0-|-5-5-5-5-5-5-5-5-8-8-8-8-8-8-8-8--|
|-0-0-0-0-0-0-0-0-0-0-0-0-0---0-0-0-|-5-5-5-5-5-5-5-5-8-8-8-8-8-8-8-8--|
|-0-0-0-0-0-0-0-0-0-0-0-0-0---0-0-0-|-5-5-5-5-5-5-5-5-8-8-8-8-8-8-8-8--|


  D5                                  G5              F5
  PM----------------------------------------------------------------|
  S S S S S S S S S S S S T T S S S   S S S S S S S S S S S S S S S S
|-----------------------------------|----------------------------------|
|-----------------------------------|----------------------------------|
|-------------------------4h5p4-----|----------------------------------|
|---------------5---3-----------5---|---------5-----5---------5--------|
|-----3---5-------------------------|-----3-----3---------3-----3---3--|
|-0-0---0---0-0---0---0-0---------0-|-5-5---5-----5---3-3---3-----3----|
|
| PM----------------------------------------------------------------|
| S S S S S S S S S S S S S   S S S   S S S S S S S S S S S S S S S S
|-----------------------------------|----------------------------------|
|-----------------------------------|----------------------------------|
|-----------------------------------|----------------------------------|
|-----------------------------------|----------------------------------|
|-0-0-0-0-0-0-0-0-0-0-0-0-0---0-0-0-|-5-5-5-5-5-5-5-5-3-3-3-3-3-3-3-3--|
|-0-0-0-0-0-0-0-0-0-0-0-0-0---0-0-0-|-5-5-5-5-5-5-5-5-3-3-3-3-3-3-3-3--|


  D5                                  G5   Bb5   D5
  PM------------------------------|
  S S S S S S S S S S S S T T S S S   H    Q..   S
|-----------------------------------|--------------||
|-----------------------------------|--------------||
|-----------------------------------|------------7-||
|---------------3---2-----2h3p2-----|-5----8-----7-||
|-----3---5---------------------3p0-|-5----8-----5-||
|-0-0---0---0-0---0---0-0-----------|-5----8-------||
|
| PM------------------------------|
| S S S S S S S S S S S S S   S S S   H    Q..   S
|-----------------------------------|--------------||
|-----------------------------------|--------------||
|-----------------------------------|--------------||
|-----------------------------------|-5----8-----0-||
|-0-0-0-0-0-0-0-0-0-0-0-0-0---0-0-0-|-5----8-----0-||
|-0-0-0-0-0-0-0-0-0-0-0-0-0---0-0-0-|-5----8-----0-||


  a Tempo Q=194
           N.C.   A5/E         N.C.   Bb5/F
  Gtr I
  +E  E Q   E E E E   +E  E Q   E E E  E
|-------------------|--------------------|
|-------------------|--------------------|
|-(7)-7-7--10s9---9-|-(9)-9-9--10s9---10-|
|-(7)-7-7---------7-|-(7)-7-7----------8-|
|-(5)-5-5---8s7---7-|-(7)-7-7---8s7----8-|
|-------------------|--------------------|
|
| Gtr II
| +W                  +W
|-------------------|--------------------|
|-------------------|--------------------|
|-------------------|--------------------|
|-(0)---------------|-(0)----------------|
|-(0)---------------|-(0)----------------|
|-(0)---------------|-(0)----------------|


              N.C.   G5/D            F5/C  D5
   +E   E  Q   E E E E   +E   E Q  E E +E  E
|----------------------|---------------------||
|----------------------|---------------------||
|-(10)-10-10--10s9---7-|-(7)--7-7--7s5-(5)-7-||
|--(8)--8--8---------5-|-(5)--5-5--5s3-(3)-7-||
|--(8)--8--8---8s7---5-|-(5)--5-5--5s3-(3)-5-||
|----------------------|---------------------||
|
|  +W                    +H..              E
|----------------------|---------------------||
|----------------------|---------------------||
|----------------------|---------------------||
|--(0)-----------------|-(0)---------------0-||
|--(0)-----------------|-(0)---------------0-||
|--(0)-----------------|-(0)---------------0-||


 Outro/Guitar Solo
  D5               A5                   Bb5
  Gtr I
  +E   E Q   E E E E   +E   E Q   E E E  E
|--------------------|---------------------|
|--------------------|---------------------|
|-(7)--7-7--10s9---9-|-(9)--9-9--10s9---10-|
|-(7)--7-7---------7-|-(7)--7-7----------8-|
|-(5)--5-5---8s7---7-|-(7)--7-7---8s7----8-|
|--------------------|---------------------|
|
| Gtr II
| +H..             E   +H..              E
|--------------------|---------------------|
|--------------------|---------------------|
|--------------------|---------------------|
|-(0)--------------7-|-(7)---------------8-|
|-(0)--------------7-|-(7)---------------8-|
|-(0)--------------7-|-(7)---------------8-|
|
| Gtr V
|  W                    W
|--------------------|---------------------|
|--------------------|---------------------|
|--------------------|---------------------|
|--------------------|---------------------|
|--------------------|---------------------|
|--------------------|---------------------|


                      G5                    D5
   +E    E  Q   E E E E   +E   E Q  E E +E  E
|-----------------------|---------------------|
|-----------------------|---------------------|
|-(10)--10-10--10s9---7-|-(7)--7-7--7s5-(5)---|
|--(8)---8--8---------5-|-(5)--5-5--5s3-(3)-0-|
|--(8)---8--8---8s7---5-|-(5)--5-5--5s3-(3)---|
|-----------------------|---------------------|
|
|  +H..               E   +H..              E
|-----------------------|---------------------|
|-----------------------|---------------------|
|-----------------------|---------------------|
|--(8)----------------5-|-(5)---------------0-|
|--(8)----------------5-|-(5)---------------0-|
|--(8)----------------5-|-(5)---------------0-|
|
|   W                      H..              E
|-----------------------|---------------------|
|-----------------------|---------------------|
|-----------------------|-------------------7-|
|-----------------------|---------------------|
|-----------------------|---------------------|
|-----------------------|---------------------|


                   A5                   Bb5
  +H         E E E E   +H         E E E E
|--------------------|--------------------|
|--------------------|--------------------|
|--------------------|--------------------|
|-(0)--------7-5-3-5-|-(5)--------7-5-3-3-|
|--------------------|--------------------|
|--------------------|--------------------|
|
| +E  E E E  E E E E   +E  E E E  E E E E
|--------------------|--------------------|
|--------------------|--------------------|
|--------------------|--------------------|
|-(0)-0-0-0--0-0-0-7-|-(7)-7-7-7--7-7-7-8-|
|-(0)-0-0-0--0-0-0-7-|-(7)-7-7-7--7-7-7-8-|
|-(0)-0-0-0--0-0-0-7-|-(7)-7-7-7--7-7-7-8-|
|
| +H         E E E E   +H         E E E E
|--------------------|--------------------|
|--------------------|--------------------|
|-(7)-------10-9-7-9-|-(9)-------10-9-7---|
|--------------------|------------------8-|
|--------------------|--------------------|
|--------------------|--------------------|


                   C5                          D5
  +H         E E E  E    +H            E  E  E E
|---------------------|--------------------------|
|---------------------|--------------------------|
|---------------------|--------------------------|
|-(3)--------7-5-3----|----------------2h=3----0-|
|-------------------3-|--(3)---------------------|
|---------------------|--------------------------|
|
| +E  E E E  E E E  E    +E   E  E  E  E  E  E E
|---------------------|--------------------------|
|---------------------|--------------------------|
|---------------------|--------------------------|
|-(8)-8-8-8--8-8-8-10-|-(10)-10-10-10-10-10-10-0-|
|-(8)-8-8-8--8-8-8-10-|-(10)-10-10-10-10-10-10-0-|
|-(8)-8-8-8--8-8-8-10-|-(10)-10-10-10-10-10-10-0-|
|
| +H         E E E  E    +H            E  E  E E
|---------------------|--------------------------|
|---------------------|--------------------------|
|-----------10-9-7----|------------------------7-|
|-(8)---------------7-|--(7)-----------7h10------|
|---------------------|--------------------------|
|---------------------|--------------------------|


                   A5                   Bb5
  +H         E E E E   +H         E E E   E
|--------------------|----------------------|
|--------------------|----------------------|
|--------------------|----------------------|
|-(0)--------7-5-3-5-|-(5)--------7-5-3--/8-|
|--------------------|----------------------|
|--------------------|----------------------|
|
| +E  E E E  E E E E   +E  E E E  E E E   E
|--------------------|----------------------|
|--------------------|----------------------|
|--------------------|----------------------|
|-(0)-0-0-0--0-0-0-7-|-(7)-7-7-7--7-7-7---8-|
|-(0)-0-0-0--0-0-0-7-|-(7)-7-7-7--7-7-7---8-|
|-(0)-0-0-0--0-0-0-7-|-(7)-7-7-7--7-7-7---8-|
|
| +H         E E E E   +H         E E E   E
|--------------------|----------------------|
|--------------------|----------------------|
|-(7)-------10-9-7-9-|-(9)-------10-9-7-/12-|
|--------------------|----------------------|
|--------------------|----------------------|
|--------------------|----------------------|


                    C5                           D5
   +Q     Q   E E E   E    +Q      Q     E  E  E E
|-----------------------|--------------------------|
|-----------------------|--------------------------|
|-----------------------|--------------------------|
|--(8)----7---5p3---/10-|-(10)-----8-----7h=8----0-|
|-----------------------|--------------------------|
|-----------------------|--------------------------|
|
|  +E  E  E E E E E   E    +E   E  E  E  E  E  E E
|-----------------------|--------------------------|
|-----------------------|--------------------------|
|-----------------------|--------------------------|
|--(8)-8--8-8-8-8-8--10-|-(10)-10-10-10-10-10-10-0-|
|--(8)-8--8-8-8-8-8--10-|-(10)-10-10-10-10-10-10-0-|
|--(8)-8--8-8-8-8-8--10-|-(10)-10-10-10-10-10-10-0-|
|
|  +Q     Q   E E E   E    +Q      Q     E  E  E E
|-----------------------|--------------------------|
|-----------------------|--------------------------|
|-(12)---10---9p7---/14-|-(14)----12----10h12----7-|
|-----------------------|--------------------------|
|-----------------------|--------------------------|
|-----------------------|--------------------------|


                   A5                   Bb5
  +H        Q    E E   +H        Q    E E
|--------------------|--------------------|
|--------------------|--------------------|
|--------------------|--------------------|
|-(0)-------8----7-5-|-(5)-------8----7-3-|
|--------------------|--------------------|
|--------------------|--------------------|
|
| +E  E E E E E  E E   +E  E E E E E  E E
|--------------------|--------------------|
|--------------------|--------------------|
|--------------------|--------------------|
|-(0)-0-0-0-0-0--0-7-|-(7)-7-7-7-7-7--7-8-|
|-(0)-0-0-0-0-0--0-7-|-(7)-7-7-7-7-7--7-8-|
|-(0)-0-0-0-0-0--0-7-|-(7)-7-7-7-7-7--7-8-|
|
| +H        Q    E E   +H        Q    E E
|--------------------|--------------------|
|--------------------|--------------------|
|-(7)-------9---10-5-|-(5)-------9---10---|
|--------------------|------------------8-|
|--------------------|--------------------|
|--------------------|--------------------|


                   C5                          D5
  +H        Q    E  E    +H            E  E  E E
|---------------------|--------------------------|
|---------------------|--------------------------|
|---------------------|--------------------------|
|-(3)-------8----7--2-|--(2)-----------2h=3----0-|
|---------------------|--------------------------|
|---------------------|--------------------------|
|
| +E  E E E E E  E  E    +E   E  E  E  E  E  E E
|---------------------|--------------------------|
|---------------------|--------------------------|
|---------------------|--------------------------|
|-(8)-8-8-8-8-8--8-10-|-(10)-10-10-10-10-10-10-0-|
|-(8)-8-8-8-8-8--8-10-|-(10)-10-10-10-10-10-10-0-|
|-(8)-8-8-8-8-8--8-10-|-(10)-10-10-10-10-10-10-0-|
|
| +H        Q    E  E    +H            E  E  E E
|---------------------|--------------------------|
|---------------------|--------------------------|
|-----------9---10--5-|--(5)-----------9h10----7-|
|-(8)-----------------|--------------------------|
|---------------------|--------------------------|
|---------------------|--------------------------|


                   A5                   Bb5
  +H        Q    E E   +H        Q    E E
|--------------------|--------------------|
|--------------------|--------------------|
|--------------------|--------------------|
|-(0)-------8----7-5-|-(5)-------8----7-3-|
|--------------------|--------------------|
|--------------------|--------------------|
|
| +E  E E E E E  E E   +E  E E E E E  E E
|--------------------|--------------------|
|--------------------|--------------------|
|--------------------|--------------------|
|-(0)-0-0-0-0-0--0-7-|-(7)-7-7-7-7-7--7-8-|
|-(0)-0-0-0-0-0--0-7-|-(7)-7-7-7-7-7--7-8-|
|-(0)-0-0-0-0-0--0-7-|-(7)-7-7-7-7-7--7-8-|
|
| +H        Q    E E   +H        Q    E E
|--------------------|--------------------|
|--------------------|--------------------|
|-(7)-------9---10-5-|-(5)-------9---10---|
|--------------------|------------------8-|
|--------------------|--------------------|
|--------------------|--------------------|


                   C5                          D5
  +H        Q    E  E    +Q      Q     E  E  E  E
|---------------------|---------------------------|
|---------------------|---------------------------|
|---------------------|---------------------------|
|-(3)-------8----7-10-|-(10)-----8-----7h=8-------|
|---------------------|-------------------------5-|
|---------------------|-------------------------0-|
|
| +E  E E E E E  E  E    +E   E  E  E  E  E  E  E
|---------------------|---------------------------|
|---------------------|---------------------------|
|---------------------|---------------------------|
|-(8)-8-8-8-8-8--8-10-|-(10)-10-10-10-10-10-10--0-|
|-(8)-8-8-8-8-8--8-10-|-(10)-10-10-10-10-10-10--0-|
|-(8)-8-8-8-8-8--8-10-|-(10)-10-10-10-10-10-10--0-|
|
| +H        Q    E  E    +H            E  E  E  E
|---------------------|---------------------------|
|---------------------|---------------------------|
|-----------9---10--5-|--(5)-----------9h10----/7-|
|-(8)-----------------|---------------------------|
|---------------------|------------------------/5-|
|---------------------|---------------------------|


                   A5                   Bb5
   ~~~~                 ~~~~
  +H..             E   +H..              E
|--------------------|---------------------|
|--------------------|---------------------|
|--------------------|---------------------|
|------------------2-|-(2)---------------3-|
|-(5)----------------|---------------------|
|-(0)--------------2-|-(2)---------------3-|
|
| +E   E E E E E E E   +E   E E E E E E  E
|--------------------|---------------------|
|--------------------|---------------------|
|--------------------|---------------------|
|-(0)--0-0-0-0-0-0-7-|-(7)--7-7-7-7-7-7--8-|
|-(0)--0-0-0-0-0-0-7-|-(7)--7-7-7-7-7-7--8-|
|-(0)--0-0-0-0-0-0-7-|-(7)--7-7-7-7-7-7--8-|
|
|                       ~~~~
| +H..             E   +H..              E
|--------------------|---------------------|
|--------------------|---------------------|
|-(7)--------------9-|-(9)--------------10-|
|--------------------|---------------------|
|-(5)--------------7-|-(7)---------------8-|
|--------------------|---------------------|


                    C5                           D5
    ~~~~~                  ~~~~~
   +H..              E    +H..                   E
|----------------------|---------------------------|
|----------------------|---------------------------|
|----------------------|---------------------------|
|--(3)---------------5-|--(5)----------------------|
|----------------------|-------------------------5-|
|--(3)---------------5-|--(5)--------------------0-|
|
|  +E   E E E E E E  E    +E    E  E  E  E  E  E E
|----------------------|---------------------------|
|----------------------|---------------------------|
|----------------------|---------------------------|
|--(8)--8-8-8-8-8-8-10-|-(10)--10-10-10-10-10-10-0-|
|--(8)--8-8-8-8-8-8-10-|-(10)--10-10-10-10-10-10-0-|
|--(8)--8-8-8-8-8-8-10-|-(10)--10-10-10-10-10-10-0-|
|
|   ~~~~~                  ~~~~~
|  +H..              E    +H..                   E
|----------------------|---------------------------|
|----------------------|---------------------------|
|-(10)--------------12-|-(12)----------------------|
|----------------------|---------------------------|
|--(8)--------------10-|-(10)--------------------5-|
|----------------------|---------------------------|


                           A5                            Bb5
   ~~~~                         ~~~~
  +H..                     E   +H..                       E
|----------------------------|------------------------------|
|----------------------------|------------------------------|
|----------------------------|------------------------------|
|--------------------------2-|-(2)------------------------3-|
|-(5)------------------------|------------------------------|
|-(0)----------------------2-|-(2)------------------------3-|
|
| +E   E E   E   E   E   E E   +E   E E   E   E   E    E  E
|----------------------------|------------------------------|
|----------------------------|------------------------------|
|----------------------------|------------------------------|
|-(0)--0-0---0---0---0---0-7-|-(7)--7-7---7---7---7----7--8-|
|-(0)--0-0---0---0---0---0-7-|-(7)--7-7---7---7---7----7--8-|
|-(0)--0-0---0---0---0---0-7-|-(7)--7-7---7---7---7----7--8-|
|
|        |--3--| |--3--|              |--3--| |--3--|
| +Q     E E   E E E   E E E   +Q     E E   E E E   E  E  E
|----------------------------|------------------------------|
|----------------------------|------------------------------|
|------------------------5---|----------------5h7h==9-12-10-|
|----------------5h7h==8---8-|-(8)----5h7h==8---------------|
|-(5)----5h7h==8-------------|------------------------------|
|----------------------------|------------------------------|


                           C5                                D5
    ~~~~~                         ~~~~~
   +H..                     E    +H..                          E
|-----------------------------|-----------------------------------|
|-----------------------------|-----------------------------------|
|-----------------------------|-----------------------------------|
|--(3)----------------------5-|--(5)---------------------------0--|
|-----------------------------|--------------------------------0--|
|--(3)----------------------5-|--(5)---------------------------0--|
|
|  +E    E  E E  E  E   E   E    +E    E  E  E  E     E   E    E
|-----------------------------|-----------------------------------|
|-----------------------------|-----------------------------------|
|-----------------------------|-----------------------------------|
|--(8)---8--8-8--8--8---8--10-|-(10)--10-10-10-10----10--10----0--|
|--(8)---8--8-8--8--8---8--10-|-(10)--10-10-10-10----10--10----0--|
|--(8)---8--8-8--8--8---8--10-|-(10)--10-10-10-10----10--10----0--|
|
|           ~~      ~~~~~~~               ~~          ~~~~~~~
|  +E    E  Q    E  E  +E   E    +E    E  Q     E    +E  +E    E
|-----------------------------|------------------------------/10--|
|-----------------------------|-----------------------------------|
|-(10)--10-10---10-10-(10)--9-|--(9)---9--9-----9b10r(9)-(9)------|
|-----------------------------|-----------------------------------|
|-----------------------------|-----------------------------------|
|-----------------------------|-----------------------------------|


                    A5                       Bb5
   +E   E E E E E E   E    +E  E  E E  E E E  E
|-----------------------|-----------------------|
|-----------------------|-----------------------|
|-----------------------|-----------------------|
|--(0)--0-0-0-0-0-0---7-|--(7)-7--7-7--7-7-7--8-|
|--(0)--0-0-0-0-0-0---7-|--(7)-7--7-7--7-7-7--8-|
|--(0)--0-0-0-0-0-0---7-|--(7)-7--7-7--7-7-7--8-|
|
|  +E   E E E E E E   E    +E  E  E E  E E E  E
|-----------------------|-----------------------|
|-----------------------|-----------------------|
|-----------------------|-----------------------|
|--(0)--0-0-0-0-0-0---7-|--(7)-7--7-7--7-7-7--8-|
|--(0)--0-0-0-0-0-0---7-|--(7)-7--7-7--7-7-7--8-|
|--(0)--0-0-0-0-0-0---7-|--(7)-7--7-7--7-7-7--8-|
|
|  +H..               E    +Q     Q    Q   E  E
|-(10)--------------/13-|-(13)---12---10---8-10-|
|-----------------------|-----------------------|
|-----------------------|-----------------------|
|-----------------------|-----------------------|
|-----------------------|-----------------------|
|-----------------------|-----------------------|


                    C5                                 D5
   +E   E E E E E E   E    +E   E  E  E  E     E     E   E
|-----------------------|------------------------------------|
|-----------------------|------------------------------------|
|-----------------------|------------------------------------|
|--(8)--8-8-8-8-8-8--10-|-(10)-10-10-10-10----10----10---0---|
|--(8)--8-8-8-8-8-8--10-|-(10)-10-10-10-10----10----10---0---|
|--(8)--8-8-8-8-8-8--10-|-(10)-10-10-10-10----10----10---0---|
|
|  +E   E E E E E E   E    +E   E  E  E  E     E     E   E
|-----------------------|------------------------------------|
|-----------------------|------------------------------------|
|-----------------------|------------------------------------|
|--(8)--8-8-8-8-8-8--10-|-(10)-10-10-10-10----10----10---0---|
|--(8)--8-8-8-8-8-8--10-|-(10)-10-10-10-10----10----10---0---|
|--(8)--8-8-8-8-8-8--10-|-(10)-10-10-10-10----10----10---0---|
|
|                                        |---3----|
|  +H..               E    +Q      Q     E  E     E  E   E
|-(10)--------------/17-|-(17)----15----12h13p===12----/10---|
|-----------------------|---------------------------13-------|
|-----------------------|------------------------------------|
|-----------------------|------------------------------------|
|-----------------------|------------------------------------|
|-----------------------|------------------------------------|


                   A5                       Bb5
  +E   E E E E E E   E    +E  E  E E  E E E  E
|----------------------|-----------------------|
|----------------------|-----------------------|
|----------------------|-----------------------|
|-(0)--0-0-0-0-0-0---7-|--(7)-7--7-7--7-7-7--8-|
|-(0)--0-0-0-0-0-0---7-|--(7)-7--7-7--7-7-7--8-|
|-(0)--0-0-0-0-0-0---7-|--(7)-7--7-7--7-7-7--8-|
|
| +E   E E E E E E   E    +E  E  E E  E E E  E
|----------------------|-----------------------|
|----------------------|-----------------------|
|----------------------|-----------------------|
|-(0)--0-0-0-0-0-0---7-|--(7)-7--7-7--7-7-7--8-|
|-(0)--0-0-0-0-0-0---7-|--(7)-7--7-7--7-7-7--8-|
|-(0)--0-0-0-0-0-0---7-|--(7)-7--7-7--7-7-7--8-|
|
|  H..               E    +Q     Q    Q   E  E
|-10---------------/13-|-(13)---12---10---8-10-|
|----------------------|-----------------------|
|----------------------|-----------------------|
|----------------------|-----------------------|
|----------------------|-----------------------|
|----------------------|-----------------------|


                   C5                                 D5
   +E  E E E E E E  E    +E    E    E    E    E  E  E  E
|---------------------|----------------------------------|
|---------------------|----------------------------------|
|---------------------|----------------------------------|
|--(8)-8-8-8-8-8-8-10-|-(10)--10---10---10---10-10-10-12-|
|--(8)-8-8-8-8-8-8-10-|-(10)--10---10---10---10-10-10-12-|
|--(8)-8-8-8-8-8-8-10-|-(10)--10---10---10---10-10-10-12-|
|
|  +E  E E E E E E  E    +E    E    E    E    E  E  E  E
|---------------------|----------------------------------|
|---------------------|----------------------------------|
|---------------------|----------------------------------|
|--(8)-8-8-8-8-8-8-10-|-(10)--10---10---10---10-10-10-12-|
|--(8)-8-8-8-8-8-8-10-|-(10)--10---10---10---10-10-10-12-|
|--(8)-8-8-8-8-8-8-10-|-(10)--10---10---10---10-10-10-12-|
|
|                         |--3---|  |--3---|
|  +W                     E E    E  E E    E  E  E  E  E
|-(10)----------------|-----------------------5h=6p=5----|
|---------------------|-------------5h6h===8-------------|
|---------------------|---5h7h===9---------------------7-|
|---------------------|----------------------------------|
|---------------------|----------------------------------|
|---------------------|----------------------------------|


  D5
   +Q    Q  H      W
|----------------|------*|
|----------------|------*|
|----------------|------*|
|-(12)\----------|------*|
|-(12)\----------|------*|
|-(12)\----------|------*|
|
|  +Q    Q  H      W
|----------------|------*|
|----------------|------*|
|----------------|------*|
|-(12)\----------|------*|
|-(12)\----------|------*|
|-(12)\----------|------*|
|
|  +Q    Q  H      W
|----------------|------*|
|----------------|------*|
|--(7)\----------|------*|
|----------------|------*|
|----------------|------*|
|----------------|------*|


Duration Legend
---------------
W - whole; H - half; Q - quarter; E - 8th; S - 16th; T - 32nd; X - 64th; a - acciaccatura
+ - note tied to previous; . - note dotted; .. - note double dotted
Uncapitalized letters represent notes that are staccato (1/2 duration)
Irregular groupings are notated above the duration line
Duration letters will always appear directly above the note/fret number it represents the
duration for.  Duration letters with no fret number below them represent rests.  Multi-
bar rests are notated in the form Wxn, where n is the number of bars to rest for.  Low
melody durations appear below the staff

Tablature Legend
----------------
 h   - hammer-on
 p   - pull-off
 b   - bend
 pb  - pre-bend
 r   - bend release (if no number after the r, then release immediately)
 /\  - slide into or out of (from/to "nowhere")
 s   - legato slide
 S   - shift slide
<n>  - natural harmonic
[n]  - artificial harmonic
n(n) - tapped harmonic
 ~   - vibrato
 tr  - trill
 T   - tap
 TP  - trem. picking
 PM  - palm muting
\n/  - tremolo bar dip; n = amount to dip
 \n  - tremolo bar down
 n/  - tremolo bar up
/n\  - tremolo bar inverted dip
 =   - hold bend; also acts as connecting device for hammers/pulls
 <>  - volume swell (louder/softer)
 x   - on rhythm slash represents muted slash
 o   - on rhythm slash represents single note slash

Misc Legend
-----------
 |  - bar
||  - double bar
||o - repeat start
o|| - repeat end
*|  - double bar (ending)
 :  - bar (freetime)
 $  - Segno
 &  - Coda
Tempo markers - <E/E./Q/Q./H/H.> = BPM(8/16=s8/s16), where s8 = swing 8ths, s16 = swing 16ths
comments
We did not receive enough feedback on this tab! Please rate:
print report bad tab
1 2 3 4 5
I want to post or [tab]
guest
You may want to rate the tab now too:
select rating
Please do not post tabs as comments. Select "correction" instead!